  0
SECTION
  2
HEADER
  9
$ACADVER
  1
AC1015
  9
$ACADMAINTVER
 70
     6
  9
$DWGCODEPAGE
  3
ANSI_1252
  9
$INSBASE
 10
0.0
 20
0.0
 30
0.0
  9
$EXTMIN
 10
0.0
 20
0.0
 30
0.0
  9
$EXTMAX
 10
2100.0
 20
2970.0
 30
0.0
  9
$LIMMIN
 10
0.0
 20
0.0
  9
$LIMMAX
 10
2100.0
 20
2970.0
  9
$ORTHOMODE
 70
     0
  9
$REGENMODE
 70
     1
  9
$FILLMODE
 70
     1
  9
$QTEXTMODE
 70
     0
  9
$MIRRTEXT
 70
     1
  9
$LTSCALE
 40
10.0
  9
$ATTMODE
 70
     1
  9
$TEXTSIZE
 40
2.5
  9
$TRACEWID
 40
1.0
  9
$TEXTSTYLE
  7
Standard
  9
$CLAYER
  8
0
  9
$CELTYPE
  6
ByLayer
  9
$CECOLOR
 62
     7
  9
$CELTSCALE
 40
1.0
  9
$DISPSILH
 70
     0
  9
$DIMSCALE
 40
10.0
  9
$DIMASZ
 40
3.5
  9
$DIMEXO
 40
0.625
  9
$DIMDLI
 40
3.75
  9
$DIMRND
 40
0.0
  9
$DIMDLE
 40
0.0
  9
$DIMEXE
 40
1.25
  9
$DIMTP
 40
0.0
  9
$DIMTM
 40
0.0
  9
$DIMTXT
 40
3.5
  9
$DIMCEN
 40
2.5
  9
$DIMTSZ
 40
0.0
  9
$DIMTOL
 70
     0
  9
$DIMLIM
 70
     0
  9
$DIMTIH
 70
     0
  9
$DIMTOH
 70
     0
  9
$DIMSE1
 70
     0
  9
$DIMSE2
 70
     0
  9
$DIMTAD
 70
     1
  9
$DIMZIN
 70
     8
  9
$DIMBLK
  1

  9
$DIMASO
 70
     1
  9
$DIMSHO
 70
     1
  9
$DIMPOST
  1

  9
$DIMAPOST
  1

  9
$DIMALT
 70
     0
  9
$DIMALTD
 70
     3
  9
$DIMALTF
 40
0.03937
  9
$DIMLFAC
 40
1.0
  9
$DIMTOFL
 70
     1
  9
$DIMTVP
 40
0.0
  9
$DIMTIX
 70
     0
  9
$DIMSOXD
 70
     0
  9
$DIMSAH
 70
     0
  9
$DIMBLK1
  1

  9
$DIMBLK2
  1

  9
$DIMSTYLE
  2
ISO-25
  9
$DIMCLRD
 70
     0
  9
$DIMCLRE
 70
     0
  9
$DIMCLRT
 70
     0
  9
$DIMTFAC
 40
1.0
  9
$DIMGAP
 40
0.625
  9
$DIMJUST
 70
     0
  9
$DIMSD1
 70
     0
  9
$DIMSD2
 70
     0
  9
$DIMTOLJ
 70
     0
  9
$DIMTZIN
 70
     8
  9
$DIMALTZ
 70
     0
  9
$DIMALTTZ
 70
     0
  9
$DIMUPT
 70
     0
  9
$DIMDEC
 70
     2
  9
$DIMTDEC
 70
     2
  9
$DIMALTU
 70
     2
  9
$DIMALTTD
 70
     3
  9
$DIMTXSTY
  7
Standard
  9
$DIMAUNIT
 70
     0
  9
$DIMADEC
 70
     0
  9
$DIMALTRND
 40
0.0
  9
$DIMAZIN
 70
     0
  9
$DIMDSEP
 70
    44
  9
$DIMATFIT
 70
     3
  9
$DIMFRAC
 70
     0
  9
$DIMLDRBLK
  1

  9
$DIMLUNIT
 70
     2
  9
$DIMLWD
 70
    -2
  9
$DIMLWE
 70
    -2
  9
$DIMTMOVE
 70
     0
  9
$LUNITS
 70
     2
  9
$LUPREC
 70
     4
  9
$SKETCHINC
 40
1.0
  9
$FILLETRAD
 40
10.0
  9
$AUNITS
 70
     0
  9
$AUPREC
 70
     0
  9
$MENU
  1
.
  9
$ELEVATION
 40
0.0
  9
$PELEVATION
 40
0.0
  9
$THICKNESS
 40
0.0
  9
$LIMCHECK
 70
     0
  9
$CHAMFERA
 40
10.0
  9
$CHAMFERB
 40
10.0
  9
$CHAMFERC
 40
20.0
  9
$CHAMFERD
 40
0.0
  9
$SKPOLY
 70
     0
  9
$TDCREATE
 40
2454390.611734468
  9
$TDUCREATE
 40
2454390.528401134
  9
$TDUPDATE
 40
2454390.611734479
  9
$TDUUPDATE
 40
2454390.528401146
  9
$TDINDWG
 40
0.0000000116
  9
$TDUSRTIMER
 40
0.0000000116
  9
$USRTIMER
 70
     1
  9
$ANGBASE
 50
0.0
  9
$ANGDIR
 70
     0
  9
$PDMODE
 70
     0
  9
$PDSIZE
 40
0.0
  9
$PLINEWID
 40
0.0
  9
$SPLFRAME
 70
     0
  9
$SPLINETYPE
 70
     6
  9
$SPLINESEGS
 70
     8
  9
$HANDSEED
  5
618
  9
$SURFTAB1
 70
     6
  9
$SURFTAB2
 70
     6
  9
$SURFTYPE
 70
     6
  9
$SURFU
 70
     6
  9
$SURFV
 70
     6
  9
$UCSBASE
  2

  9
$UCSNAME
  2

  9
$UCSORG
 10
0.0
 20
0.0
 30
0.0
  9
$UCSXDIR
 10
1.0
 20
0.0
 30
0.0
  9
$UCSYDIR
 10
0.0
 20
1.0
 30
0.0
  9
$UCSORTHOREF
  2

  9
$UCSORTHOVIEW
 70
     0
  9
$UCSORGTOP
 10
0.0
 20
0.0
 30
0.0
  9
$UCSORGBOTTOM
 10
0.0
 20
0.0
 30
0.0
  9
$UCSORGLEFT
 10
0.0
 20
0.0
 30
0.0
  9
$UCSORGRIGHT
 10
0.0
 20
0.0
 30
0.0
  9
$UCSORGFRONT
 10
0.0
 20
0.0
 30
0.0
  9
$UCSORGBACK
 10
0.0
 20
0.0
 30
0.0
  9
$PUCSBASE
  2

  9
$PUCSNAME
  2

  9
$PUCSORG
 10
0.0
 20
0.0
 30
0.0
  9
$PUCSXDIR
 10
1.0
 20
0.0
 30
0.0
  9
$PUCSYDIR
 10
0.0
 20
1.0
 30
0.0
  9
$PUCSORTHOREF
  2

  9
$PUCSORTHOVIEW
 70
     0
  9
$PUCSORGTOP
 10
0.0
 20
0.0
 30
0.0
  9
$PUCSORGBOTTOM
 10
0.0
 20
0.0
 30
0.0
  9
$PUCSORGLEFT
 10
0.0
 20
0.0
 30
0.0
  9
$PUCSORGRIGHT
 10
0.0
 20
0.0
 30
0.0
  9
$PUCSORGFRONT
 10
0.0
 20
0.0
 30
0.0
  9
$PUCSORGBACK
 10
0.0
 20
0.0
 30
0.0
  9
$USERI1
 70
     0
  9
$USERI2
 70
     0
  9
$USERI3
 70
     0
  9
$USERI4
 70
     0
  9
$USERI5
 70
     0
  9
$USERR1
 40
0.0
  9
$USERR2
 40
0.0
  9
$USERR3
 40
0.0
  9
$USERR4
 40
0.0
  9
$USERR5
 40
0.0
  9
$WORLDVIEW
 70
     1
  9
$SHADEDGE
 70
     3
  9
$SHADEDIF
 70
    70
  9
$TILEMODE
 70
     1
  9
$MAXACTVP
 70
    64
  9
$PINSBASE
 10
0.0
 20
0.0
 30
0.0
  9
$PLIMCHECK
 70
     0
  9
$PEXTMIN
 10
0.0
 20
0.0
 30
0.0
  9
$PEXTMAX
 10
2100.0
 20
2970.0
 30
0.0
  9
$PLIMMIN
 10
0.0
 20
0.0
  9
$PLIMMAX
 10
2100.0
 20
2970.0
  9
$UNITMODE
 70
     0
  9
$VISRETAIN
 70
     1
  9
$PLINEGEN
 70
     0
  9
$PSLTSCALE
 70
     1
  9
$TREEDEPTH
 70
  3020
  9
$CMLSTYLE
  2
Standard
  9
$CMLJUST
 70
     0
  9
$CMLSCALE
 40
20.0
  9
$PROXYGRAPHICS
 70
     1
  9
$MEASUREMENT
 70
     1
  9
$CELWEIGHT
370
    -1
  9
$ENDCAPS
280
     0
  9
$JOINSTYLE
280
     0
  9
$LWDISPLAY
290
     0
  9
$INSUNITS
 70
     4
  9
$HYPERLINKBASE
  1

  9
$STYLESHEET
  1

  9
$XEDIT
290
     1
  9
$CEPSNTYPE
380
     0
  9
$PSTYLEMODE
290
     1
  9
$FINGERPRINTGUID
  2
{FAEB1C30-E019-11D5-929B-00C0DF256EC4}
  9
$VERSIONGUID
  2
{FAEB1C32-E019-11D5-929B-00C0DF256EC4}
  9
$EXTNAMES
290
     1
  9
$PSVPSCALE
 40
0.0
  9
$OLESTARTUP
290
     0
  0
ENDSEC
  0
SECTION
  2
CLASSES
  0
CLASS
  1
ACDBDICTIONARYWDFLT
  2
AcDbDictionaryWithDefault
  3
ObjectDBX Classes
 90
        0
280
     0
281
     0
  0
CLASS
  1
ACDBPLACEHOLDER
  2
AcDbPlaceHolder
  3
ObjectDBX Classes
 90
        0
280
     0
281
     0
  0
CLASS
  1
LAYOUT
  2
AcDbLayout
  3
ObjectDBX Classes
 90
        0
280
     0
281
     0
  0
ENDSEC
  0
SECTION
  2
TABLES
  0
TABLE
  2
VPORT
  5
8
330
0
100
AcDbSymbolTable
 70
     2
  0
VPORT
  5
29
330
8
100
AcDbSymbolTableRecord
100
AcDbViewportTableRecord
  2
*ACTIVE
 70
     0
 10
0.0
 20
0.0
 11
1.0
 21
1.0
 12
1050.0
 22
1485.0
 13
0.0
 23
0.0
 14
1.0
 24
1.0
 15
0.0
 25
0.0
 16
0.0
 26
0.0
 36
1.0
 17
0.0
 27
0.0
 37
0.0
 40
2970.0
 41
0.707071
 42
50.0
 43
0.0
 44
0.0
 50
0.0
 51
0.0
 71
    16
 72
   100
 73
     1
 74
     0
 75
     0
 76
     0
 77
     0
 78
     0
281
     0
 65
     0
110
0.0
120
0.0
130
0.0
111
1.0
121
0.0
131
0.0
112
0.0
122
1.0
132
0.0
 79
     0
146
0.0
  0
ENDTAB
  0
TABLE
  2
LTYPE
  5
5
330
0
100
AcDbSymbolTable
 70
     4
  0
LTYPE
  5
14
330
5
100
AcDbSymbolTableRecord
100
AcDbLinetypeTableRecord
  2
ByBlock
 70
     0
  3

 72
    65
 73
     0
 40
0.0
  0
LTYPE
  5
15
330
5
100
AcDbSymbolTableRecord
100
AcDbLinetypeTableRecord
  2
ByLayer
 70
     0
  3

 72
    65
 73
     0
 40
0.0
  0
LTYPE
  5
16
330
5
100
AcDbSymbolTableRecord
100
AcDbLinetypeTableRecord
  2
Continuous
 70
     0
  3
Solid line
 72
    65
 73
     0
 40
0.0
  0
LTYPE
  5
2A
330
5
100
AcDbSymbolTableRecord
100
AcDbLinetypeTableRecord
  2
DASHED
 70
     0
  3
__ __ __ __ __
 72
    65
 73
     2
 40
6.25
 49
5.0
 74
     4
 75
     0
340
0
 46
1.0
 50
0.0
 44
0.0
 45
0.0
 49
-1.25
 74
     4
 75
     0
340
0
 46
1.0
 50
0.0
 44
0.0
 45
0.0
  0
LTYPE
  5
106
330
5
100
AcDbSymbolTableRecord
100
AcDbLinetypeTableRecord
  2
DASHDOT
 70
     0
  3
__ . __ . __ . __ . __
 72
    65
 73
     4
 40
7.5
 49
5.0
 74
     4
 75
     0
340
0
 46
1.0
 50
0.0
 44
0.0
 45
0.0
 49
-1.25
 74
     4
 75
     0
340
0
 46
1.0
 50
0.0
 44
0.0
 45
0.0
 49
0.0
 74
     4
 75
     0
340
0
 46
1.0
 50
0.0
 44
0.0
 45
0.0
 49
-1.25
 74
     4
 75
     0
340
0
 46
1.0
 50
0.0
 44
0.0
 45
0.0
  0
LTYPE
  5
112
330
5
100
AcDbSymbolTableRecord
100
AcDbLinetypeTableRecord
  2
CENTER
 70
     0
  3
__ . __ . __ . __ . __
 72
    65
 73
     4
 40
7.5
 49
5.0
 74
     4
 75
     0
340
0
 46
1.0
 50
0.0
 44
0.0
 45
0.0
 49
-1.25
 74
     4
 75
     0
340
0
 46
1.0
 50
0.0
 44
0.0
 45
0.0
 49
0.0
 74
     4
 75
     0
340
0
 46
1.0
 50
0.0
 44
0.0
 45
0.0
 49
-1.25
 74
     4
 75
     0
340
0
 46
1.0
 50
0.0
 44
0.0
 45
0.0
  0
ENDTAB
  0
TABLE
  2
LAYER
  5
2
330
0
100
AcDbSymbolTable
 70
    20
  0
LAYER
  5
10
330
2
100
AcDbSymbolTableRecord
100
AcDbLayerTableRecord
  2
0
 70
     0
 62
     7
  6
Continuous
370
    -3
390
F
  0
LAYER
  5
2B
330
2
100
AcDbSymbolTableRecord
100
AcDbLayerTableRecord
  2
LC-INFO-1-10-mm-A4H-0
 70
     1
 62
     7
  6
ByBlock
370
    -3
390
F
  0
LAYER
  5
2C
330
2
100
AcDbSymbolTableRecord
100
AcDbLayerTableRecord
  2
LC-CUT-HIDDEN
 70
     0
 62
     7
  6
DASHED
370
    -3
390
F
  0
LAYER
  5
2D
330
2
100
AcDbSymbolTableRecord
100
AcDbLayerTableRecord
  2
LC-VIEWPORT
 70
     0
 62
     7
  6
ByBlock
370
    -3
390
F
  0
LAYER
  5
2E
330
2
100
AcDbSymbolTableRecord
100
AcDbLayerTableRecord
  2
LC-3D-HIDDEN
 70
     0
 62
     9
  6
DASHED
370
    -3
390
F
  0
LAYER
  5
33
330
2
100
AcDbSymbolTableRecord
100
AcDbLayerTableRecord
  2
LC-001-111-----0
 70
     0
 62
   253
  6
ByBlock
370
    -3
390
F
  0
LAYER
  5
9F
330
2
100
AcDbSymbolTableRecord
100
AcDbLayerTableRecord
  2
LC-002-002-----0
 70
     0
 62
     1
  6
ByBlock
370
    -3
390
F
  0
LAYER
  5
100
330
2
100
AcDbSymbolTableRecord
100
AcDbLayerTableRecord
  2
LC-003-230-ZVN-0
 70
     0
 62
     1
  6
ByBlock
370
    -3
390
F
  0
LAYER
  5
102
330
2
100
AcDbSymbolTableRecord
100
AcDbLayerTableRecord
  2
LC-004-100-D01-0
 70
     0
 62
     1
  6
ByBlock
370
    -3
390
F
  0
LAYER
  5
113
330
2
100
AcDbSymbolTableRecord
100
AcDbLayerTableRecord
  2
LC-005-006-MLN-0
 70
     0
 62
     2
  6
CENTER
370
    -3
390
F
  0
LAYER
  5
121
330
2
100
AcDbSymbolTableRecord
100
AcDbLayerTableRecord
  2
LC-006-003-MTH-0
 70
     0
 62
     2
  6
ByBlock
370
    -3
390
F
  0
LAYER
  5
124
330
2
100
AcDbSymbolTableRecord
100
AcDbLayerTableRecord
  2
LC-007-003-MTG-0
 70
     0
 62
     2
  6
ByBlock
370
    -3
390
F
  0
LAYER
  5
126
330
2
100
AcDbSymbolTableRecord
100
AcDbLayerTableRecord
  2
LC-008-003-----0
 70
     0
 62
     2
  6
ByBlock
370
    -3
390
F
  0
LAYER
  5
15D
330
2
100
AcDbSymbolTableRecord
100
AcDbLayerTableRecord
  2
LC-009-007-KH--0
 70
     0
 62
    44
  6
DASHDOT
370
    -3
390
F
  0
LAYER
  5
187
330
2
100
AcDbSymbolTableRecord
100
AcDbLayerTableRecord
  2
LC-010-100-D00-0
 70
     0
 62
     1
  6
ByBlock
370
    -3
390
F
  0
LAYER
  5
1FA
330
2
100
AcDbSymbolTableRecord
100
AcDbLayerTableRecord
  2
LC-011-100-D04-0
 70
     0
 62
     1
  6
ByBlock
370
    -3
390
F
  0
LAYER
  5
200
330
2
100
AcDbSymbolTableRecord
100
AcDbLayerTableRecord
  2
LC-012-100-D06-0
 70
     0
 62
     1
  6
ByBlock
370
    -3
390
F
  0
LAYER
  5
259
330
2
100
AcDbSymbolTableRecord
100
AcDbLayerTableRecord
  2
LC-013-002-RND-0
 70
     0
 62
     1
  6
ByBlock
370
    -3
390
F
  0
LAYER
  5
309
330
2
100
AcDbSymbolTableRecord
100
AcDbLayerTableRecord
  2
LC-014-004-----0
 70
     0
 62
     7
  6
ByBlock
370
    -3
390
F
  0
LAYER
  5
30F
330
2
100
AcDbSymbolTableRecord
100
AcDbLayerTableRecord
  2
LC-015-005-----0
 70
     0
 62
     2
  6
ByBlock
370
    -3
390
F
  0
ENDTAB
  0
TABLE
  2
STYLE
  5
3
330
0
100
AcDbSymbolTable
 70
     2
  0
STYLE
  5
11
330
3
100
AcDbSymbolTableRecord
100
AcDbTextStyleTableRecord
  2
Standard
 70
     0
 40
0.0
 41
1.0
 50
0.0
 71
     0
 42
2.5
  3
txt
  4

  0
STYLE
  5
2F
330
3
100
AcDbSymbolTableRecord
100
AcDbTextStyleTableRecord
  2
LCTX0-400-0-0pDIN-Schrift
 70
     0
 40
0.0
 41
0.8
 50
0.0
 71
     0
 42
3.5
  3
TXT
  4

  0
ENDTAB
  0
TABLE
  2
VIEW
  5
6
330
0
100
AcDbSymbolTable
 70
     0
  0
ENDTAB
  0
TABLE
  2
UCS
  5
7
330
0
100
AcDbSymbolTable
 70
     0
  0
ENDTAB
  0
TABLE
  2
APPID
  5
9
330
0
100
AcDbSymbolTable
 70
     1
  0
APPID
  5
12
330
9
100
AcDbSymbolTableRecord
100
AcDbRegAppTableRecord
  2
ACAD
 70
     0
  0
ENDTAB
  0
TABLE
  2
DIMSTYLE
  5
A
330
0
100
AcDbSymbolTable
 70
     1
100
AcDbDimStyleTable
  0
DIMSTYLE
105
27
330
A
100
AcDbSymbolTableRecord
100
AcDbDimStyleTableRecord
  2
ISO-25
 70
     0
 41
2.5
 42
0.625
 43
3.75
 44
1.25
 73
     0
 74
     0
 77
     1
 78
     8
140
2.5
141
2.5
143
0.03937
147
0.625
171
     3
172
     1
271
     2
272
     2
274
     3
278
    44
283
     0
284
     8
340
11
  0
ENDTAB
  0
TABLE
  2
BLOCK_RECORD
  5
1
330
0
100
AcDbSymbolTable
 70
    43
  0
BLOCK_RECORD
  5
1F
330
1
100
AcDbSymbolTableRecord
100
AcDbBlockTableRecord
  2
*Model_Space
340
22
  0
BLOCK_RECORD
  5
1B
330
1
100
AcDbSymbolTableRecord
100
AcDbBlockTableRecord
  2
*Paper_Space
340
1E
  0
BLOCK_RECORD
  5
23
330
1
100
AcDbSymbolTableRecord
100
AcDbBlockTableRecord
  2
*Paper_Space0
340
26
  0
BLOCK_RECORD
  5
30
330
1
100
AcDbSymbolTableRecord
100
AcDbBlockTableRecord
  2
SYM1
340
0
102
{BLKREFS
331
101
102
}
  0
BLOCK_RECORD
  5
11E
330
1
100
AcDbSymbolTableRecord
100
AcDbBlockTableRecord
  2
LCDIM1
340
0
102
{BLKREFS
331
13A
102
}
  0
BLOCK_RECORD
  5
13B
330
1
100
AcDbSymbolTableRecord
100
AcDbBlockTableRecord
  2
LCDIM2
340
0
102
{BLKREFS
331
154
102
}
  0
BLOCK_RECORD
  5
161
330
1
100
AcDbSymbolTableRecord
100
AcDbBlockTableRecord
  2
OBJ1
340
0
102
{BLKREFS
331
166
102
}
  0
BLOCK_RECORD
  5
167
330
1
100
AcDbSymbolTableRecord
100
AcDbBlockTableRecord
  2
OBJ2
340
0
102
{BLKREFS
331
16C
102
}
  0
BLOCK_RECORD
  5
16D
330
1
100
AcDbSymbolTableRecord
100
AcDbBlockTableRecord
  2
OBJ3
340
0
102
{BLKREFS
331
172
102
}
  0
BLOCK_RECORD
  5
173
330
1
100
AcDbSymbolTableRecord
100
AcDbBlockTableRecord
  2
OBJ4
340
0
102
{BLKREFS
331
178
102
}
  0
BLOCK_RECORD
  5
179
330
1
100
AcDbSymbolTableRecord
100
AcDbBlockTableRecord
  2
OBJ5
340
0
102
{BLKREFS
331
17E
102
}
  0
BLOCK_RECORD
  5
17F
330
1
100
AcDbSymbolTableRecord
100
AcDbBlockTableRecord
  2
OBJ6
340
0
102
{BLKREFS
331
185
102
}
  0
BLOCK_RECORD
  5
1F7
330
1
100
AcDbSymbolTableRecord
100
AcDbBlockTableRecord
  2
OBJ7
340
0
102
{BLKREFS
331
1FD
102
}
  0
BLOCK_RECORD
  5
228
330
1
100
AcDbSymbolTableRecord
100
AcDbBlockTableRecord
  2
OBJ8
340
0
102
{BLKREFS
331
22D
102
}
  0
BLOCK_RECORD
  5
25E
330
1
100
AcDbSymbolTableRecord
100
AcDbBlockTableRecord
  2
LCDIM3
340
0
102
{BLKREFS
331
277
102
}
  0
BLOCK_RECORD
  5
278
330
1
100
AcDbSymbolTableRecord
100
AcDbBlockTableRecord
  2
LCDIM4
340
0
102
{BLKREFS
331
286
102
}
  0
BLOCK_RECORD
  5
287
330
1
100
AcDbSymbolTableRecord
100
AcDbBlockTableRecord
  2
LCDIM5
340
0
102
{BLKREFS
331
2A0
102
}
  0
BLOCK_RECORD
  5
2A1
330
1
100
AcDbSymbolTableRecord
100
AcDbBlockTableRecord
  2
LCDIM6
340
0
102
{BLKREFS
331
2BA
102
}
  0
BLOCK_RECORD
  5
2BB
330
1
100
AcDbSymbolTableRecord
100
AcDbBlockTableRecord
  2
LCDIM7
340
0
102
{BLKREFS
331
2D4
102
}
  0
BLOCK_RECORD
  5
2D5
330
1
100
AcDbSymbolTableRecord
100
AcDbBlockTableRecord
  2
LCDIM8
340
0
102
{BLKREFS
331
2EE
102
}
  0
BLOCK_RECORD
  5
30C
330
1
100
AcDbSymbolTableRecord
100
AcDbBlockTableRecord
  2
*X118
340
0
102
{BLKREFS
331
314
102
}
  0
BLOCK_RECORD
  5
315
330
1
100
AcDbSymbolTableRecord
100
AcDbBlockTableRecord
  2
*X219
340
0
102
{BLKREFS
331
31C
102
}
  0
BLOCK_RECORD
  5
3BC
330
1
100
AcDbSymbolTableRecord
100
AcDbBlockTableRecord
  2
POLY1
340
0
102
{BLKREFS
331
3C5
102
}
  0
BLOCK_RECORD
  5
3C6
330
1
100
AcDbSymbolTableRecord
100
AcDbBlockTableRecord
  2
POLY2
340
0
102
{BLKREFS
331
3CF
102
}
  0
BLOCK_RECORD
  5
3D0
330
1
100
AcDbSymbolTableRecord
100
AcDbBlockTableRecord
  2
POLY3
340
0
102
{BLKREFS
331
3DD
102
}
  0
BLOCK_RECORD
  5
3DE
330
1
100
AcDbSymbolTableRecord
100
AcDbBlockTableRecord
  2
POLY4
340
0
102
{BLKREFS
331
3EB
102
}
  0
BLOCK_RECORD
  5
3EC
330
1
100
AcDbSymbolTableRecord
100
AcDbBlockTableRecord
  2
POLY5
340
0
102
{BLKREFS
331
3F0
102
}
  0
BLOCK_RECORD
  5
3F1
330
1
100
AcDbSymbolTableRecord
100
AcDbBlockTableRecord
  2
POLY6
340
0
102
{BLKREFS
331
41A
102
}
  0
BLOCK_RECORD
  5
423
330
1
100
AcDbSymbolTableRecord
100
AcDbBlockTableRecord
  2
POLY7
340
0
102
{BLKREFS
331
432
102
}
  0
BLOCK_RECORD
  5
433
330
1
100
AcDbSymbolTableRecord
100
AcDbBlockTableRecord
  2
POLY8
340
0
102
{BLKREFS
331
440
102
}
  0
BLOCK_RECORD
  5
449
330
1
100
AcDbSymbolTableRecord
100
AcDbBlockTableRecord
  2
LCDIM9
340
0
102
{BLKREFS
331
462
102
}
  0
BLOCK_RECORD
  5
463
330
1
100
AcDbSymbolTableRecord
100
AcDbBlockTableRecord
  2
*X329
340
0
102
{BLKREFS
331
46A
102
}
  0
BLOCK_RECORD
  5
46B
330
1
100
AcDbSymbolTableRecord
100
AcDbBlockTableRecord
  2
LCDIM10
340
0
102
{BLKREFS
331
484
102
}
  0
BLOCK_RECORD
  5
4DE
330
1
100
AcDbSymbolTableRecord
100
AcDbBlockTableRecord
  2
POLY9
340
0
102
{BLKREFS
331
4E2
102
}
  0
BLOCK_RECORD
  5
4F2
330
1
100
AcDbSymbolTableRecord
100
AcDbBlockTableRecord
  2
POLY10
340
0
102
{BLKREFS
331
501
102
}
  0
BLOCK_RECORD
  5
51F
330
1
100
AcDbSymbolTableRecord
100
AcDbBlockTableRecord
  2
POLY11
340
0
102
{BLKREFS
331
52E
102
}
  0
BLOCK_RECORD
  5
52F
330
1
100
AcDbSymbolTableRecord
100
AcDbBlockTableRecord
  2
POLY12
340
0
102
{BLKREFS
331
53A
102
}
  0
BLOCK_RECORD
  5
551
330
1
100
AcDbSymbolTableRecord
100
AcDbBlockTableRecord
  2
LCDIM11
340
0
102
{BLKREFS
331
56A
102
}
  0
BLOCK_RECORD
  5
56D
330
1
100
AcDbSymbolTableRecord
100
AcDbBlockTableRecord
  2
LCDIM12
340
0
102
{BLKREFS
331
586
102
}
  0
BLOCK_RECORD
  5
587
330
1
100
AcDbSymbolTableRecord
100
AcDbBlockTableRecord
  2
LCDIM13
340
0
102
{BLKREFS
331
5A0
102
}
  0
BLOCK_RECORD
  5
5AB
330
1
100
AcDbSymbolTableRecord
100
AcDbBlockTableRecord
  2
LCDIM14
340
0
102
{BLKREFS
331
5C4
102
}
  0
BLOCK_RECORD
  5
5C5
330
1
100
AcDbSymbolTableRecord
100
AcDbBlockTableRecord
  2
LCDIM15
340
0
102
{BLKREFS
331
5DE
102
}
  0
BLOCK_RECORD
  5
5DF
330
1
100
AcDbSymbolTableRecord
100
AcDbBlockTableRecord
  2
LCDIM16
340
0
102
{BLKREFS
331
5ED
102
}
  0
BLOCK_RECORD
  5
5EE
330
1
100
AcDbSymbolTableRecord
100
AcDbBlockTableRecord
  2
LCDIM17
340
0
102
{BLKREFS
331
5FC
102
}
  0
BLOCK_RECORD
  5
5FE
330
1
100
AcDbSymbolTableRecord
100
AcDbBlockTableRecord
  2
*X442
340
0
102
{BLKREFS
331
604
102
}
  0
ENDTAB
  0
ENDSEC
  0
SECTION
  2
BLOCKS
  0
BLOCK
  5
20
330
1F
100
AcDbEntity
  8
0
100
AcDbBlockBegin
  2
*Model_Space
 70
     0
 71
     0
 10
0.0
 20
0.0
 30
0.0
  3
*Model_Space
  1

  0
ENDBLK
  5
21
330
1F
100
AcDbEntity
  8
0
100
AcDbBlockEnd
  0
BLOCK
  5
1C
330
1B
100
AcDbEntity
 67
     1
  8
0
100
AcDbBlockBegin
  2
*Paper_Space
 70
     0
 71
     0
 10
0.0
 20
0.0
 30
0.0
  3
*Paper_Space
  1

  0
ENDBLK
  5
1D
330
1B
100
AcDbEntity
 67
     1
  8
0
100
AcDbBlockEnd
  0
BLOCK
  5
24
330
23
100
AcDbEntity
  8
0
100
AcDbBlockBegin
  2
*Paper_Space0
 70
     0
 71
     0
 10
0.0
 20
0.0
 30
0.0
  3
*Paper_Space0
  1

  0
ENDBLK
  5
25
330
23
100
AcDbEntity
  8
0
100
AcDbBlockEnd
  0
BLOCK
  5
31
330
30
100
AcDbEntity
  8
0
100
AcDbBlockBegin
  2
SYM1
 70
     0
 71
     0
 10
0.0
 20
0.0
 30
0.0
  3
SYM1
  1

  4
SYM1
  0
LINE
  5
34
330
30
100
AcDbEntity
  8
LC-001-111-----0
 62
   253
370
    50
100
AcDbLine
 10
2050.0
 20
50.0
 30
0.0
 11
2050.0
 21
2920.0
 31
0.0
  0
LINE
  5
35
330
30
100
AcDbEntity
  8
LC-001-111-----0
 62
   253
370
    25
100
AcDbLine
 10
178.0
 20
220.0
 30
0.0
 11
724.0
 21
220.0
 31
0.0
  0
LINE
  5
36
330
30
100
AcDbEntity
  8
LC-001-111-----0
 62
   253
370
    35
100
AcDbLine
 10
724.0
 20
220.0
 30
0.0
 11
2050.0
 21
220.0
 31
0.0
  0
LINE
  5
37
330
30
100
AcDbEntity
  8
LC-001-111-----0
 62
   253
370
    50
100
AcDbLine
 10
178.0
 20
602.5
 30
0.0
 11
2050.0
 21
602.5
 31
0.0
  0
LINE
  5
38
330
30
100
AcDbEntity
  8
LC-001-111-----0
 62
   253
370
    25
100
AcDbLine
 10
178.0
 20
92.5
 30
0.0
 11
2050.0
 21
92.5
 31
0.0
  0
LINE
  5
39
330
30
100
AcDbEntity
  8
LC-001-111-----0
 62
   253
370
    25
100
AcDbLine
 10
178.0
 20
135.0
 30
0.0
 11
724.0
 21
135.0
 31
0.0
  0
LINE
  5
3A
330
30
100
AcDbEntity
  8
LC-001-111-----0
 62
   253
370
    25
100
AcDbLine
 10
178.0
 20
177.5
 30
0.0
 11
724.0
 21
177.5
 31
0.0
  0
LINE
  5
3B
330
30
100
AcDbEntity
  8
LC-001-111-----0
 62
   253
370
    25
100
AcDbLine
 10
178.0
 20
262.5
 30
0.0
 11
1166.0
 21
262.5
 31
0.0
  0
LINE
  5
3C
330
30
100
AcDbEntity
  8
LC-001-111-----0
 62
   253
370
    25
100
AcDbLine
 10
178.0
 20
305.0
 30
0.0
 11
1166.0
 21
305.0
 31
0.0
  0
LINE
  5
3D
330
30
100
AcDbEntity
  8
LC-001-111-----0
 62
   253
370
    25
100
AcDbLine
 10
178.0
 20
347.5
 30
0.0
 11
1166.0
 21
347.5
 31
0.0
  0
LINE
  5
3E
330
30
100
AcDbEntity
  8
LC-001-111-----0
 62
   253
370
    25
100
AcDbLine
 10
178.0
 20
390.0
 30
0.0
 11
1166.0
 21
390.0
 31
0.0
  0
LINE
  5
3F
330
30
100
AcDbEntity
  8
LC-001-111-----0
 62
   253
370
    35
100
AcDbLine
 10
178.0
 20
432.5
 30
0.0
 11
2050.0
 21
432.5
 31
0.0
  0
LINE
  5
40
330
30
100
AcDbEntity
  8
LC-001-111-----0
 62
   253
370
    25
100
AcDbLine
 10
828.0
 20
262.5
 30
0.0
 11
828.0
 21
432.5
 31
0.0
  0
LINE
  5
41
330
30
100
AcDbEntity
  8
LC-001-111-----0
 62
   253
370
    35
100
AcDbLine
 10
1920.0
 20
92.5
 30
0.0
 11
1920.0
 21
220.0
 31
0.0
  0
LINE
  5
42
330
30
100
AcDbEntity
  8
LC-001-111-----0
 62
   253
370
    25
100
AcDbLine
 10
1166.0
 20
538.75
 30
0.0
 11
2050.0
 21
538.75
 31
0.0
  0
LINE
  5
43
330
30
100
AcDbEntity
  8
LC-001-111-----0
 62
   253
370
    25
100
AcDbLine
 10
256.0
 20
50.0
 30
0.0
 11
256.0
 21
432.5
 31
0.0
  0
LINE
  5
44
330
30
100
AcDbEntity
  8
LC-001-111-----0
 62
   253
370
    25
100
AcDbLine
 10
516.0
 20
50.0
 30
0.0
 11
516.0
 21
432.5
 31
0.0
  0
LINE
  5
45
330
30
100
AcDbEntity
  8
LC-001-111-----0
 62
   253
370
    25
100
AcDbLine
 10
646.0
 20
50.0
 30
0.0
 11
646.0
 21
432.5
 31
0.0
  0
LINE
  5
46
330
30
100
AcDbEntity
  8
LC-001-111-----0
 62
   253
370
    35
100
AcDbLine
 10
724.0
 20
50.0
 30
0.0
 11
724.0
 21
602.5
 31
0.0
  0
LINE
  5
47
330
30
100
AcDbEntity
  8
LC-001-111-----0
 62
   253
370
    35
100
AcDbLine
 10
1166.0
 20
50.0
 30
0.0
 11
1166.0
 21
602.5
 31
0.0
  0
LINE
  5
48
330
30
100
AcDbEntity
  8
LC-001-111-----0
 62
   253
370
    25
100
AcDbLine
 10
1920.0
 20
135.0
 30
0.0
 11
2050.0
 21
135.0
 31
0.0
  0
LINE
  5
49
330
30
100
AcDbEntity
  8
LC-001-111-----0
 62
   253
370
    25
100
AcDbLine
 10
984.0
 20
220.0
 30
0.0
 11
984.0
 21
602.5
 31
0.0
  0
LINE
  5
4A
330
30
100
AcDbEntity
  8
LC-001-111-----0
 62
   253
370
    25
100
AcDbLine
 10
1686.0
 20
538.75
 30
0.0
 11
1686.0
 21
602.5
 31
0.0
  0
LINE
  5
4B
330
30
100
AcDbEntity
  8
LC-001-111-----0
 62
   253
370
    25
100
AcDbLine
 10
1608.0
 20
50.0
 30
0.0
 11
1608.0
 21
92.5
 31
0.0
  0
LINE
  5
4C
330
30
100
AcDbEntity
  8
LC-001-111-----0
 62
   253
370
    50
100
AcDbLine
 10
178.0
 20
50.0
 30
0.0
 11
178.0
 21
2920.0
 31
0.0
  0
LINE
  5
4D
330
30
100
AcDbEntity
  8
LC-001-111-----0
 62
   253
370
    50
100
AcDbLine
 10
178.0
 20
2920.0
 30
0.0
 11
2050.0
 21
2920.0
 31
0.0
  0
TEXT
  5
4E
330
30
100
AcDbEntity
  8
LC-001-111-----0
 62
     7
370
    25
100
AcDbText
 10
1471.410714
 20
558.125
 30
0.0
 40
25.0
  1
1:10
 41
0.75
  7
LCTX0-400-0-0pDIN-Schrift
 72
     1
 11
1504.0
 21
558.125
 31
0.0
100
AcDbText
  0
TEXT
  5
4F
330
30
100
AcDbEntity
  8
LC-001-111-----0
 62
     7
370
    25
100
AcDbText
 10
740.285714
 20
398.75
 30
0.0
 40
25.0
  1
2000
 41
0.75
  7
LCTX0-400-0-0pDIN-Schrift
 72
     1
 11
776.0
 21
398.75
 31
0.0
100
AcDbText
  0
TEXT
  5
50
330
30
100
AcDbEntity
  8
LC-001-111-----0
 62
     7
370
    25
100
AcDbText
 10
861.803571
 20
356.25
 30
0.0
 40
25.0
  1
08.08.
 41
0.75
  7
LCTX0-400-0-0pDIN-Schrift
 72
     1
 11
906.0
 21
356.25
 31
0.0
100
AcDbText
  0
TEXT
  5
51
330
30
100
AcDbEntity
  8
LC-001-111-----0
 62
     7
370
    25
100
AcDbText
 10
1056.696429
 20
356.25
 30
0.0
 40
25.0
  1
HÄ
 41
0.75
  7
LCTX0-400-0-0pDIN-Schrift
 72
     1
 11
1075.0
 21
356.25
 31
0.0
100
AcDbText
  0
TEXT
  5
52
330
30
100
AcDbEntity
  8
LC-001-111-----0
 62
   253
370
    20
100
AcDbText
 10
1183.923077
 20
560.625
 30
0.0
 40
20.0
  1
Maßstab
 41
0.75
  7
LCTX0-400-0-0pDIN-Schrift
100
AcDbText
  0
TEXT
  5
53
330
30
100
AcDbEntity
  8
LC-001-111-----0
 62
   253
370
    20
100
AcDbText
 10
869.928571
 20
401.25
 30
0.0
 40
20.0
  1
Datum
 41
0.75
  7
LCTX0-400-0-0pDIN-Schrift
 72
     1
 11
906.0
 21
401.25
 31
0.0
100
AcDbText
  0
TEXT
  5
54
330
30
100
AcDbEntity
  8
LC-001-111-----0
 62
   253
370
    20
100
AcDbText
 10
1042.857143
 20
401.25
 30
0.0
 40
20.0
  1
Name
 41
0.75
  7
LCTX0-400-0-0pDIN-Schrift
 72
     1
 11
1075.0
 21
401.25
 31
0.0
100
AcDbText
  0
TEXT
  5
55
330
30
100
AcDbEntity
  8
LC-001-111-----0
 62
   253
370
    20
100
AcDbText
 10
741.923077
 20
358.75
 30
0.0
 40
20.0
  1
Bearb.
 41
0.75
  7
LCTX0-400-0-0pDIN-Schrift
100
AcDbText
  0
TEXT
  5
56
330
30
100
AcDbEntity
  8
LC-001-111-----0
 62
   253
370
    20
100
AcDbText
 10
741.923077
 20
316.25
 30
0.0
 40
20.0
  1
Gepr.
 41
0.75
  7
LCTX0-400-0-0pDIN-Schrift
100
AcDbText
  0
TEXT
  5
57
330
30
100
AcDbEntity
  8
LC-001-111-----0
 62
   253
370
    20
100
AcDbText
 10
741.923077
 20
273.75
 30
0.0
 40
20.0
  1
Norm
 41
0.75
  7
LCTX0-400-0-0pDIN-Schrift
100
AcDbText
  0
TEXT
  5
58
330
30
100
AcDbEntity
  8
LC-001-111-----0
 62
   253
370
    20
100
AcDbText
 10
1937.923077
 20
188.75
 30
0.0
 40
20.0
  1
Blatt
 41
0.75
  7
LCTX0-400-0-0pDIN-Schrift
100
AcDbText
  0
TEXT
  5
59
330
30
100
AcDbEntity
  8
LC-001-111-----0
 62
   253
370
    20
100
AcDbText
 10
2012.076923
 20
103.75
 30
0.0
 40
20.0
  1
Bl.
 41
0.75
  7
LCTX0-400-0-0pDIN-Schrift
 72
     2
 11
2037.076923
 21
103.75
 31
0.0
100
AcDbText
  0
TEXT
  5
5A
330
30
100
AcDbEntity
  8
LC-001-111-----0
 62
   253
370
    20
100
AcDbText
 10
200.0
 20
61.25
 30
0.0
 40
20.0
  1
Zust.
 41
0.6
  7
LCTX0-400-0-0pDIN-Schrift
 72
     1
 11
222.0
 21
61.25
 31
0.0
100
AcDbText
  0
TEXT
  5
5B
330
30
100
AcDbEntity
  8
LC-001-111-----0
 62
   253
370
    20
100
AcDbText
 10
334.928571
 20
61.25
 30
0.0
 40
20.0
  1
Änderung
 41
0.75
  7
LCTX0-400-0-0pDIN-Schrift
 72
     1
 11
386.0
 21
61.25
 31
0.0
100
AcDbText
  0
TEXT
  5
5C
330
30
100
AcDbEntity
  8
LC-001-111-----0
 62
   253
370
    20
100
AcDbText
 10
544.928571
 20
61.25
 30
0.0
 40
20.0
  1
Datum
 41
0.75
  7
LCTX0-400-0-0pDIN-Schrift
 72
     1
 11
581.0
 21
61.25
 31
0.0
100
AcDbText
  0
TEXT
  5
5D
330
30
100
AcDbEntity
  8
LC-001-111-----0
 62
   253
370
    20
100
AcDbText
 10
652.857143
 20
61.25
 30
0.0
 40
20.0
  1
Name
 41
0.75
  7
LCTX0-400-0-0pDIN-Schrift
 72
     1
 11
685.0
 21
61.25
 31
0.0
100
AcDbText
  0
TEXT
  5
5E
330
30
100
AcDbEntity
  8
LC-001-111-----0
 62
     7
370
    50
100
AcDbText
 10
1417.821429
 20
343.75
 30
0.0
 40
50.0
  1
Lotus D-100
 41
0.75
  7
LCTX0-400-0-0pDIN-Schrift
 72
     1
 11
1608.0
 21
343.75
 31
0.0
100
AcDbText
  0
ARC
  5
5F
330
30
100
AcDbEntity
  8
LC-001-111-----0
 62
   253
370
    25
100
AcDbCircle
 10
758.903191
 20
174.567744
 30
0.0
 40
20.81533311668208
100
AcDbArc
 50
62.408264
 51
94.48185
  0
LINE
  5
60
330
30
100
AcDbEntity
  8
LC-001-111-----0
 62
   253
370
    50
100
AcDbLine
 10
178.0
 20
50.0
 30
0.0
 11
2050.0
 21
50.0
 31
0.0
  0
LINE
  5
61
330
30
100
AcDbEntity
  8
LC-001-111-----0
 62
   253
370
    25
100
AcDbLine
 10
50.0
 20
1485.0
 30
0.0
 11
0.0
 21
1485.0
 31
0.0
  0
LINE
  5
62
330
30
100
AcDbEntity
  8
LC-001-111-----0
 62
   253
370
    25
100
AcDbLine
 10
1063.835603
 20
195.169147
 30
0.0
 11
1063.835603
 21
157.149147
 31
0.0
  0
LINE
  5
63
330
30
100
AcDbEntity
  8
LC-001-111-----0
 62
   253
370
    25
100
AcDbLine
 10
2100.0
 20
2970.0
 30
0.0
 11
2100.0
 21
0.0
 31
0.0
  0
LINE
  5
64
330
30
100
AcDbEntity
  8
LC-001-111-----0
 62
   253
370
    25
100
AcDbLine
 10
2100.0
 20
0.0
 30
0.0
 11
0.0
 21
0.0
 31
0.0
  0
LINE
  5
65
330
30
100
AcDbEntity
  8
LC-001-111-----0
 62
   253
370
    25
100
AcDbLine
 10
0.0
 20
0.0
 30
0.0
 11
0.0
 21
2970.0
 31
0.0
  0
LINE
  5
66
330
30
100
AcDbEntity
  8
LC-001-111-----0
 62
   253
370
    25
100
AcDbLine
 10
2100.0
 20
2970.0
 30
0.0
 11
0.0
 21
2970.0
 31
0.0
  0
TEXT
  5
67
330
30
100
AcDbEntity
  8
LC-001-111-----0
 62
   253
370
    20
100
AcDbText
 10
763.0
 20
111.159147
 30
0.0
 40
20.0
  1
Hofbauerstraße1 · D-94209 REGEN
 41
0.65
  7
LCTX0-400-0-0pDIN-Schrift
 72
     1
 11
945.0
 21
111.159147
 31
0.0
100
AcDbText
  0
ARC
  5
68
330
30
100
AcDbEntity
  8
LC-001-111-----0
 62
   253
370
    25
100
AcDbCircle
 10
758.032826
 20
185.671748
 30
0.0
 40
9.677270814709853
100
AcDbArc
 50
94.48185
 51
252.731329
  0
ARC
  5
69
330
30
100
AcDbEntity
  8
LC-001-111-----0
 62
   253
370
    25
100
AcDbCircle
 10
823.845603
 20
176.159147
 30
0.0
 40
19.01000000000008
100
AcDbArc
 50
74.719456
 51
285.280544
  0
LINE
  5
6A
330
30
100
AcDbEntity
  8
LC-001-111-----0
 62
   253
370
    25
100
AcDbLine
 10
828.855603
 20
157.821208
 30
0.0
 11
828.855603
 21
163.204148
 31
0.0
  0
ARC
  5
6B
330
30
100
AcDbEntity
  8
LC-001-111-----0
 62
   253
370
    25
100
AcDbCircle
 10
823.845603
 20
176.159147
 30
0.0
 40
13.88999999999995
100
AcDbArc
 50
68.857352
 51
291.142648
  0
ARC
  5
6C
330
30
100
AcDbEntity
  8
LC-001-111-----0
 62
   253
370
    25
100
AcDbCircle
 10
823.845603
 20
176.159147
 30
0.0
 40
12.39000000000002
100
AcDbArc
 50
58.303227
 51
301.696773
  0
ARC
  5
6D
330
30
100
AcDbEntity
  8
LC-001-111-----0
 62
   253
370
    25
100
AcDbCircle
 10
1019.845603
 20
176.159147
 30
0.0
 40
19.01000000000008
100
AcDbArc
 50
74.719456
 51
285.280544
  0
LINE
  5
6E
330
30
100
AcDbEntity
  8
LC-001-111-----0
 62
   253
370
    25
100
AcDbLine
 10
830.355603
 20
165.617231
 30
0.0
 11
830.355603
 21
156.709726
 31
0.0
  0
LINE
  5
6F
330
30
100
AcDbEntity
  8
LC-001-111-----0
 62
   253
370
    25
100
AcDbLine
 10
755.160101
 20
176.430697
 30
0.0
 11
762.683613
 21
174.091896
 31
0.0
  0
ARC
  5
70
330
30
100
AcDbEntity
  8
LC-001-111-----0
 62
   253
370
    25
100
AcDbCircle
 10
823.845603
 20
176.159147
 30
0.0
 40
20.51000000000012
100
AcDbArc
 50
71.493868
 51
288.506132
  0
LINE
  5
71
330
30
100
AcDbEntity
  8
LC-001-111-----0
 62
   253
370
    25
100
AcDbLine
 10
1024.855603
 20
157.821208
 30
0.0
 11
1024.855603
 21
163.204148
 31
0.0
  0
LINE
  5
72
330
30
100
AcDbEntity
  8
LC-001-111-----0
 62
   253
370
    25
100
AcDbLine
 10
830.355603
 20
195.608569
 30
0.0
 11
830.355603
 21
186.701063
 31
0.0
  0
ARC
  5
73
330
30
100
AcDbEntity
  8
LC-001-111-----0
 62
   253
370
    25
100
AcDbCircle
 10
1019.845603
 20
176.159147
 30
0.0
 40
13.88999999999995
100
AcDbArc
 50
68.857352
 51
291.142648
  0
LINE
  5
74
330
30
100
AcDbEntity
  8
LC-001-111-----0
 62
   253
370
    25
100
AcDbLine
 10
862.835603
 20
155.649147
 30
0.0
 11
862.835603
 21
196.669147
 31
0.0
  0
LINE
  5
75
330
30
100
AcDbEntity
  8
LC-001-111-----0
 62
   253
370
    25
100
AcDbLine
 10
862.835603
 20
196.669147
 30
0.0
 11
872.355603
 21
196.669147
 31
0.0
  0
LINE
  5
76
330
30
100
AcDbEntity
  8
LC-001-111-----0
 62
   253
370
    25
100
AcDbLine
 10
872.355603
 20
196.669147
 30
0.0
 11
872.355603
 21
179.519147
 31
0.0
  0
LINE
  5
77
330
30
100
AcDbEntity
  8
LC-001-111-----0
 62
   253
370
    25
100
AcDbLine
 10
872.355603
 20
179.519147
 30
0.0
 11
887.335603
 21
179.519147
 31
0.0
  0
LINE
  5
78
330
30
100
AcDbEntity
  8
LC-001-111-----0
 62
   253
370
    25
100
AcDbLine
 10
887.335603
 20
179.519147
 30
0.0
 11
887.335603
 21
196.669147
 31
0.0
  0
LINE
  5
79
330
30
100
AcDbEntity
  8
LC-001-111-----0
 62
   253
370
    25
100
AcDbLine
 10
887.335603
 20
196.669147
 30
0.0
 11
896.855603
 21
196.669147
 31
0.0
  0
LINE
  5
7A
330
30
100
AcDbEntity
  8
LC-001-111-----0
 62
   253
370
    25
100
AcDbLine
 10
896.855603
 20
196.669147
 30
0.0
 11
896.855603
 21
155.649147
 31
0.0
  0
LINE
  5
7B
330
30
100
AcDbEntity
  8
LC-001-111-----0
 62
   253
370
    25
100
AcDbLine
 10
896.855603
 20
155.649147
 30
0.0
 11
887.335603
 21
155.649147
 31
0.0
  0
LINE
  5
7C
330
30
100
AcDbEntity
  8
LC-001-111-----0
 62
   253
370
    25
100
AcDbLine
 10
887.335603
 20
155.649147
 30
0.0
 11
887.335603
 21
172.799147
 31
0.0
  0
LINE
  5
7D
330
30
100
AcDbEntity
  8
LC-001-111-----0
 62
   253
370
    25
100
AcDbLine
 10
887.335603
 20
172.799147
 30
0.0
 11
872.355603
 21
172.799147
 31
0.0
  0
LINE
  5
7E
330
30
100
AcDbEntity
  8
LC-001-111-----0
 62
   253
370
    25
100
AcDbLine
 10
872.355603
 20
172.799147
 30
0.0
 11
872.355603
 21
155.649147
 31
0.0
  0
LINE
  5
7F
330
30
100
AcDbEntity
  8
LC-001-111-----0
 62
   253
370
    25
100
AcDbLine
 10
872.355603
 20
155.649147
 30
0.0
 11
862.835603
 21
155.649147
 31
0.0
  0
CIRCLE
  5
80
330
30
100
AcDbEntity
  8
LC-001-111-----0
 62
   253
370
    25
100
AcDbCircle
 10
946.345603
 20
176.159147
 30
0.0
 40
12.39000000000044
  0
CIRCLE
  5
81
330
30
100
AcDbEntity
  8
LC-001-111-----0
 62
   253
370
    25
100
AcDbCircle
 10
946.345603
 20
176.159147
 30
0.0
 40
20.51000000000049
  0
ARC
  5
82
330
30
100
AcDbEntity
  8
LC-001-111-----0
 62
   253
370
    25
100
AcDbCircle
 10
1019.845603
 20
176.159147
 30
0.0
 40
12.39000000000002
100
AcDbArc
 50
58.303227
 51
301.696773
  0
LINE
  5
83
330
30
100
AcDbEntity
  8
LC-001-111-----0
 62
   253
370
    25
100
AcDbLine
 10
864.335603
 20
195.169147
 30
0.0
 11
864.335603
 21
157.149147
 31
0.0
  0
LINE
  5
84
330
30
100
AcDbEntity
  8
LC-001-111-----0
 62
   253
370
    25
100
AcDbLine
 10
1026.355603
 20
165.617231
 30
0.0
 11
1026.355603
 21
156.709726
 31
0.0
  0
LINE
  5
85
330
30
100
AcDbEntity
  8
LC-001-111-----0
 62
   253
370
    25
100
AcDbLine
 10
864.335603
 20
157.149147
 30
0.0
 11
870.855603
 21
157.149147
 31
0.0
  0
LINE
  5
86
330
30
100
AcDbEntity
  8
LC-001-111-----0
 62
   253
370
    25
100
AcDbLine
 10
870.855603
 20
157.149147
 30
0.0
 11
870.855603
 21
174.299147
 31
0.0
  0
LINE
  5
87
330
30
100
AcDbEntity
  8
LC-001-111-----0
 62
   253
370
    25
100
AcDbLine
 10
870.855603
 20
174.299147
 30
0.0
 11
888.835603
 21
174.299147
 31
0.0
  0
LINE
  5
88
330
30
100
AcDbEntity
  8
LC-001-111-----0
 62
   253
370
    25
100
AcDbLine
 10
888.835603
 20
174.299147
 30
0.0
 11
888.835603
 21
157.149147
 31
0.0
  0
LINE
  5
89
330
30
100
AcDbEntity
  8
LC-001-111-----0
 62
   253
370
    25
100
AcDbLine
 10
888.835603
 20
157.149147
 30
0.0
 11
895.355603
 21
157.149147
 31
0.0
  0
LINE
  5
8A
330
30
100
AcDbEntity
  8
LC-001-111-----0
 62
   253
370
    25
100
AcDbLine
 10
895.355603
 20
157.149147
 30
0.0
 11
895.355603
 21
195.169147
 31
0.0
  0
LINE
  5
8B
330
30
100
AcDbEntity
  8
LC-001-111-----0
 62
   253
370
    25
100
AcDbLine
 10
895.355603
 20
195.169147
 30
0.0
 11
888.835603
 21
195.169147
 31
0.0
  0
LINE
  5
8C
330
30
100
AcDbEntity
  8
LC-001-111-----0
 62
   253
370
    25
100
AcDbLine
 10
888.835603
 20
195.169147
 30
0.0
 11
888.835603
 21
178.019147
 31
0.0
  0
LINE
  5
8D
330
30
100
AcDbEntity
  8
LC-001-111-----0
 62
   253
370
    25
100
AcDbLine
 10
888.835603
 20
178.019147
 30
0.0
 11
870.855603
 21
178.019147
 31
0.0
  0
LINE
  5
8E
330
30
100
AcDbEntity
  8
LC-001-111-----0
 62
   253
370
    25
100
AcDbLine
 10
870.855603
 20
178.019147
 30
0.0
 11
870.855603
 21
195.169147
 31
0.0
  0
CIRCLE
  5
8F
330
30
100
AcDbEntity
  8
LC-001-111-----0
 62
   253
370
    25
100
AcDbCircle
 10
946.345603
 20
176.159147
 30
0.0
 40
19.01000000000055
  0
ARC
  5
90
330
30
100
AcDbEntity
  8
LC-001-111-----0
 62
   253
370
    25
100
AcDbCircle
 10
760.836588
 20
168.15034
 30
0.0
 40
6.222024781007809
100
AcDbArc
 50
268.246912
 51
72.731329
  0
ARC
  5
91
330
30
100
AcDbEntity
  8
LC-001-111-----0
 62
   253
370
    25
100
AcDbCircle
 10
761.412387
 20
186.963179
 30
0.0
 40
25.04367341134793
100
AcDbArc
 50
239.19233
 51
268.246912
  0
LINE
  5
92
330
30
100
AcDbEntity
  8
LC-001-111-----0
 62
   253
370
    25
100
AcDbLine
 10
748.586073
 20
165.453385
 30
0.0
 11
748.586073
 21
160.350534
 31
0.0
  0
ARC
  5
93
330
30
100
AcDbEntity
  8
LC-001-111-----0
 62
   253
370
    25
100
AcDbCircle
 10
760.81067
 20
180.45076
 30
0.0
 40
23.52572762426598
100
AcDbArc
 50
238.692783
 51
274.343327
  0
ARC
  5
94
330
30
100
AcDbEntity
  8
LC-001-111-----0
 62
   253
370
    25
100
AcDbCircle
 10
1019.845603
 20
176.159147
 30
0.0
 40
20.51000000000012
100
AcDbArc
 50
71.493868
 51
288.506132
  0
ARC
  5
95
330
30
100
AcDbEntity
  8
LC-001-111-----0
 62
   253
370
    25
100
AcDbCircle
 10
761.779647
 20
167.692822
 30
0.0
 40
10.73104525444839
100
AcDbArc
 50
274.343327
 51
74.255463
  0
LINE
  5
96
330
30
100
AcDbEntity
  8
LC-001-111-----0
 62
   253
370
    25
100
AcDbLine
 10
1026.355603
 20
195.608569
 30
0.0
 11
1026.355603
 21
186.701063
 31
0.0
  0
LINE
  5
97
330
30
100
AcDbEntity
  8
LC-001-111-----0
 62
   253
370
    25
100
AcDbLine
 10
764.691502
 20
178.02125
 30
0.0
 11
757.135251
 21
180.151556
 31
0.0
  0
LINE
  5
98
330
30
100
AcDbEntity
  8
LC-001-111-----0
 62
   253
370
    25
100
AcDbLine
 10
1024.855603
 20
189.114146
 30
0.0
 11
1024.855603
 21
194.497086
 31
0.0
  0
ARC
  5
99
330
30
100
AcDbEntity
  8
LC-001-111-----0
 62
   253
370
    25
100
AcDbCircle
 10
758.632108
 20
185.460948
 30
0.0
 40
5.51636013010035
100
AcDbArc
 50
90.951212
 51
254.255463
  0
ARC
  5
9A
330
30
100
AcDbEntity
  8
LC-001-111-----0
 62
   253
370
    25
100
AcDbCircle
 10
758.906662
 20
168.924866
 30
0.0
 40
22.05472179307849
100
AcDbArc
 50
64.088485
 51
90.951212
  0
LINE
  5
9B
330
30
100
AcDbEntity
  8
LC-001-111-----0
 62
   253
370
    25
100
AcDbLine
 10
768.544191
 20
188.762426
 30
0.0
 11
768.544191
 21
193.015758
 31
0.0
  0
LINE
  5
9C
330
30
100
AcDbEntity
  8
LC-001-111-----0
 62
   253
370
    25
100
AcDbLine
 10
1071.855603
 20
177.513832
 30
0.0
 11
1087.818366
 21
196.669147
 31
0.0
  0
LINE
  5
9D
330
30
100
AcDbEntity
  8
LC-001-111-----0
 62
   253
370
    25
100
AcDbLine
 10
1087.818366
 20
196.669147
 30
0.0
 11
1099.299433
 21
196.669147
 31
0.0
  0
LINE
  5
9E
330
30
100
AcDbEntity
  8
LC-001-111-----0
 62
   253
370
    25
100
AcDbLine
 10
1099.299433
 20
196.669147
 30
0.0
 11
1082.207766
 21
176.159147
 31
0.0
  0
LINE
  5
A0
330
30
100
AcDbEntity
  8
LC-002-002-----0
 62
     1
370
    25
100
AcDbLine
 10
1143.855603
 20
159.963432
 30
0.0
 11
1143.855603
 21
192.354862
 31
0.0
  0
LINE
  5
A1
330
30
100
AcDbEntity
  8
LC-002-002-----0
 62
     1
370
    25
100
AcDbLine
 10
1143.855603
 20
192.354862
 30
0.0
 11
1127.659888
 21
176.159147
 31
0.0
  0
LINE
  5
A2
330
30
100
AcDbEntity
  8
LC-002-002-----0
 62
     1
370
    25
100
AcDbLine
 10
1127.659888
 20
176.159147
 30
0.0
 11
1143.855603
 21
159.963432
 31
0.0
  0
LINE
  5
A3
330
30
100
AcDbEntity
  8
LC-002-002-----0
 62
     1
370
    25
100
AcDbLine
 10
1142.355603
 20
163.584752
 30
0.0
 11
1142.355603
 21
188.733542
 31
0.0
  0
LINE
  5
A4
330
30
100
AcDbEntity
  8
LC-001-111-----0
 62
   253
370
    25
100
AcDbLine
 10
1082.207766
 20
176.159147
 30
0.0
 11
1099.299433
 21
155.649147
 31
0.0
  0
LINE
  5
A5
330
30
100
AcDbEntity
  8
LC-001-111-----0
 62
   253
370
    25
100
AcDbLine
 10
1099.299433
 20
155.649147
 30
0.0
 11
1087.818366
 21
155.649147
 31
0.0
  0
LINE
  5
A6
330
30
100
AcDbEntity
  8
LC-001-111-----0
 62
   253
370
    25
100
AcDbLine
 10
1087.818366
 20
155.649147
 30
0.0
 11
1071.855603
 21
174.804462
 31
0.0
  0
LINE
  5
A7
330
30
100
AcDbEntity
  8
LC-001-111-----0
 62
   253
370
    25
100
AcDbLine
 10
1062.335603
 20
155.649147
 30
0.0
 11
1062.335603
 21
196.669147
 31
0.0
  0
LINE
  5
A8
330
30
100
AcDbEntity
  8
LC-001-111-----0
 62
   253
370
    25
100
AcDbLine
 10
828.855603
 20
189.114146
 30
0.0
 11
828.855603
 21
194.497086
 31
0.0
  0
ARC
  5
A9
330
30
100
AcDbEntity
  8
LC-001-111-----0
 62
   253
370
    25
100
AcDbCircle
 10
758.903191
 20
174.567744
 30
0.0
 40
19.31533311668209
100
AcDbArc
 50
65.072024
 51
94.48185
  0
LINE
  5
AA
330
30
100
AcDbEntity
  8
LC-001-111-----0
 62
   253
370
    25
100
AcDbLine
 10
1063.835603
 20
157.149147
 30
0.0
 11
1070.355603
 21
157.149147
 31
0.0
  0
LINE
  5
AB
330
30
100
AcDbEntity
  8
LC-001-111-----0
 62
   253
370
    25
100
AcDbLine
 10
1070.355603
 20
157.149147
 30
0.0
 11
1070.355603
 21
195.169147
 31
0.0
  0
LINE
  5
AC
330
30
100
AcDbEntity
  8
LC-001-111-----0
 62
   253
370
    25
100
AcDbLine
 10
1070.355603
 20
195.169147
 30
0.0
 11
1063.835603
 21
195.169147
 31
0.0
  0
LINE
  5
AD
330
30
100
AcDbEntity
  8
LC-001-111-----0
 62
   253
370
    25
100
AcDbLine
 10
1065.335603
 20
193.669147
 30
0.0
 11
1065.335603
 21
158.649147
 31
0.0
  0
LINE
  5
AE
330
30
100
AcDbEntity
  8
LC-002-002-----0
 62
     1
370
    25
100
AcDbLine
 10
1142.355603
 20
188.733542
 30
0.0
 11
1129.781208
 21
176.159147
 31
0.0
  0
LINE
  5
AF
330
30
100
AcDbEntity
  8
LC-002-002-----0
 62
     1
370
    25
100
AcDbLine
 10
1129.781208
 20
176.159147
 30
0.0
 11
1142.355603
 21
163.584752
 31
0.0
  0
LINE
  5
B0
330
30
100
AcDbEntity
  8
LC-001-111-----0
 62
   253
370
    25
100
AcDbLine
 10
1062.335603
 20
196.669147
 30
0.0
 11
1071.855603
 21
196.669147
 31
0.0
  0
LINE
  5
B1
330
30
100
AcDbEntity
  8
LC-001-111-----0
 62
   253
370
    25
100
AcDbLine
 10
1071.855603
 20
196.669147
 30
0.0
 11
1071.855603
 21
155.649147
 31
0.0
  0
LINE
  5
B2
330
30
100
AcDbEntity
  8
LC-001-111-----0
 62
   253
370
    25
100
AcDbLine
 10
1071.855603
 20
155.649147
 30
0.0
 11
1062.335603
 21
155.649147
 31
0.0
  0
ARC
  5
B3
330
30
100
AcDbEntity
  8
LC-001-111-----0
 62
   253
370
    25
100
AcDbCircle
 10
758.032826
 20
185.671748
 30
0.0
 40
8.177270814709827
100
AcDbArc
 50
94.48185
 51
252.731329
  0
LINE
  5
B4
330
30
100
AcDbEntity
  8
LC-001-111-----0
 62
   253
370
    25
100
AcDbLine
 10
755.60538
 20
177.863082
 30
0.0
 11
763.128892
 21
175.524281
 31
0.0
  0
ARC
  5
B5
330
30
100
AcDbEntity
  8
LC-001-111-----0
 62
   253
370
    25
100
AcDbCircle
 10
760.836588
 20
168.15034
 30
0.0
 40
7.72202478100773
100
AcDbArc
 50
268.246912
 51
72.731329
  0
LINE
  5
B6
330
30
100
AcDbEntity
  8
LC-001-111-----0
 62
   253
370
    25
100
AcDbLine
 10
827.355603
 20
191.143539
 30
0.0
 11
827.355603
 21
193.313738
 31
0.0
  0
ARC
  5
B7
330
30
100
AcDbEntity
  8
LC-001-111-----0
 62
   253
370
    25
100
AcDbCircle
 10
823.845603
 20
176.159147
 30
0.0
 40
17.50999999999996
100
AcDbArc
 50
78.436322
 51
281.563678
  0
LINE
  5
B8
330
30
100
AcDbEntity
  8
LC-001-111-----0
 62
   253
370
    25
100
AcDbLine
 10
827.355603
 20
159.004556
 30
0.0
 11
827.355603
 21
161.174755
 31
0.0
  0
LINE
  5
B9
330
30
100
AcDbEntity
  8
LC-002-002-----0
 62
     1
370
    25
100
AcDbLine
 10
1145.355603
 20
195.976182
 30
0.0
 11
1145.355603
 21
156.342112
 31
0.0
  0
LINE
  5
BA
330
30
100
AcDbEntity
  8
LC-002-002-----0
 62
     1
370
    25
100
AcDbLine
 10
1145.355603
 20
156.342112
 30
0.0
 11
1125.538568
 21
176.159147
 31
0.0
  0
LINE
  5
BB
330
30
100
AcDbEntity
  8
LC-002-002-----0
 62
     1
370
    25
100
AcDbLine
 10
1125.538568
 20
176.159147
 30
0.0
 11
1145.355603
 21
195.976182
 31
0.0
  0
LINE
  5
BC
330
30
100
AcDbEntity
  8
LC-001-111-----0
 62
   253
370
    25
100
AcDbLine
 10
1065.335603
 20
158.649147
 30
0.0
 11
1068.855603
 21
158.649147
 31
0.0
  0
LINE
  5
BD
330
30
100
AcDbEntity
  8
LC-001-111-----0
 62
   253
370
    25
100
AcDbLine
 10
1068.855603
 20
158.649147
 30
0.0
 11
1068.855603
 21
193.669147
 31
0.0
  0
LINE
  5
BE
330
30
100
AcDbEntity
  8
LC-001-111-----0
 62
   253
370
    25
100
AcDbLine
 10
1068.855603
 20
193.669147
 30
0.0
 11
1065.335603
 21
193.669147
 31
0.0
  0
LINE
  5
BF
330
30
100
AcDbEntity
  8
LC-001-111-----0
 62
   253
370
    25
100
AcDbLine
 10
1067.095603
 20
192.169147
 30
0.0
 11
1067.095603
 21
160.149147
 31
0.0
  0
ARC
  5
C0
330
30
100
AcDbEntity
  8
LC-001-111-----0
 62
   253
370
    25
100
AcDbCircle
 10
823.845603
 20
176.159147
 30
0.0
 40
15.38999999999992
100
AcDbArc
 50
76.816519
 51
283.183481
  0
LINE
  5
C1
330
30
100
AcDbEntity
  8
LC-001-111-----0
 62
   253
370
    25
100
AcDbLine
 10
870.855603
 20
195.169147
 30
0.0
 11
864.335603
 21
195.169147
 31
0.0
  0
LINE
  5
C2
330
30
100
AcDbEntity
  8
LC-001-111-----0
 62
   253
370
    25
100
AcDbLine
 10
1096.09687
 20
195.169147
 30
0.0
 11
1088.520928
 21
195.169147
 31
0.0
  0
LINE
  5
C3
330
30
100
AcDbEntity
  8
LC-001-111-----0
 62
   253
370
    25
100
AcDbLine
 10
865.835603
 20
158.649147
 30
0.0
 11
869.355603
 21
158.649147
 31
0.0
  0
LINE
  5
C4
330
30
100
AcDbEntity
  8
LC-001-111-----0
 62
   253
370
    25
100
AcDbLine
 10
1023.355603
 20
191.143539
 30
0.0
 11
1023.355603
 21
193.313738
 31
0.0
  0
LINE
  5
C5
330
30
100
AcDbEntity
  8
LC-001-111-----0
 62
   253
370
    25
100
AcDbLine
 10
892.095603
 20
192.169147
 30
0.0
 11
892.095603
 21
160.149147
 31
0.0
  0
TEXT
  5
C6
330
30
100
AcDbEntity
  8
LC-001-111-----0
 62
     1
370
    15
100
AcDbText
 10
1911.660714
 20
21.25
 30
0.0
 40
15.0
  1
Arco-D100
 41
0.75
  7
LCTX0-400-0-0pDIN-Schrift
 72
     1
 11
1958.0
 21
21.25
 31
0.0
100
AcDbText
  0
CIRCLE
  5
C7
330
30
100
AcDbEntity
  8
LC-001-111-----0
 62
   253
370
    25
100
AcDbCircle
 10
946.345603
 20
176.159147
 30
0.0
 40
17.51000000000047
  0
LINE
  5
C8
330
30
100
AcDbEntity
  8
LC-001-111-----0
 62
   253
370
    25
100
AcDbLine
 10
1088.520928
 20
195.169147
 30
0.0
 11
1072.679261
 21
176.159147
 31
0.0
  0
ARC
  5
C9
330
30
100
AcDbEntity
  8
LC-001-111-----0
 62
   253
370
    25
100
AcDbCircle
 10
1019.845603
 20
176.159147
 30
0.0
 40
17.50999999999996
100
AcDbArc
 50
78.436322
 51
281.563678
  0
ARC
  5
CA
330
30
100
AcDbEntity
  8
LC-001-111-----0
 62
   253
370
    25
100
AcDbCircle
 10
761.412387
 20
186.963179
 30
0.0
 40
26.54367341134783
100
AcDbArc
 50
244.741378
 51
268.246912
  0
LINE
  5
CB
330
30
100
AcDbEntity
  8
LC-001-111-----0
 62
   253
370
    25
100
AcDbLine
 10
1023.355603
 20
159.004556
 30
0.0
 11
1023.355603
 21
161.174755
 31
0.0
  0
LINE
  5
CC
330
30
100
AcDbEntity
  8
LC-002-002-----0
 62
     1
370
    25
100
AcDbLine
 10
1140.855603
 20
167.206073
 30
0.0
 11
1140.855603
 21
185.112221
 31
0.0
  0
LINE
  5
CD
330
30
100
AcDbEntity
  8
LC-002-002-----0
 62
     1
370
    25
100
AcDbLine
 10
1140.855603
 20
185.112221
 30
0.0
 11
1131.902529
 21
176.159147
 31
0.0
  0
LINE
  5
CE
330
30
100
AcDbEntity
  8
LC-002-002-----0
 62
     1
370
    25
100
AcDbLine
 10
1131.902529
 20
176.159147
 30
0.0
 11
1140.855603
 21
167.206073
 31
0.0
  0
CIRCLE
  5
CF
330
30
100
AcDbEntity
  8
LC-001-111-----0
 62
   253
370
    25
100
AcDbCircle
 10
946.345603
 20
176.159147
 30
0.0
 40
13.89000000000002
  0
LINE
  5
D0
330
30
100
AcDbEntity
  8
LC-001-111-----0
 62
   253
370
    25
100
AcDbLine
 10
890.335603
 20
158.649147
 30
0.0
 11
893.855603
 21
158.649147
 31
0.0
  0
LINE
  5
D1
330
30
100
AcDbEntity
  8
LC-001-111-----0
 62
   253
370
    25
100
AcDbLine
 10
893.855603
 20
158.649147
 30
0.0
 11
893.855603
 21
193.669147
 31
0.0
  0
ARC
  5
D2
330
30
100
AcDbEntity
  8
LC-001-111-----0
 62
   253
370
    25
100
AcDbCircle
 10
758.906662
 20
168.924866
 30
0.0
 40
20.55472179307891
100
AcDbArc
 50
57.190491
 51
90.951212
  0
ARC
  5
D3
330
30
100
AcDbEntity
  8
LC-001-111-----0
 62
   253
370
    25
100
AcDbCircle
 10
761.779647
 20
167.692822
 30
0.0
 40
12.23104525444841
100
AcDbArc
 50
274.343327
 51
74.255463
  0
LINE
  5
D4
330
30
100
AcDbEntity
  8
LC-001-111-----0
 62
   253
370
    25
100
AcDbLine
 10
893.855603
 20
193.669147
 30
0.0
 11
890.335603
 21
193.669147
 31
0.0
  0
LINE
  5
D5
330
30
100
AcDbEntity
  8
LC-001-111-----0
 62
   253
370
    25
100
AcDbLine
 10
890.335603
 20
193.669147
 30
0.0
 11
890.335603
 21
158.649147
 31
0.0
  0
LINE
  5
D6
330
30
100
AcDbEntity
  8
LC-001-111-----0
 62
   253
370
    25
100
AcDbLine
 10
890.335603
 20
176.159147
 30
0.0
 11
869.355603
 21
176.159147
 31
0.0
  0
LINE
  5
D7
330
30
100
AcDbEntity
  8
LC-001-111-----0
 62
   253
370
    25
100
AcDbLine
 10
869.355603
 20
158.649147
 30
0.0
 11
869.355603
 21
193.669147
 31
0.0
  0
LINE
  5
D8
330
30
100
AcDbEntity
  8
LC-001-111-----0
 62
   253
370
    25
100
AcDbLine
 10
869.355603
 20
193.669147
 30
0.0
 11
865.835603
 21
193.669147
 31
0.0
  0
LINE
  5
D9
330
30
100
AcDbEntity
  8
LC-001-111-----0
 62
   253
370
    25
100
AcDbLine
 10
865.835603
 20
193.669147
 30
0.0
 11
865.835603
 21
158.649147
 31
0.0
  0
LINE
  5
DA
330
30
100
AcDbEntity
  8
LC-001-111-----0
 62
   253
370
    25
100
AcDbLine
 10
867.595603
 20
192.169147
 30
0.0
 11
867.595603
 21
160.149147
 31
0.0
  0
CIRCLE
  5
DB
330
30
100
AcDbEntity
  8
LC-001-111-----0
 62
   253
370
    25
100
AcDbCircle
 10
946.345603
 20
176.159147
 30
0.0
 40
15.38999999999984
  0
LINE
  5
DC
330
30
100
AcDbEntity
  8
LC-001-111-----0
 62
   253
370
    25
100
AcDbLine
 10
1072.679261
 20
176.159147
 30
0.0
 11
1088.520928
 21
157.149147
 31
0.0
  0
LINE
  5
DD
330
30
100
AcDbEntity
  8
LC-001-111-----0
 62
   253
370
    25
100
AcDbLine
 10
1088.520928
 20
157.149147
 30
0.0
 11
1096.09687
 21
157.149147
 31
0.0
  0
LINE
  5
DE
330
30
100
AcDbEntity
  8
LC-001-111-----0
 62
   253
370
    25
100
AcDbLine
 10
1096.09687
 20
157.149147
 30
0.0
 11
1080.255204
 21
176.159147
 31
0.0
  0
LINE
  5
DF
330
30
100
AcDbEntity
  8
LC-001-111-----0
 62
   253
370
    25
100
AcDbLine
 10
770.044191
 20
186.20063
 30
0.0
 11
770.044191
 21
193.903002
 31
0.0
  0
ARC
  5
E0
330
30
100
AcDbEntity
  8
LC-001-111-----0
 62
   253
370
    25
100
AcDbCircle
 10
761.412387
 20
186.963179
 30
0.0
 40
23.54367341134796
100
AcDbArc
 50
232.518913
 51
268.246912
  0
ARC
  5
E1
330
30
100
AcDbEntity
  8
LC-001-111-----0
 62
   253
370
    25
100
AcDbCircle
 10
760.836588
 20
168.15034
 30
0.0
 40
4.722024781007908
100
AcDbArc
 50
268.246912
 51
72.731329
  0
LINE
  5
E2
330
30
100
AcDbEntity
  8
LC-001-111-----0
 62
   253
370
    25
100
AcDbLine
 10
757.542274
 20
181.595277
 30
0.0
 11
765.098525
 21
179.464972
 31
0.0
  0
ARC
  5
E3
330
30
100
AcDbEntity
  8
LC-001-111-----0
 62
   253
370
    25
100
AcDbCircle
 10
758.632108
 20
185.460948
 30
0.0
 40
4.016360130100384
100
AcDbArc
 50
90.951212
 51
254.255463
  0
ARC
  5
E4
330
30
100
AcDbEntity
  8
LC-001-111-----0
 62
   253
370
    25
100
AcDbCircle
 10
758.032826
 20
185.671748
 30
0.0
 40
11.17727081470983
100
AcDbArc
 50
94.48185
 51
252.731329
  0
LINE
  5
E5
330
30
100
AcDbEntity
  8
LC-001-111-----0
 62
   253
370
    25
100
AcDbLine
 10
762.238334
 20
172.659511
 30
0.0
 11
754.714822
 21
174.998312
 31
0.0
  0
LINE
  5
E6
330
30
100
AcDbEntity
  8
LC-001-111-----0
 62
   253
370
    25
100
AcDbLine
 10
747.086073
 20
168.279997
 30
0.0
 11
747.086073
 21
159.524163
 31
0.0
  0
ARC
  5
E7
330
30
100
AcDbEntity
  8
LC-001-111-----0
 62
   253
370
    25
100
AcDbCircle
 10
758.903191
 20
174.567744
 30
0.0
 40
22.31533311668187
100
AcDbArc
 50
60.049399
 51
94.48185
  0
ARC
  5
E8
330
30
100
AcDbEntity
  8
LC-001-111-----0
 62
   253
370
    25
100
AcDbCircle
 10
760.81067
 20
180.45076
 30
0.0
 40
25.02572762426604
100
AcDbArc
 50
236.741348
 51
274.343327
  0
LINE
  5
E9
330
30
100
AcDbEntity
  8
LC-001-111-----0
 62
   253
370
    25
100
AcDbLine
 10
1080.255204
 20
176.159147
 30
0.0
 11
1096.09687
 21
195.169147
 31
0.0
  0
LINE
  5
EA
330
30
100
AcDbEntity
  8
LC-001-111-----0
 62
   253
370
    25
100
AcDbLine
 10
750.086073
 20
162.957321
 30
0.0
 11
750.086073
 21
161.212369
 31
0.0
  0
LINE
  5
EB
330
30
100
AcDbEntity
  8
LC-001-111-----0
 62
   253
370
    25
100
AcDbLine
 10
1078.302641
 20
176.159147
 30
0.0
 11
1092.894308
 21
193.669147
 31
0.0
  0
LINE
  5
EC
330
30
100
AcDbEntity
  8
LC-002-002-----0
 62
     1
370
    25
100
AcDbLine
 10
1139.355603
 20
170.827393
 30
0.0
 11
1139.355603
 21
181.490901
 31
0.0
  0
LINE
  5
ED
330
30
100
AcDbEntity
  8
LC-002-002-----0
 62
     1
370
    25
100
AcDbLine
 10
1139.355603
 20
181.490901
 30
0.0
 11
1134.023849
 21
176.159147
 31
0.0
  0
LINE
  5
EE
330
30
100
AcDbEntity
  8
LC-002-002-----0
 62
     1
370
    25
100
AcDbLine
 10
1134.023849
 20
176.159147
 30
0.0
 11
1139.355603
 21
170.827393
 31
0.0
  0
LINE
  5
EF
330
30
100
AcDbEntity
  8
LC-002-002-----0
 62
     1
370
    25
100
AcDbLine
 10
1137.855603
 20
174.448713
 30
0.0
 11
1137.855603
 21
177.869581
 31
0.0
  0
LINE
  5
F0
330
30
100
AcDbEntity
  8
LC-002-002-----0
 62
     1
370
    25
100
AcDbLine
 10
1137.855603
 20
177.869581
 30
0.0
 11
1136.145169
 21
176.159147
 31
0.0
  0
LINE
  5
F1
330
30
100
AcDbEntity
  8
LC-002-002-----0
 62
     1
370
    25
100
AcDbLine
 10
1136.145169
 20
176.159147
 30
0.0
 11
1137.855603
 21
174.448713
 31
0.0
  0
LINE
  5
F2
330
30
100
AcDbEntity
  8
LC-001-111-----0
 62
   253
370
    25
100
AcDbLine
 10
1092.894308
 20
193.669147
 30
0.0
 11
1089.22349
 21
193.669147
 31
0.0
  0
LINE
  5
F3
330
30
100
AcDbEntity
  8
LC-001-111-----0
 62
   253
370
    25
100
AcDbLine
 10
1089.22349
 20
193.669147
 30
0.0
 11
1074.631824
 21
176.159147
 31
0.0
  0
ARC
  5
F4
330
30
100
AcDbEntity
  8
LC-001-111-----0
 62
   253
370
    25
100
AcDbCircle
 10
1019.845603
 20
176.159147
 30
0.0
 40
15.38999999999992
100
AcDbArc
 50
76.816519
 51
283.183481
  0
LINE
  5
F5
330
30
100
AcDbEntity
  8
LC-001-111-----0
 62
   253
370
    25
100
AcDbLine
 10
1074.631824
 20
176.159147
 30
0.0
 11
1089.22349
 21
158.649147
 31
0.0
  0
LINE
  5
F6
330
30
100
AcDbEntity
  8
LC-001-111-----0
 62
   253
370
    25
100
AcDbLine
 10
1089.22349
 20
158.649147
 30
0.0
 11
1092.894308
 21
158.649147
 31
0.0
  0
LINE
  5
F7
330
30
100
AcDbEntity
  8
LC-001-111-----0
 62
   253
370
    25
100
AcDbLine
 10
1092.894308
 20
158.649147
 30
0.0
 11
1078.302641
 21
176.159147
 31
0.0
  0
LINE
  5
F8
330
30
100
AcDbEntity
  8
LC-001-111-----0
 62
   253
370
    25
100
AcDbLine
 10
1076.467232
 20
176.159147
 30
0.0
 11
1090.098623
 21
192.516815
 31
0.0
  0
LINE
  5
F9
330
30
100
AcDbEntity
  8
LC-001-111-----0
 62
   253
370
    25
100
AcDbLine
 10
1076.467232
 20
176.159147
 30
0.0
 11
1090.098623
 21
159.801479
 31
0.0
  0
ARC
  5
FA
330
30
100
AcDbEntity
  8
LC-001-111-----0
 62
   253
370
    25
100
AcDbCircle
 10
760.81067
 20
180.45076
 30
0.0
 40
22.02572762426587
100
AcDbArc
 50
240.862164
 51
274.343327
  0
ARC
  5
FB
330
30
100
AcDbEntity
  8
LC-001-111-----0
 62
   253
370
    25
100
AcDbCircle
 10
761.779647
 20
167.692822
 30
0.0
 40
9.231045254448425
100
AcDbArc
 50
274.343327
 51
74.255463
  0
LINE
  5
FC
330
30
100
AcDbEntity
  8
LC-001-111-----0
 62
   253
370
    25
100
AcDbLine
 10
764.284479
 20
176.577529
 30
0.0
 11
756.728228
 21
178.707834
 31
0.0
  0
ARC
  5
FD
330
30
100
AcDbEntity
  8
LC-001-111-----0
 62
   253
370
    25
100
AcDbCircle
 10
758.632108
 20
185.460948
 30
0.0
 40
7.016360130100396
100
AcDbArc
 50
90.951212
 51
254.255463
  0
ARC
  5
FE
330
30
100
AcDbEntity
  8
LC-001-111-----0
 62
   253
370
    25
100
AcDbCircle
 10
758.906662
 20
168.924866
 30
0.0
 40
23.55472179307856
100
AcDbArc
 50
69.789306
 51
90.951212
  0
LINE
  5
FF
330
30
100
AcDbEntity
  8
LC-001-111-----0
 62
   253
370
    25
100
AcDbLine
 10
767.044191
 20
191.029289
 30
0.0
 11
767.044191
 21
192.083629
 31
0.0
  0
ENDBLK
  5
32
330
30
100
AcDbEntity
  8
0
100
AcDbBlockEnd
  0
BLOCK
  5
11F
330
11E
100
AcDbEntity
  8
0
100
AcDbBlockBegin
  2
LCDIM1
 70
     0
 71
     0
 10
0.0
 20
0.0
 30
0.0
  3
LCDIM1
  1

  4
LCDIM1
  0
LINE
  5
122
330
11E
100
AcDbEntity
  8
LC-006-003-MTH-0
 62
     7
370
    25
100
AcDbLine
 10
1324.916462
 20
1369.782653
 30
0.0
 11
1465.0
 21
1369.782653
 31
0.0
  0
LINE
  5
123
330
11E
100
AcDbEntity
  8
LC-006-003-MTH-0
 62
     7
370
    25
100
AcDbLine
 10
1324.913241
 20
1869.782653
 30
0.0
 11
1465.0
 21
1869.782653
 31
0.0
  0
LINE
  5
125
330
11E
100
AcDbEntity
  8
LC-007-003-MTG-0
 62
     7
370
    25
100
AcDbLine
 10
1450.0
 20
1369.782653
 30
0.0
 11
1450.0
 21
1869.782653
 31
0.0
  0
LINE
  5
127
330
11E
100
AcDbEntity
  8
LC-008-003-----0
 62
     7
370
    25
100
AcDbLine
 10
1446.736845
 20
1394.568774
 30
0.0
 11
1450.0
 21
1369.782653
 31
0.0
  0
LINE
  5
128
330
11E
100
AcDbEntity
  8
LC-008-003-----0
 62
     7
370
    25
100
AcDbLine
 10
1450.0
 20
1369.782653
 30
0.0
 11
1453.263155
 21
1394.568774
 31
0.0
  0
LINE
  5
129
330
11E
100
AcDbEntity
  8
LC-008-003-----0
 62
     7
370
    25
100
AcDbLine
 10
1453.263155
 20
1394.568774
 30
0.0
 11
1446.736845
 21
1394.568774
 31
0.0
  0
LINE
  5
12A
330
11E
100
AcDbEntity
  8
LC-008-003-----0
 62
     7
370
    25
100
AcDbLine
 10
1447.585265
 20
1394.624383
 30
0.0
 11
1450.0
 21
1376.282653
 31
0.0
  0
LINE
  5
12B
330
11E
100
AcDbEntity
  8
LC-008-003-----0
 62
     7
370
    25
100
AcDbLine
 10
1450.0
 20
1376.282653
 30
0.0
 11
1452.414735
 21
1394.624383
 31
0.0
  0
LINE
  5
12C
330
11E
100
AcDbEntity
  8
LC-008-003-----0
 62
     7
370
    25
100
AcDbLine
 10
1448.433686
 20
1394.679991
 30
0.0
 11
1450.0
 21
1382.782653
 31
0.0
  0
LINE
  5
12D
330
11E
100
AcDbEntity
  8
LC-008-003-----0
 62
     7
370
    25
100
AcDbLine
 10
1450.0
 20
1382.782653
 30
0.0
 11
1451.566314
 21
1394.679991
 31
0.0
  0
LINE
  5
12E
330
11E
100
AcDbEntity
  8
LC-008-003-----0
 62
     7
370
    25
100
AcDbLine
 10
1449.282106
 20
1394.7356
 30
0.0
 11
1450.0
 21
1389.282653
 31
0.0
  0
LINE
  5
12F
330
11E
100
AcDbEntity
  8
LC-008-003-----0
 62
     7
370
    25
100
AcDbLine
 10
1450.0
 20
1389.282653
 30
0.0
 11
1450.717894
 21
1394.7356
 31
0.0
  0
LINE
  5
130
330
11E
100
AcDbEntity
  8
LC-008-003-----0
 62
     7
370
    25
100
AcDbLine
 10
1453.263155
 20
1844.996531
 30
0.0
 11
1450.0
 21
1869.782653
 31
0.0
  0
LINE
  5
131
330
11E
100
AcDbEntity
  8
LC-008-003-----0
 62
     7
370
    25
100
AcDbLine
 10
1450.0
 20
1869.782653
 30
0.0
 11
1446.736845
 21
1844.996531
 31
0.0
  0
LINE
  5
132
330
11E
100
AcDbEntity
  8
LC-008-003-----0
 62
     7
370
    25
100
AcDbLine
 10
1446.736845
 20
1844.996531
 30
0.0
 11
1453.263155
 21
1844.996531
 31
0.0
  0
LINE
  5
133
330
11E
100
AcDbEntity
  8
LC-008-003-----0
 62
     7
370
    25
100
AcDbLine
 10
1452.414735
 20
1844.940922
 30
0.0
 11
1450.0
 21
1863.282652
 31
0.0
  0
LINE
  5
134
330
11E
100
AcDbEntity
  8
LC-008-003-----0
 62
     7
370
    25
100
AcDbLine
 10
1450.0
 20
1863.282652
 30
0.0
 11
1447.585265
 21
1844.940922
 31
0.0
  0
LINE
  5
135
330
11E
100
AcDbEntity
  8
LC-008-003-----0
 62
     7
370
    25
100
AcDbLine
 10
1451.566314
 20
1844.885314
 30
0.0
 11
1450.0
 21
1856.782652
 31
0.0
  0
LINE
  5
136
330
11E
100
AcDbEntity
  8
LC-008-003-----0
 62
     7
370
    25
100
AcDbLine
 10
1450.0
 20
1856.782652
 30
0.0
 11
1448.433686
 21
1844.885314
 31
0.0
  0
LINE
  5
137
330
11E
100
AcDbEntity
  8
LC-008-003-----0
 62
     7
370
    25
100
AcDbLine
 10
1450.717894
 20
1844.829705
 30
0.0
 11
1450.0
 21
1850.282652
 31
0.0
  0
LINE
  5
138
330
11E
100
AcDbEntity
  8
LC-008-003-----0
 62
     7
370
    25
100
AcDbLine
 10
1450.0
 20
1850.282652
 30
0.0
 11
1449.282106
 21
1844.829705
 31
0.0
  0
TEXT
  5
139
330
11E
100
AcDbEntity
  8
LC-008-003-----0
 62
     7
370
    25
100
AcDbText
 10
1435.0
 20
1591.211224
 30
0.0
 40
25.0
  1
500
 50
90.0
 41
0.8
  7
LCTX0-400-0-0pDIN-Schrift
 72
     1
 11
1435.0
 21
1619.782653
 31
0.0
100
AcDbText
  0
ENDBLK
  5
120
330
11E
100
AcDbEntity
  8
0
100
AcDbBlockEnd
  0
BLOCK
  5
13C
330
13B
100
AcDbEntity
  8
0
100
AcDbBlockBegin
  2
LCDIM2
 70
     0
 71
     0
 10
0.0
 20
0.0
 30
0.0
  3
LCDIM2
  1

  4
LCDIM2
  0
LINE
  5
13E
330
13B
100
AcDbEntity
  8
LC-006-003-MTH-0
 62
     7
370
    25
100
AcDbLine
 10
1058.02628
 20
2350.930896
 30
0.0
 11
1035.0
 21
2350.930896
 31
0.0
  0
LINE
  5
13F
330
13B
100
AcDbEntity
  8
LC-006-003-MTH-0
 62
     7
370
    25
100
AcDbLine
 10
1058.02628
 20
2542.930896
 30
0.0
 11
1035.0
 21
2542.930896
 31
0.0
  0
LINE
  5
140
330
13B
100
AcDbEntity
  8
LC-007-003-MTG-0
 62
     7
370
    25
100
AcDbLine
 10
1050.0
 20
2350.930896
 30
0.0
 11
1050.0
 21
2542.930896
 31
0.0
  0
LINE
  5
141
330
13B
100
AcDbEntity
  8
LC-008-003-----0
 62
     7
370
    25
100
AcDbLine
 10
1046.736845
 20
2375.717017
 30
0.0
 11
1050.0
 21
2350.930896
 31
0.0
  0
LINE
  5
142
330
13B
100
AcDbEntity
  8
LC-008-003-----0
 62
     7
370
    25
100
AcDbLine
 10
1050.0
 20
2350.930896
 30
0.0
 11
1053.263155
 21
2375.717017
 31
0.0
  0
LINE
  5
143
330
13B
100
AcDbEntity
  8
LC-008-003-----0
 62
     7
370
    25
100
AcDbLine
 10
1053.263155
 20
2375.717017
 30
0.0
 11
1046.736845
 21
2375.717017
 31
0.0
  0
LINE
  5
144
330
13B
100
AcDbEntity
  8
LC-008-003-----0
 62
     7
370
    25
100
AcDbLine
 10
1047.585265
 20
2375.772626
 30
0.0
 11
1050.0
 21
2357.430896
 31
0.0
  0
LINE
  5
145
330
13B
100
AcDbEntity
  8
LC-008-003-----0
 62
     7
370
    25
100
AcDbLine
 10
1050.0
 20
2357.430896
 30
0.0
 11
1052.414735
 21
2375.772626
 31
0.0
  0
LINE
  5
146
330
13B
100
AcDbEntity
  8
LC-008-003-----0
 62
     7
370
    25
100
AcDbLine
 10
1048.433686
 20
2375.828234
 30
0.0
 11
1050.0
 21
2363.930896
 31
0.0
  0
LINE
  5
147
330
13B
100
AcDbEntity
  8
LC-008-003-----0
 62
     7
370
    25
100
AcDbLine
 10
1050.0
 20
2363.930896
 30
0.0
 11
1051.566314
 21
2375.828234
 31
0.0
  0
LINE
  5
148
330
13B
100
AcDbEntity
  8
LC-008-003-----0
 62
     7
370
    25
100
AcDbLine
 10
1049.282106
 20
2375.883843
 30
0.0
 11
1050.0
 21
2370.430896
 31
0.0
  0
LINE
  5
149
330
13B
100
AcDbEntity
  8
LC-008-003-----0
 62
     7
370
    25
100
AcDbLine
 10
1050.0
 20
2370.430896
 30
0.0
 11
1050.717894
 21
2375.883843
 31
0.0
  0
LINE
  5
14A
330
13B
100
AcDbEntity
  8
LC-008-003-----0
 62
     7
370
    25
100
AcDbLine
 10
1053.263155
 20
2518.144774
 30
0.0
 11
1050.0
 21
2542.930896
 31
0.0
  0
LINE
  5
14B
330
13B
100
AcDbEntity
  8
LC-008-003-----0
 62
     7
370
    25
100
AcDbLine
 10
1050.0
 20
2542.930896
 30
0.0
 11
1046.736845
 21
2518.144774
 31
0.0
  0
LINE
  5
14C
330
13B
100
AcDbEntity
  8
LC-008-003-----0
 62
     7
370
    25
100
AcDbLine
 10
1046.736845
 20
2518.144774
 30
0.0
 11
1053.263155
 21
2518.144774
 31
0.0
  0
LINE
  5
14D
330
13B
100
AcDbEntity
  8
LC-008-003-----0
 62
     7
370
    25
100
AcDbLine
 10
1052.414735
 20
2518.089165
 30
0.0
 11
1050.0
 21
2536.430895
 31
0.0
  0
LINE
  5
14E
330
13B
100
AcDbEntity
  8
LC-008-003-----0
 62
     7
370
    25
100
AcDbLine
 10
1050.0
 20
2536.430895
 30
0.0
 11
1047.585265
 21
2518.089165
 31
0.0
  0
LINE
  5
14F
330
13B
100
AcDbEntity
  8
LC-008-003-----0
 62
     7
370
    25
100
AcDbLine
 10
1051.566314
 20
2518.033557
 30
0.0
 11
1050.0
 21
2529.930895
 31
0.0
  0
LINE
  5
150
330
13B
100
AcDbEntity
  8
LC-008-003-----0
 62
     7
370
    25
100
AcDbLine
 10
1050.0
 20
2529.930895
 30
0.0
 11
1048.433686
 21
2518.033557
 31
0.0
  0
LINE
  5
151
330
13B
100
AcDbEntity
  8
LC-008-003-----0
 62
     7
370
    25
100
AcDbLine
 10
1050.717894
 20
2517.977948
 30
0.0
 11
1050.0
 21
2523.430895
 31
0.0
  0
LINE
  5
152
330
13B
100
AcDbEntity
  8
LC-008-003-----0
 62
     7
370
    25
100
AcDbLine
 10
1050.0
 20
2523.430895
 30
0.0
 11
1049.282106
 21
2517.977948
 31
0.0
  0
TEXT
  5
153
330
13B
100
AcDbEntity
  8
LC-008-003-----0
 62
     7
370
    25
100
AcDbText
 10
1035.0
 20
2409.652822
 30
0.0
 40
25.0
  1
192
 50
90.0
 41
0.8
  7
LCTX0-400-0-0pDIN-Schrift
 72
     1
 11
1035.0
 21
2439.652822
 31
0.0
100
AcDbText
  0
ENDBLK
  5
13D
330
13B
100
AcDbEntity
  8
0
100
AcDbBlockEnd
  0
BLOCK
  5
162
330
161
100
AcDbEntity
  8
0
100
AcDbBlockBegin
  2
OBJ1
 70
     0
 71
     0
 10
0.0
 20
0.0
 30
0.0
  3
OBJ1
  1

  4
OBJ1
  0
ARC
  5
164
330
161
100
AcDbEntity
  8
LC-004-100-D01-0
 62
     7
370
    50
100
AcDbCircle
 10
919.21715
 20
2533.940853
 30
0.0
 40
5.929980000000318
100
AcDbArc
 50
294.688936
 51
311.796191
  0
ARC
  5
165
330
161
100
AcDbEntity
  8
LC-004-100-D01-0
 62
     7
370
    50
100
AcDbCircle
 10
920.015365
 20
2532.22037
 30
0.0
 40
4.033366000000052
100
AcDbArc
 50
272.454493
 51
294.594924
  0
ENDBLK
  5
163
330
161
100
AcDbEntity
  8
0
100
AcDbBlockEnd
  0
BLOCK
  5
168
330
167
100
AcDbEntity
  8
0
100
AcDbBlockBegin
  2
OBJ2
 70
     0
 71
     0
 10
0.0
 20
0.0
 30
0.0
  3
OBJ2
  1

  4
OBJ2
  0
ARC
  5
16A
330
167
100
AcDbEntity
  8
LC-004-100-D01-0
 62
     7
370
    50
100
AcDbCircle
 10
476.222613
 20
2531.777394
 30
0.0
 40
11.22738499999989
100
AcDbArc
 50
113.45289
 51
135.598921
  0
ARC
  5
16B
330
167
100
AcDbEntity
  8
LC-004-100-D01-0
 62
     7
370
    50
100
AcDbCircle
 10
475.880904
 20
2532.529248
 30
0.0
 40
10.4016539999999
100
AcDbArc
 50
90.063959
 51
113.374422
  0
ENDBLK
  5
169
330
167
100
AcDbEntity
  8
0
100
AcDbBlockEnd
  0
BLOCK
  5
16E
330
16D
100
AcDbEntity
  8
0
100
AcDbBlockBegin
  2
OBJ3
 70
     0
 71
     0
 10
0.0
 20
0.0
 30
0.0
  3
OBJ3
  1

  4
OBJ3
  0
ARC
  5
170
330
16D
100
AcDbEntity
  8
LC-004-100-D01-0
 62
     7
370
    50
100
AcDbCircle
 10
1379.876362
 20
2479.788565
 30
0.0
 40
83.42183700000004
100
AcDbArc
 50
148.929318
 51
164.190982
  0
ARC
  5
171
330
16D
100
AcDbEntity
  8
LC-004-100-D01-0
 62
     7
370
    50
100
AcDbCircle
 10
1356.604302
 20
2494.429663
 30
0.0
 40
55.93490199999977
100
AcDbArc
 50
129.514844
 51
149.472182
  0
ENDBLK
  5
16F
330
16D
100
AcDbEntity
  8
0
100
AcDbBlockEnd
  0
BLOCK
  5
174
330
173
100
AcDbEntity
  8
0
100
AcDbBlockBegin
  2
OBJ4
 70
     0
 71
     0
 10
0.0
 20
0.0
 30
0.0
  3
OBJ4
  1

  4
OBJ4
  0
ARC
  5
176
330
173
100
AcDbEntity
  8
LC-004-100-D01-0
 62
     7
370
    50
100
AcDbCircle
 10
825.513934
 20
2534.14108
 30
0.0
 40
4.409718000000015
100
AcDbArc
 50
234.072633
 51
267.648343
  0
ARC
  5
177
330
173
100
AcDbEntity
  8
LC-004-100-D01-0
 62
     7
370
    50
100
AcDbCircle
 10
828.086775
 20
2537.755218
 30
0.0
 40
8.846024000000021
100
AcDbArc
 50
213.285509
 51
234.313844
  0
ENDBLK
  5
175
330
173
100
AcDbEntity
  8
0
100
AcDbBlockEnd
  0
BLOCK
  5
17A
330
179
100
AcDbEntity
  8
0
100
AcDbBlockBegin
  2
OBJ5
 70
     0
 71
     0
 10
0.0
 20
0.0
 30
0.0
  3
OBJ5
  1

  4
OBJ5
  0
ARC
  5
17C
330
179
100
AcDbEntity
  8
LC-004-100-D01-0
 62
     7
370
    50
100
AcDbCircle
 10
939.195359
 20
2509.646889
 30
0.0
 40
25.5297790000002
100
AcDbArc
 50
110.673117
 51
128.883329
  0
ARC
  5
17D
330
179
100
AcDbEntity
  8
LC-004-100-D01-0
 62
     7
370
    50
100
AcDbCircle
 10
937.74914
 20
2513.379453
 30
0.0
 40
21.52701799999997
100
AcDbArc
 50
90.166627
 51
110.578984
  0
ENDBLK
  5
17B
330
179
100
AcDbEntity
  8
0
100
AcDbBlockEnd
  0
BLOCK
  5
180
330
17F
100
AcDbEntity
  8
0
100
AcDbBlockBegin
  2
OBJ6
 70
     0
 71
     0
 10
0.0
 20
0.0
 30
0.0
  3
OBJ6
  1

  4
OBJ6
  0
ARC
  5
182
330
17F
100
AcDbEntity
  8
LC-004-100-D01-0
 62
     7
370
    50
100
AcDbCircle
 10
966.273694
 20
2351.384624
 30
0.0
 40
8.696481999999653
100
AcDbArc
 50
229.330471
 51
265.941468
  0
ARC
  5
183
330
17F
100
AcDbEntity
  8
LC-004-100-D01-0
 62
     7
370
    50
100
AcDbCircle
 10
973.363326
 20
2360.013403
 30
0.0
 40
19.86304900000025
100
AcDbArc
 50
209.047261
 51
230.040034
  0
ARC
  5
184
330
17F
100
AcDbEntity
  8
LC-004-100-D01-0
 62
     7
370
    50
100
AcDbCircle
 10
994.701274
 20
2371.512601
 30
0.0
 40
44.10138599999994
100
AcDbArc
 50
184.206286
 51
208.647876
  0
ENDBLK
  5
181
330
17F
100
AcDbEntity
  8
0
100
AcDbBlockEnd
  0
BLOCK
  5
1F8
330
1F7
100
AcDbEntity
  8
0
100
AcDbBlockBegin
  2
OBJ7
 70
     0
 71
     0
 10
0.0
 20
0.0
 30
0.0
  3
OBJ7
  1

  4
OBJ7
  0
ARC
  5
1FB
330
1F7
100
AcDbEntity
  8
LC-011-100-D04-0
 62
     7
370
    50
100
AcDbCircle
 10
1820.361356
 20
1875.895759
 30
0.0
 40
55.9349000000004
100
AcDbArc
 50
300.527819
 51
320.485156
  0
ARC
  5
1FC
330
1F7
100
AcDbEntity
  8
LC-011-100-D04-0
 62
     7
370
    50
100
AcDbCircle
 10
1805.720257
 20
1899.167817
 30
0.0
 40
83.42183499999977
100
AcDbArc
 50
285.80902
 51
301.070683
  0
ENDBLK
  5
1F9
330
1F7
100
AcDbEntity
  8
0
100
AcDbBlockEnd
  0
BLOCK
  5
229
330
228
100
AcDbEntity
  8
0
100
AcDbBlockBegin
  2
OBJ8
 70
     0
 71
     0
 10
0.0
 20
0.0
 30
0.0
  3
OBJ8
  1

  4
OBJ8
  0
ARC
  5
22B
330
228
100
AcDbEntity
  8
LC-011-100-D04-0
 62
     7
370
    50
100
AcDbCircle
 10
1820.361356
 20
1368.025741
 30
0.0
 40
55.9349000000003
100
AcDbArc
 50
39.514844
 51
59.472181
  0
ARC
  5
22C
330
228
100
AcDbEntity
  8
LC-011-100-D04-0
 62
     7
370
    50
100
AcDbCircle
 10
1805.720257
 20
1344.753683
 30
0.0
 40
83.42183499999982
100
AcDbArc
 50
58.929317
 51
74.19098
  0
ENDBLK
  5
22A
330
228
100
AcDbEntity
  8
0
100
AcDbBlockEnd
  0
BLOCK
  5
25F
330
25E
100
AcDbEntity
  8
0
100
AcDbBlockBegin
  2
LCDIM3
 70
     0
 71
     0
 10
0.0
 20
0.0
 30
0.0
  3
LCDIM3
  1

  4
LCDIM3
  0
LINE
  5
261
330
25E
100
AcDbEntity
  8
LC-006-003-MTH-0
 62
     7
370
    25
100
AcDbLine
 10
889.490842
 20
811.693289
 30
0.0
 11
988.660832
 21
811.693289
 31
0.0
  0
LINE
  5
262
330
25E
100
AcDbEntity
  8
LC-006-003-MTH-0
 62
     7
370
    25
100
AcDbLine
 10
889.490842
 20
1051.693289
 30
0.0
 11
988.660832
 21
1051.693289
 31
0.0
  0
LINE
  5
263
330
25E
100
AcDbEntity
  8
LC-007-003-MTG-0
 62
     7
370
    25
100
AcDbLine
 10
973.660832
 20
811.693289
 30
0.0
 11
973.660832
 21
1051.693289
 31
0.0
  0
LINE
  5
264
330
25E
100
AcDbEntity
  8
LC-008-003-----0
 62
     7
370
    25
100
AcDbLine
 10
970.397677
 20
836.479411
 30
0.0
 11
973.660832
 21
811.693289
 31
0.0
  0
LINE
  5
265
330
25E
100
AcDbEntity
  8
LC-008-003-----0
 62
     7
370
    25
100
AcDbLine
 10
973.660832
 20
811.693289
 30
0.0
 11
976.923986
 21
836.479411
 31
0.0
  0
LINE
  5
266
330
25E
100
AcDbEntity
  8
LC-008-003-----0
 62
     7
370
    25
100
AcDbLine
 10
976.923986
 20
836.479411
 30
0.0
 11
970.397677
 21
836.479411
 31
0.0
  0
LINE
  5
267
330
25E
100
AcDbEntity
  8
LC-008-003-----0
 62
     7
370
    25
100
AcDbLine
 10
971.246097
 20
836.535019
 30
0.0
 11
973.660832
 21
818.193289
 31
0.0
  0
LINE
  5
268
330
25E
100
AcDbEntity
  8
LC-008-003-----0
 62
     7
370
    25
100
AcDbLine
 10
973.660832
 20
818.193289
 30
0.0
 11
976.075566
 21
836.535019
 31
0.0
  0
LINE
  5
269
330
25E
100
AcDbEntity
  8
LC-008-003-----0
 62
     7
370
    25
100
AcDbLine
 10
972.094517
 20
836.590628
 30
0.0
 11
973.660832
 21
824.693289
 31
0.0
  0
LINE
  5
26A
330
25E
100
AcDbEntity
  8
LC-008-003-----0
 62
     7
370
    25
100
AcDbLine
 10
973.660832
 20
824.693289
 30
0.0
 11
975.227146
 21
836.590628
 31
0.0
  0
LINE
  5
26B
330
25E
100
AcDbEntity
  8
LC-008-003-----0
 62
     7
370
    25
100
AcDbLine
 10
972.942938
 20
836.646236
 30
0.0
 11
973.660832
 21
831.193289
 31
0.0
  0
LINE
  5
26C
330
25E
100
AcDbEntity
  8
LC-008-003-----0
 62
     7
370
    25
100
AcDbLine
 10
973.660832
 20
831.193289
 30
0.0
 11
974.378726
 21
836.646236
 31
0.0
  0
LINE
  5
26D
330
25E
100
AcDbEntity
  8
LC-008-003-----0
 62
     7
370
    25
100
AcDbLine
 10
976.923986
 20
1026.907167
 30
0.0
 11
973.660832
 21
1051.693289
 31
0.0
  0
LINE
  5
26E
330
25E
100
AcDbEntity
  8
LC-008-003-----0
 62
     7
370
    25
100
AcDbLine
 10
973.660832
 20
1051.693289
 30
0.0
 11
970.397677
 21
1026.907167
 31
0.0
  0
LINE
  5
26F
330
25E
100
AcDbEntity
  8
LC-008-003-----0
 62
     7
370
    25
100
AcDbLine
 10
970.397677
 20
1026.907167
 30
0.0
 11
976.923986
 21
1026.907167
 31
0.0
  0
LINE
  5
270
330
25E
100
AcDbEntity
  8
LC-008-003-----0
 62
     7
370
    25
100
AcDbLine
 10
976.075566
 20
1026.851559
 30
0.0
 11
973.660832
 21
1045.193289
 31
0.0
  0
LINE
  5
271
330
25E
100
AcDbEntity
  8
LC-008-003-----0
 62
     7
370
    25
100
AcDbLine
 10
973.660832
 20
1045.193289
 30
0.0
 11
971.246097
 21
1026.851559
 31
0.0
  0
LINE
  5
272
330
25E
100
AcDbEntity
  8
LC-008-003-----0
 62
     7
370
    25
100
AcDbLine
 10
975.227146
 20
1026.79595
 30
0.0
 11
973.660832
 21
1038.693289
 31
0.0
  0
LINE
  5
273
330
25E
100
AcDbEntity
  8
LC-008-003-----0
 62
     7
370
    25
100
AcDbLine
 10
973.660832
 20
1038.693289
 30
0.0
 11
972.094517
 21
1026.79595
 31
0.0
  0
LINE
  5
274
330
25E
100
AcDbEntity
  8
LC-008-003-----0
 62
     7
370
    25
100
AcDbLine
 10
974.378726
 20
1026.740342
 30
0.0
 11
973.660832
 21
1032.193289
 31
0.0
  0
LINE
  5
275
330
25E
100
AcDbEntity
  8
LC-008-003-----0
 62
     7
370
    25
100
AcDbLine
 10
973.660832
 20
1032.193289
 30
0.0
 11
972.942938
 21
1026.740342
 31
0.0
  0
TEXT
  5
276
330
25E
100
AcDbEntity
  8
LC-008-003-----0
 62
     7
370
    25
100
AcDbText
 10
958.660831
 20
912.480462
 30
0.0
 40
25.0
  1
480
 50
90.0
 41
0.7
  7
LCTX0-400-0-0pDIN-Schrift
 72
     1
 11
958.660831
 21
937.480462
 31
0.0
100
AcDbText
  0
ENDBLK
  5
260
330
25E
100
AcDbEntity
  8
0
100
AcDbBlockEnd
  0
BLOCK
  5
279
330
278
100
AcDbEntity
  8
0
100
AcDbBlockBegin
  2
LCDIM4
 70
     0
 71
     0
 10
0.0
 20
0.0
 30
0.0
  3
LCDIM4
  1

  4
LCDIM4
  0
TEXT
  5
27B
330
278
100
AcDbEntity
  8
LC-008-003-----0
 62
     7
370
    25
100
AcDbText
 10
514.830526
 20
859.875416
 30
0.0
 40
25.0
  1
R10
 50
35.109531
 41
0.7
  7
LCTX0-400-0-0pDIN-Schrift
100
AcDbText
  0
LINE
  5
27C
330
278
100
AcDbEntity
  8
LC-007-003-MTG-0
 62
     7
370
    25
100
AcDbLine
 10
549.976273
 20
866.248799
 30
0.0
 11
475.400571
 21
813.817582
 31
0.0
  0
LINE
  5
27D
330
278
100
AcDbEntity
  8
LC-008-003-----0
 62
     7
370
    25
100
AcDbLine
 10
493.800183
 20
830.742543
 30
0.0
 11
475.400571
 21
813.817582
 31
0.0
  0
LINE
  5
27E
330
278
100
AcDbEntity
  8
LC-008-003-----0
 62
     7
370
    25
100
AcDbLine
 10
475.400571
 20
813.817582
 30
0.0
 11
497.553734
 21
825.403669
 31
0.0
  0
LINE
  5
27F
330
278
100
AcDbEntity
  8
LC-008-003-----0
 62
     7
370
    25
100
AcDbLine
 10
497.553734
 20
825.403669
 30
0.0
 11
493.800183
 21
830.742543
 31
0.0
  0
LINE
  5
280
330
278
100
AcDbEntity
  8
LC-008-003-----0
 62
     7
370
    25
100
AcDbLine
 10
494.333636
 20
830.080472
 30
0.0
 11
480.717923
 21
817.556001
 31
0.0
  0
LINE
  5
281
330
278
100
AcDbEntity
  8
LC-008-003-----0
 62
     7
370
    25
100
AcDbLine
 10
480.717923
 20
817.556001
 30
0.0
 11
497.111263
 21
826.129705
 31
0.0
  0
LINE
  5
282
330
278
100
AcDbEntity
  8
LC-008-003-----0
 62
     7
370
    25
100
AcDbLine
 10
494.867088
 20
829.418401
 30
0.0
 11
486.035274
 21
821.29442
 31
0.0
  0
LINE
  5
283
330
278
100
AcDbEntity
  8
LC-008-003-----0
 62
     7
370
    25
100
AcDbLine
 10
486.035274
 20
821.29442
 30
0.0
 11
496.668792
 21
826.855741
 31
0.0
  0
LINE
  5
284
330
278
100
AcDbEntity
  8
LC-008-003-----0
 62
     7
370
    25
100
AcDbLine
 10
495.40054
 20
828.75633
 30
0.0
 11
491.352625
 21
825.032838
 31
0.0
  0
LINE
  5
285
330
278
100
AcDbEntity
  8
LC-008-003-----0
 62
     7
370
    25
100
AcDbLine
 10
491.352625
 20
825.032838
 30
0.0
 11
496.226321
 21
827.581777
 31
0.0
  0
ENDBLK
  5
27A
330
278
100
AcDbEntity
  8
0
100
AcDbBlockEnd
  0
BLOCK
  5
288
330
287
100
AcDbEntity
  8
0
100
AcDbBlockBegin
  2
LCDIM5
 70
     0
 71
     0
 10
0.0
 20
0.0
 30
0.0
  3
LCDIM5
  1

  4
LCDIM5
  0
LINE
  5
28A
330
287
100
AcDbEntity
  8
LC-006-003-MTH-0
 62
     7
370
    25
100
AcDbLine
 10
897.669293
 20
1819.782653
 30
0.0
 11
897.669293
 21
1989.377277
 31
0.0
  0
LINE
  5
28B
330
287
100
AcDbEntity
  8
LC-006-003-MTH-0
 62
     7
370
    25
100
AcDbLine
 10
1347.669293
 20
1619.769491
 30
0.0
 11
1347.669293
 21
1989.377277
 31
0.0
  0
LINE
  5
28C
330
287
100
AcDbEntity
  8
LC-007-003-MTG-0
 62
     7
370
    25
100
AcDbLine
 10
897.669293
 20
1974.377277
 30
0.0
 11
1347.669293
 21
1974.377277
 31
0.0
  0
LINE
  5
28D
330
287
100
AcDbEntity
  8
LC-008-003-----0
 62
     7
370
    25
100
AcDbLine
 10
922.455415
 20
1977.640432
 30
0.0
 11
897.669293
 21
1974.377277
 31
0.0
  0
LINE
  5
28E
330
287
100
AcDbEntity
  8
LC-008-003-----0
 62
     7
370
    25
100
AcDbLine
 10
897.669293
 20
1974.377277
 30
0.0
 11
922.455415
 21
1971.114122
 31
0.0
  0
LINE
  5
28F
330
287
100
AcDbEntity
  8
LC-008-003-----0
 62
     7
370
    25
100
AcDbLine
 10
922.455415
 20
1971.114122
 30
0.0
 11
922.455415
 21
1977.640432
 31
0.0
  0
LINE
  5
290
330
287
100
AcDbEntity
  8
LC-008-003-----0
 62
     7
370
    25
100
AcDbLine
 10
922.511023
 20
1976.792012
 30
0.0
 11
904.169293
 21
1974.377277
 31
0.0
  0
LINE
  5
291
330
287
100
AcDbEntity
  8
LC-008-003-----0
 62
     7
370
    25
100
AcDbLine
 10
904.169293
 20
1974.377277
 30
0.0
 11
922.511023
 21
1971.962542
 31
0.0
  0
LINE
  5
292
330
287
100
AcDbEntity
  8
LC-008-003-----0
 62
     7
370
    25
100
AcDbLine
 10
922.566632
 20
1975.943591
 30
0.0
 11
910.669293
 21
1974.377277
 31
0.0
  0
LINE
  5
293
330
287
100
AcDbEntity
  8
LC-008-003-----0
 62
     7
370
    25
100
AcDbLine
 10
910.669293
 20
1974.377277
 30
0.0
 11
922.566632
 21
1972.810963
 31
0.0
  0
LINE
  5
294
330
287
100
AcDbEntity
  8
LC-008-003-----0
 62
     7
370
    25
100
AcDbLine
 10
922.62224
 20
1975.095171
 30
0.0
 11
917.169293
 21
1974.377277
 31
0.0
  0
LINE
  5
295
330
287
100
AcDbEntity
  8
LC-008-003-----0
 62
     7
370
    25
100
AcDbLine
 10
917.169293
 20
1974.377277
 30
0.0
 11
922.62224
 21
1973.659383
 31
0.0
  0
LINE
  5
296
330
287
100
AcDbEntity
  8
LC-008-003-----0
 62
     7
370
    25
100
AcDbLine
 10
1322.883171
 20
1971.114122
 30
0.0
 11
1347.669293
 21
1974.377277
 31
0.0
  0
LINE
  5
297
330
287
100
AcDbEntity
  8
LC-008-003-----0
 62
     7
370
    25
100
AcDbLine
 10
1347.669293
 20
1974.377277
 30
0.0
 11
1322.883171
 21
1977.640432
 31
0.0
  0
LINE
  5
298
330
287
100
AcDbEntity
  8
LC-008-003-----0
 62
     7
370
    25
100
AcDbLine
 10
1322.883171
 20
1977.640432
 30
0.0
 11
1322.883171
 21
1971.114122
 31
0.0
  0
LINE
  5
299
330
287
100
AcDbEntity
  8
LC-008-003-----0
 62
     7
370
    25
100
AcDbLine
 10
1322.827563
 20
1971.962542
 30
0.0
 11
1341.169293
 21
1974.377277
 31
0.0
  0
LINE
  5
29A
330
287
100
AcDbEntity
  8
LC-008-003-----0
 62
     7
370
    25
100
AcDbLine
 10
1341.169293
 20
1974.377277
 30
0.0
 11
1322.827563
 21
1976.792012
 31
0.0
  0
LINE
  5
29B
330
287
100
AcDbEntity
  8
LC-008-003-----0
 62
     7
370
    25
100
AcDbLine
 10
1322.771954
 20
1972.810963
 30
0.0
 11
1334.669293
 21
1974.377277
 31
0.0
  0
LINE
  5
29C
330
287
100
AcDbEntity
  8
LC-008-003-----0
 62
     7
370
    25
100
AcDbLine
 10
1334.669293
 20
1974.377277
 30
0.0
 11
1322.771954
 21
1975.943591
 31
0.0
  0
LINE
  5
29D
330
287
100
AcDbEntity
  8
LC-008-003-----0
 62
     7
370
    25
100
AcDbLine
 10
1322.716346
 20
1973.659383
 30
0.0
 11
1328.169293
 21
1974.377277
 31
0.0
  0
LINE
  5
29E
330
287
100
AcDbEntity
  8
LC-008-003-----0
 62
     7
370
    25
100
AcDbLine
 10
1328.169293
 20
1974.377277
 30
0.0
 11
1322.716346
 21
1975.095171
 31
0.0
  0
TEXT
  5
29F
330
287
100
AcDbEntity
  8
LC-008-003-----0
 62
     7
370
    25
100
AcDbText
 10
1085.979645
 20
1989.377277
 30
0.0
 40
25.0
  1
450
 41
0.7
  7
LCTX0-400-0-0pDIN-Schrift
 72
     1
 11
1110.979645
 21
1989.377277
 31
0.0
100
AcDbText
  0
ENDBLK
  5
289
330
287
100
AcDbEntity
  8
0
100
AcDbBlockEnd
  0
BLOCK
  5
2A2
330
2A1
100
AcDbEntity
  8
0
100
AcDbBlockBegin
  2
LCDIM6
 70
     0
 71
     0
 10
0.0
 20
0.0
 30
0.0
  3
LCDIM6
  1

  4
LCDIM6
  0
LINE
  5
2A4
330
2A1
100
AcDbEntity
  8
LC-006-003-MTH-0
 62
     7
370
    25
100
AcDbLine
 10
915.169293
 20
1802.282653
 30
0.0
 11
1015.0
 21
1802.282653
 31
0.0
  0
LINE
  5
2A5
330
2A1
100
AcDbEntity
  8
LC-006-003-MTH-0
 62
     7
370
    25
100
AcDbLine
 10
907.669293
 20
1869.782653
 30
0.0
 11
1015.0
 21
1869.782653
 31
0.0
  0
LINE
  5
2A6
330
2A1
100
AcDbEntity
  8
LC-008-003-----0
 62
     7
370
    25
100
AcDbLine
 10
1003.263155
 20
1777.496531
 30
0.0
 11
1000.0
 21
1802.282653
 31
0.0
  0
LINE
  5
2A7
330
2A1
100
AcDbEntity
  8
LC-008-003-----0
 62
     7
370
    25
100
AcDbLine
 10
1000.0
 20
1802.282653
 30
0.0
 11
996.736845
 21
1777.496531
 31
0.0
  0
LINE
  5
2A8
330
2A1
100
AcDbEntity
  8
LC-008-003-----0
 62
     7
370
    25
100
AcDbLine
 10
996.736845
 20
1777.496531
 30
0.0
 11
1003.263155
 21
1777.496531
 31
0.0
  0
LINE
  5
2A9
330
2A1
100
AcDbEntity
  8
LC-008-003-----0
 62
     7
370
    25
100
AcDbLine
 10
1002.414735
 20
1777.440922
 30
0.0
 11
1000.0
 21
1795.782652
 31
0.0
  0
LINE
  5
2AA
330
2A1
100
AcDbEntity
  8
LC-008-003-----0
 62
     7
370
    25
100
AcDbLine
 10
1000.0
 20
1795.782652
 30
0.0
 11
997.585265
 21
1777.440922
 31
0.0
  0
LINE
  5
2AB
330
2A1
100
AcDbEntity
  8
LC-008-003-----0
 62
     7
370
    25
100
AcDbLine
 10
1001.566314
 20
1777.385314
 30
0.0
 11
1000.0
 21
1789.282652
 31
0.0
  0
LINE
  5
2AC
330
2A1
100
AcDbEntity
  8
LC-008-003-----0
 62
     7
370
    25
100
AcDbLine
 10
1000.0
 20
1789.282652
 30
0.0
 11
998.433686
 21
1777.385314
 31
0.0
  0
LINE
  5
2AD
330
2A1
100
AcDbEntity
  8
LC-008-003-----0
 62
     7
370
    25
100
AcDbLine
 10
1000.717894
 20
1777.329705
 30
0.0
 11
1000.0
 21
1782.782652
 31
0.0
  0
LINE
  5
2AE
330
2A1
100
AcDbEntity
  8
LC-008-003-----0
 62
     7
370
    25
100
AcDbLine
 10
1000.0
 20
1782.782652
 30
0.0
 11
999.282106
 21
1777.329705
 31
0.0
  0
LINE
  5
2AF
330
2A1
100
AcDbEntity
  8
LC-008-003-----0
 62
     7
370
    25
100
AcDbLine
 10
996.736845
 20
1894.568774
 30
0.0
 11
1000.0
 21
1869.782653
 31
0.0
  0
LINE
  5
2B0
330
2A1
100
AcDbEntity
  8
LC-008-003-----0
 62
     7
370
    25
100
AcDbLine
 10
1000.0
 20
1869.782653
 30
0.0
 11
1003.263155
 21
1894.568774
 31
0.0
  0
LINE
  5
2B1
330
2A1
100
AcDbEntity
  8
LC-008-003-----0
 62
     7
370
    25
100
AcDbLine
 10
1003.263155
 20
1894.568774
 30
0.0
 11
996.736845
 21
1894.568774
 31
0.0
  0
LINE
  5
2B2
330
2A1
100
AcDbEntity
  8
LC-008-003-----0
 62
     7
370
    25
100
AcDbLine
 10
997.585265
 20
1894.624383
 30
0.0
 11
1000.0
 21
1876.282653
 31
0.0
  0
LINE
  5
2B3
330
2A1
100
AcDbEntity
  8
LC-008-003-----0
 62
     7
370
    25
100
AcDbLine
 10
1000.0
 20
1876.282653
 30
0.0
 11
1002.414735
 21
1894.624383
 31
0.0
  0
LINE
  5
2B4
330
2A1
100
AcDbEntity
  8
LC-008-003-----0
 62
     7
370
    25
100
AcDbLine
 10
998.433686
 20
1894.679991
 30
0.0
 11
1000.0
 21
1882.782653
 31
0.0
  0
LINE
  5
2B5
330
2A1
100
AcDbEntity
  8
LC-008-003-----0
 62
     7
370
    25
100
AcDbLine
 10
1000.0
 20
1882.782653
 30
0.0
 11
1001.566314
 21
1894.679991
 31
0.0
  0
LINE
  5
2B6
330
2A1
100
AcDbEntity
  8
LC-008-003-----0
 62
     7
370
    25
100
AcDbLine
 10
999.282106
 20
1894.7356
 30
0.0
 11
1000.0
 21
1889.282653
 31
0.0
  0
LINE
  5
2B7
330
2A1
100
AcDbEntity
  8
LC-008-003-----0
 62
     7
370
    25
100
AcDbLine
 10
1000.0
 20
1889.282653
 30
0.0
 11
1000.717894
 21
1894.7356
 31
0.0
  0
LINE
  5
2B8
330
2A1
100
AcDbEntity
  8
LC-007-003-MTG-0
 62
     7
370
    25
100
AcDbLine
 10
1000.0
 20
1767.282652
 30
0.0
 11
1000.0
 21
1949.73874
 31
0.0
  0
TEXT
  5
2B9
330
2A1
100
AcDbEntity
  8
LC-008-003-----0
 62
     7
370
    25
100
AcDbText
 10
985.0
 20
1910.936499
 30
0.0
 40
25.0
  1
67,5
 50
90.0
 41
0.7
  7
LCTX0-400-0-0pDIN-Schrift
100
AcDbText
  0
ENDBLK
  5
2A3
330
2A1
100
AcDbEntity
  8
0
100
AcDbBlockEnd
  0
BLOCK
  5
2BC
330
2BB
100
AcDbEntity
  8
0
100
AcDbBlockBegin
  2
LCDIM7
 70
     0
 71
     0
 10
0.0
 20
0.0
 30
0.0
  3
LCDIM7
  1

  4
LCDIM7
  0
LINE
  5
2BE
330
2BB
100
AcDbEntity
  8
LC-006-003-MTH-0
 62
     7
370
    25
100
AcDbLine
 10
467.669293
 20
1619.769491
 30
0.0
 11
467.669293
 21
2043.037358
 31
0.0
  0
LINE
  5
2BF
330
2BB
100
AcDbEntity
  8
LC-006-003-MTH-0
 62
     7
370
    25
100
AcDbLine
 10
1347.669293
 20
1619.782807
 30
0.0
 11
1347.669293
 21
2043.037358
 31
0.0
  0
LINE
  5
2C0
330
2BB
100
AcDbEntity
  8
LC-007-003-MTG-0
 62
     7
370
    25
100
AcDbLine
 10
467.669293
 20
2028.037358
 30
0.0
 11
1347.669293
 21
2028.037358
 31
0.0
  0
LINE
  5
2C1
330
2BB
100
AcDbEntity
  8
LC-008-003-----0
 62
     7
370
    25
100
AcDbLine
 10
492.455415
 20
2031.300513
 30
0.0
 11
467.669293
 21
2028.037358
 31
0.0
  0
LINE
  5
2C2
330
2BB
100
AcDbEntity
  8
LC-008-003-----0
 62
     7
370
    25
100
AcDbLine
 10
467.669293
 20
2028.037358
 30
0.0
 11
492.455415
 21
2024.774203
 31
0.0
  0
LINE
  5
2C3
330
2BB
100
AcDbEntity
  8
LC-008-003-----0
 62
     7
370
    25
100
AcDbLine
 10
492.455415
 20
2024.774203
 30
0.0
 11
492.455415
 21
2031.300513
 31
0.0
  0
LINE
  5
2C4
330
2BB
100
AcDbEntity
  8
LC-008-003-----0
 62
     7
370
    25
100
AcDbLine
 10
492.511023
 20
2030.452092
 30
0.0
 11
474.169293
 21
2028.037358
 31
0.0
  0
LINE
  5
2C5
330
2BB
100
AcDbEntity
  8
LC-008-003-----0
 62
     7
370
    25
100
AcDbLine
 10
474.169293
 20
2028.037358
 30
0.0
 11
492.511023
 21
2025.622623
 31
0.0
  0
LINE
  5
2C6
330
2BB
100
AcDbEntity
  8
LC-008-003-----0
 62
     7
370
    25
100
AcDbLine
 10
492.566632
 20
2029.603672
 30
0.0
 11
480.669293
 21
2028.037358
 31
0.0
  0
LINE
  5
2C7
330
2BB
100
AcDbEntity
  8
LC-008-003-----0
 62
     7
370
    25
100
AcDbLine
 10
480.669293
 20
2028.037358
 30
0.0
 11
492.566632
 21
2026.471043
 31
0.0
  0
LINE
  5
2C8
330
2BB
100
AcDbEntity
  8
LC-008-003-----0
 62
     7
370
    25
100
AcDbLine
 10
492.62224
 20
2028.755252
 30
0.0
 11
487.169293
 21
2028.037358
 31
0.0
  0
LINE
  5
2C9
330
2BB
100
AcDbEntity
  8
LC-008-003-----0
 62
     7
370
    25
100
AcDbLine
 10
487.169293
 20
2028.037358
 30
0.0
 11
492.62224
 21
2027.319464
 31
0.0
  0
LINE
  5
2CA
330
2BB
100
AcDbEntity
  8
LC-008-003-----0
 62
     7
370
    25
100
AcDbLine
 10
1322.883171
 20
2024.774203
 30
0.0
 11
1347.669293
 21
2028.037358
 31
0.0
  0
LINE
  5
2CB
330
2BB
100
AcDbEntity
  8
LC-008-003-----0
 62
     7
370
    25
100
AcDbLine
 10
1347.669293
 20
2028.037358
 30
0.0
 11
1322.883171
 21
2031.300513
 31
0.0
  0
LINE
  5
2CC
330
2BB
100
AcDbEntity
  8
LC-008-003-----0
 62
     7
370
    25
100
AcDbLine
 10
1322.883171
 20
2031.300513
 30
0.0
 11
1322.883171
 21
2024.774203
 31
0.0
  0
LINE
  5
2CD
330
2BB
100
AcDbEntity
  8
LC-008-003-----0
 62
     7
370
    25
100
AcDbLine
 10
1322.827563
 20
2025.622623
 30
0.0
 11
1341.169293
 21
2028.037358
 31
0.0
  0
LINE
  5
2CE
330
2BB
100
AcDbEntity
  8
LC-008-003-----0
 62
     7
370
    25
100
AcDbLine
 10
1341.169293
 20
2028.037358
 30
0.0
 11
1322.827563
 21
2030.452092
 31
0.0
  0
LINE
  5
2CF
330
2BB
100
AcDbEntity
  8
LC-008-003-----0
 62
     7
370
    25
100
AcDbLine
 10
1322.771954
 20
2026.471043
 30
0.0
 11
1334.669293
 21
2028.037358
 31
0.0
  0
LINE
  5
2D0
330
2BB
100
AcDbEntity
  8
LC-008-003-----0
 62
     7
370
    25
100
AcDbLine
 10
1334.669293
 20
2028.037358
 30
0.0
 11
1322.771954
 21
2029.603672
 31
0.0
  0
LINE
  5
2D1
330
2BB
100
AcDbEntity
  8
LC-008-003-----0
 62
     7
370
    25
100
AcDbLine
 10
1322.716346
 20
2027.319464
 30
0.0
 11
1328.169293
 21
2028.037358
 31
0.0
  0
LINE
  5
2D2
330
2BB
100
AcDbEntity
  8
LC-008-003-----0
 62
     7
370
    25
100
AcDbLine
 10
1328.169293
 20
2028.037358
 30
0.0
 11
1322.716346
 21
2028.755252
 31
0.0
  0
TEXT
  5
2D3
330
2BB
100
AcDbEntity
  8
LC-008-003-----0
 62
     7
370
    25
100
AcDbText
 10
894.567149
 20
2043.037358
 30
0.0
 40
25.0
  1
880
 41
0.7
  7
LCTX0-400-0-0pDIN-Schrift
 72
     1
 11
919.567149
 21
2043.037358
 31
0.0
100
AcDbText
  0
ENDBLK
  5
2BD
330
2BB
100
AcDbEntity
  8
0
100
AcDbBlockEnd
  0
BLOCK
  5
2D6
330
2D5
100
AcDbEntity
  8
0
100
AcDbBlockBegin
  2
LCDIM8
 70
     0
 71
     0
 10
0.0
 20
0.0
 30
0.0
  3
LCDIM8
  1

  4
LCDIM8
  0
LINE
  5
2D8
330
2D5
100
AcDbEntity
  8
LC-006-003-MTH-0
 62
     7
370
    25
100
AcDbLine
 10
943.646492
 20
2529.42931
 30
0.0
 11
943.646492
 21
2615.0
 31
0.0
  0
LINE
  5
2D9
330
2D5
100
AcDbEntity
  8
LC-006-003-MTH-0
 62
     7
370
    25
100
AcDbLine
 10
1291.788825
 20
2464.073291
 30
0.0
 11
1291.788825
 21
2615.0
 31
0.0
  0
LINE
  5
2DA
330
2D5
100
AcDbEntity
  8
LC-007-003-MTG-0
 62
     7
370
    25
100
AcDbLine
 10
943.646492
 20
2600.0
 30
0.0
 11
1291.788825
 21
2600.0
 31
0.0
  0
LINE
  5
2DB
330
2D5
100
AcDbEntity
  8
LC-008-003-----0
 62
     7
370
    25
100
AcDbLine
 10
968.432614
 20
2603.263155
 30
0.0
 11
943.646492
 21
2600.0
 31
0.0
  0
LINE
  5
2DC
330
2D5
100
AcDbEntity
  8
LC-008-003-----0
 62
     7
370
    25
100
AcDbLine
 10
943.646492
 20
2600.0
 30
0.0
 11
968.432614
 21
2596.736845
 31
0.0
  0
LINE
  5
2DD
330
2D5
100
AcDbEntity
  8
LC-008-003-----0
 62
     7
370
    25
100
AcDbLine
 10
968.432614
 20
2596.736845
 30
0.0
 11
968.432614
 21
2603.263155
 31
0.0
  0
LINE
  5
2DE
330
2D5
100
AcDbEntity
  8
LC-008-003-----0
 62
     7
370
    25
100
AcDbLine
 10
968.488222
 20
2602.414735
 30
0.0
 11
950.146492
 21
2600.0
 31
0.0
  0
LINE
  5
2DF
330
2D5
100
AcDbEntity
  8
LC-008-003-----0
 62
     7
370
    25
100
AcDbLine
 10
950.146492
 20
2600.0
 30
0.0
 11
968.488222
 21
2597.585265
 31
0.0
  0
LINE
  5
2E0
330
2D5
100
AcDbEntity
  8
LC-008-003-----0
 62
     7
370
    25
100
AcDbLine
 10
968.543831
 20
2601.566314
 30
0.0
 11
956.646492
 21
2600.0
 31
0.0
  0
LINE
  5
2E1
330
2D5
100
AcDbEntity
  8
LC-008-003-----0
 62
     7
370
    25
100
AcDbLine
 10
956.646492
 20
2600.0
 30
0.0
 11
968.543831
 21
2598.433686
 31
0.0
  0
LINE
  5
2E2
330
2D5
100
AcDbEntity
  8
LC-008-003-----0
 62
     7
370
    25
100
AcDbLine
 10
968.599439
 20
2600.717894
 30
0.0
 11
963.146492
 21
2600.0
 31
0.0
  0
LINE
  5
2E3
330
2D5
100
AcDbEntity
  8
LC-008-003-----0
 62
     7
370
    25
100
AcDbLine
 10
963.146492
 20
2600.0
 30
0.0
 11
968.599439
 21
2599.282106
 31
0.0
  0
LINE
  5
2E4
330
2D5
100
AcDbEntity
  8
LC-008-003-----0
 62
     7
370
    25
100
AcDbLine
 10
1267.002703
 20
2596.736845
 30
0.0
 11
1291.788825
 21
2600.0
 31
0.0
  0
LINE
  5
2E5
330
2D5
100
AcDbEntity
  8
LC-008-003-----0
 62
     7
370
    25
100
AcDbLine
 10
1291.788825
 20
2600.0
 30
0.0
 11
1267.002703
 21
2603.263155
 31
0.0
  0
LINE
  5
2E6
330
2D5
100
AcDbEntity
  8
LC-008-003-----0
 62
     7
370
    25
100
AcDbLine
 10
1267.002703
 20
2603.263155
 30
0.0
 11
1267.002703
 21
2596.736845
 31
0.0
  0
LINE
  5
2E7
330
2D5
100
AcDbEntity
  8
LC-008-003-----0
 62
     7
370
    25
100
AcDbLine
 10
1266.947095
 20
2597.585265
 30
0.0
 11
1285.288825
 21
2600.0
 31
0.0
  0
LINE
  5
2E8
330
2D5
100
AcDbEntity
  8
LC-008-003-----0
 62
     7
370
    25
100
AcDbLine
 10
1285.288825
 20
2600.0
 30
0.0
 11
1266.947095
 21
2602.414735
 31
0.0
  0
LINE
  5
2E9
330
2D5
100
AcDbEntity
  8
LC-008-003-----0
 62
     7
370
    25
100
AcDbLine
 10
1266.891486
 20
2598.433686
 30
0.0
 11
1278.788825
 21
2600.0
 31
0.0
  0
LINE
  5
2EA
330
2D5
100
AcDbEntity
  8
LC-008-003-----0
 62
     7
370
    25
100
AcDbLine
 10
1278.788825
 20
2600.0
 30
0.0
 11
1266.891486
 21
2601.566314
 31
0.0
  0
LINE
  5
2EB
330
2D5
100
AcDbEntity
  8
LC-008-003-----0
 62
     7
370
    25
100
AcDbLine
 10
1266.835878
 20
2599.282106
 30
0.0
 11
1272.288825
 21
2600.0
 31
0.0
  0
LINE
  5
2EC
330
2D5
100
AcDbEntity
  8
LC-008-003-----0
 62
     7
370
    25
100
AcDbLine
 10
1272.288825
 20
2600.0
 30
0.0
 11
1266.835878
 21
2600.717894
 31
0.0
  0
TEXT
  5
2ED
330
2D5
100
AcDbEntity
  8
LC-008-003-----0
 62
     7
370
    25
100
AcDbText
 10
1085.932758
 20
2615.0
 30
0.0
 40
25.0
  1
348
 41
0.7
  7
LCTX0-400-0-0pDIN-Schrift
 72
     1
 11
1110.932758
 21
2615.0
 31
0.0
100
AcDbText
  0
ENDBLK
  5
2D7
330
2D5
100
AcDbEntity
  8
0
100
AcDbBlockEnd
  0
BLOCK
  5
30D
330
30C
100
AcDbEntity
  8
0
100
AcDbBlockBegin
  2
*X118
 70
     1
 71
     0
 10
0.0
 20
0.0
 30
0.0
  3
*X118
  1

  4
*X1
  0
LINE
  5
310
330
30C
100
AcDbEntity
  8
LC-015-005-----0
 62
     7
370
    25
100
AcDbLine
 10
461.463366
 20
2497.930896
 30
0.0
 11
487.669293
 21
2524.136823
 31
0.0
  0
LINE
  5
311
330
30C
100
AcDbEntity
  8
LC-015-005-----0
 62
     7
370
    25
100
AcDbLine
 10
433.179095
 20
2497.930896
 30
0.0
 11
471.179095
 21
2535.930896
 31
0.0
  0
LINE
  5
312
330
30C
100
AcDbEntity
  8
LC-015-005-----0
 62
     7
370
    25
100
AcDbLine
 10
410.473898
 20
2503.509971
 30
0.0
 11
442.894823
 21
2535.930896
 31
0.0
  0
LINE
  5
313
330
30C
100
AcDbEntity
  8
LC-015-005-----0
 62
     7
370
    25
100
AcDbLine
 10
411.216601
 20
2532.536945
 30
0.0
 11
414.610552
 21
2535.930896
 31
0.0
  0
ENDBLK
  5
30E
330
30C
100
AcDbEntity
  8
0
100
AcDbBlockEnd
  0
BLOCK
  5
316
330
315
100
AcDbEntity
  8
0
100
AcDbBlockBegin
  2
*X219
 70
     1
 71
     0
 10
0.0
 20
0.0
 30
0.0
  3
*X219
  1

  4
*X2
  0
LINE
  5
318
330
315
100
AcDbEntity
  8
LC-015-005-----0
 62
     7
370
    25
100
AcDbLine
 10
1330.127626
 20
2404.929934
 30
0.0
 11
1346.669293
 21
2421.4716
 31
0.0
  0
LINE
  5
319
330
315
100
AcDbEntity
  8
LC-015-005-----0
 62
     7
370
    25
100
AcDbLine
 10
1327.669293
 20
2430.755871
 30
0.0
 11
1346.669293
 21
2449.755871
 31
0.0
  0
LINE
  5
31A
330
315
100
AcDbEntity
  8
LC-015-005-----0
 62
     7
370
    25
100
AcDbLine
 10
1327.669293
 20
2459.040143
 30
0.0
 11
1346.669293
 21
2478.040143
 31
0.0
  0
LINE
  5
31B
330
315
100
AcDbEntity
  8
LC-015-005-----0
 62
     7
370
    25
100
AcDbLine
 10
1327.669293
 20
2487.324414
 30
0.0
 11
1338.275774
 21
2497.930896
 31
0.0
  0
ENDBLK
  5
317
330
315
100
AcDbEntity
  8
0
100
AcDbBlockEnd
  0
BLOCK
  5
3BD
330
3BC
100
AcDbEntity
  8
0
100
AcDbBlockBegin
  2
POLY1
 70
     0
 71
     0
 10
0.0
 20
0.0
 30
0.0
  3
POLY1
  1

  4
POLY1
  0
LINE
  5
3BF
330
3BC
100
AcDbEntity
  8
LC-002-002-----0
 62
     7
370
    25
100
AcDbLine
 10
1000.036505
 20
2312.324846
 30
0.0
 11
1000.036505
 21
2312.324846
 31
0.0
  0
LINE
  5
3C0
330
3BC
100
AcDbEntity
  8
LC-002-002-----0
 62
     7
370
    25
100
AcDbLine
 10
1000.036505
 20
2312.324846
 30
0.0
 11
1000.3563
 21
2314.678109
 31
0.0
  0
LINE
  5
3C1
330
3BC
100
AcDbEntity
  8
LC-002-002-----0
 62
     7
370
    25
100
AcDbLine
 10
1000.3563
 20
2314.678109
 30
0.0
 11
1000.3563
 21
2314.678109
 31
0.0
  0
LINE
  5
3C2
330
3BC
100
AcDbEntity
  8
LC-002-002-----0
 62
     7
370
    25
100
AcDbLine
 10
1000.3563
 20
2314.678109
 30
0.0
 11
1000.562583
 21
2317.156496
 31
0.0
  0
LINE
  5
3C3
330
3BC
100
AcDbEntity
  8
LC-002-002-----0
 62
     7
370
    25
100
AcDbLine
 10
1000.562583
 20
2317.156496
 30
0.0
 11
1000.562583
 21
2317.156496
 31
0.0
  0
LINE
  5
3C4
330
3BC
100
AcDbEntity
  8
LC-002-002-----0
 62
     7
370
    25
100
AcDbLine
 10
1000.562583
 20
2317.156496
 30
0.0
 11
1000.633307
 21
2319.680896
 31
0.0
  0
ENDBLK
  5
3BE
330
3BC
100
AcDbEntity
  8
0
100
AcDbBlockEnd
  0
BLOCK
  5
3C7
330
3C6
100
AcDbEntity
  8
0
100
AcDbBlockBegin
  2
POLY2
 70
     0
 71
     0
 10
0.0
 20
0.0
 30
0.0
  3
POLY2
  1

  4
POLY2
  0
LINE
  5
3C9
330
3C6
100
AcDbEntity
  8
LC-002-002-----0
 62
     7
370
    25
100
AcDbLine
 10
1001.968063
 20
2307.128705
 30
0.0
 11
1001.968063
 21
2307.128705
 31
0.0
  0
LINE
  5
3CA
330
3C6
100
AcDbEntity
  8
LC-002-002-----0
 62
     7
370
    25
100
AcDbLine
 10
1001.968063
 20
2307.128705
 30
0.0
 11
1002.506243
 21
2306.762292
 31
0.0
  0
LINE
  5
3CB
330
3C6
100
AcDbEntity
  8
LC-002-002-----0
 62
     7
370
    25
100
AcDbLine
 10
1002.506243
 20
2306.762292
 30
0.0
 11
1002.506243
 21
2306.762292
 31
0.0
  0
LINE
  5
3CC
330
3C6
100
AcDbEntity
  8
LC-002-002-----0
 62
     7
370
    25
100
AcDbLine
 10
1002.506243
 20
2306.762292
 30
0.0
 11
1002.99622
 21
2306.425204
 31
0.0
  0
LINE
  5
3CD
330
3C6
100
AcDbEntity
  8
LC-002-002-----0
 62
     7
370
    25
100
AcDbLine
 10
1002.99622
 20
2306.425204
 30
0.0
 11
1002.99622
 21
2306.425204
 31
0.0
  0
LINE
  5
3CE
330
3C6
100
AcDbEntity
  8
LC-002-002-----0
 62
     7
370
    25
100
AcDbLine
 10
1002.99622
 20
2306.425204
 30
0.0
 11
1003.437843
 21
2306.11832
 31
0.0
  0
ENDBLK
  5
3C8
330
3C6
100
AcDbEntity
  8
0
100
AcDbBlockEnd
  0
BLOCK
  5
3D1
330
3D0
100
AcDbEntity
  8
0
100
AcDbBlockBegin
  2
POLY3
 70
     0
 71
     0
 10
0.0
 20
0.0
 30
0.0
  3
POLY3
  1

  4
POLY3
  0
LINE
  5
3D3
330
3D0
100
AcDbEntity
  8
LC-002-002-----0
 62
     7
370
    25
100
AcDbLine
 10
1000.036505
 20
2312.324846
 30
0.0
 11
1000.036505
 21
2312.324846
 31
0.0
  0
LINE
  5
3D4
330
3D0
100
AcDbEntity
  8
LC-002-002-----0
 62
     7
370
    25
100
AcDbLine
 10
1000.036505
 20
2312.324846
 30
0.0
 11
999.956466
 21
2311.029699
 31
0.0
  0
LINE
  5
3D5
330
3D0
100
AcDbEntity
  8
LC-002-002-----0
 62
     7
370
    25
100
AcDbLine
 10
999.956466
 20
2311.029699
 30
0.0
 11
999.956466
 21
2311.029699
 31
0.0
  0
LINE
  5
3D6
330
3D0
100
AcDbEntity
  8
LC-002-002-----0
 62
     7
370
    25
100
AcDbLine
 10
999.956466
 20
2311.029699
 30
0.0
 11
1000.127531
 21
2309.833458
 31
0.0
  0
LINE
  5
3D7
330
3D0
100
AcDbEntity
  8
LC-002-002-----0
 62
     7
370
    25
100
AcDbLine
 10
1000.127531
 20
2309.833458
 30
0.0
 11
1000.127531
 21
2309.833458
 31
0.0
  0
LINE
  5
3D8
330
3D0
100
AcDbEntity
  8
LC-002-002-----0
 62
     7
370
    25
100
AcDbLine
 10
1000.127531
 20
2309.833458
 30
0.0
 11
1000.525537
 21
2308.772395
 31
0.0
  0
LINE
  5
3D9
330
3D0
100
AcDbEntity
  8
LC-002-002-----0
 62
     7
370
    25
100
AcDbLine
 10
1000.525537
 20
2308.772395
 30
0.0
 11
1000.525537
 21
2308.772395
 31
0.0
  0
LINE
  5
3DA
330
3D0
100
AcDbEntity
  8
LC-002-002-----0
 62
     7
370
    25
100
AcDbLine
 10
1000.525537
 20
2308.772395
 30
0.0
 11
1001.136934
 21
2307.86487
 31
0.0
  0
LINE
  5
3DB
330
3D0
100
AcDbEntity
  8
LC-002-002-----0
 62
     7
370
    25
100
AcDbLine
 10
1001.136934
 20
2307.86487
 30
0.0
 11
1001.136934
 21
2307.86487
 31
0.0
  0
LINE
  5
3DC
330
3D0
100
AcDbEntity
  8
LC-002-002-----0
 62
     7
370
    25
100
AcDbLine
 10
1001.136934
 20
2307.86487
 30
0.0
 11
1001.968063
 21
2307.128705
 31
0.0
  0
ENDBLK
  5
3D2
330
3D0
100
AcDbEntity
  8
0
100
AcDbBlockEnd
  0
BLOCK
  5
3DF
330
3DE
100
AcDbEntity
  8
0
100
AcDbBlockBegin
  2
POLY4
 70
     0
 71
     0
 10
0.0
 20
0.0
 30
0.0
  3
POLY4
  1

  4
POLY4
  0
LINE
  5
3E1
330
3DE
100
AcDbEntity
  8
LC-002-002-----0
 62
     7
370
    25
100
AcDbLine
 10
1003.438872
 20
2306.117581
 30
0.0
 11
1003.438872
 21
2306.117581
 31
0.0
  0
LINE
  5
3E2
330
3DE
100
AcDbEntity
  8
LC-002-002-----0
 62
     7
370
    25
100
AcDbLine
 10
1003.438872
 20
2306.117581
 30
0.0
 11
1003.911099
 21
2305.710847
 31
0.0
  0
LINE
  5
3E3
330
3DE
100
AcDbEntity
  8
LC-002-002-----0
 62
     7
370
    25
100
AcDbLine
 10
1003.911099
 20
2305.710847
 30
0.0
 11
1003.911099
 21
2305.710847
 31
0.0
  0
LINE
  5
3E4
330
3DE
100
AcDbEntity
  8
LC-002-002-----0
 62
     7
370
    25
100
AcDbLine
 10
1003.911099
 20
2305.710847
 30
0.0
 11
1004.23675
 21
2305.294659
 31
0.0
  0
LINE
  5
3E5
330
3DE
100
AcDbEntity
  8
LC-002-002-----0
 62
     7
370
    25
100
AcDbLine
 10
1004.23675
 20
2305.294659
 30
0.0
 11
1004.23675
 21
2305.294659
 31
0.0
  0
LINE
  5
3E6
330
3DE
100
AcDbEntity
  8
LC-002-002-----0
 62
     7
370
    25
100
AcDbLine
 10
1004.23675
 20
2305.294659
 30
0.0
 11
1004.43378
 21
2304.932806
 31
0.0
  0
LINE
  5
3E7
330
3DE
100
AcDbEntity
  8
LC-002-002-----0
 62
     7
370
    25
100
AcDbLine
 10
1004.43378
 20
2304.932806
 30
0.0
 11
1004.43378
 21
2304.932806
 31
0.0
  0
LINE
  5
3E8
330
3DE
100
AcDbEntity
  8
LC-002-002-----0
 62
     7
370
    25
100
AcDbLine
 10
1004.43378
 20
2304.932806
 30
0.0
 11
1004.535307
 21
2304.677974
 31
0.0
  0
LINE
  5
3E9
330
3DE
100
AcDbEntity
  8
LC-002-002-----0
 62
     7
370
    25
100
AcDbLine
 10
1004.535307
 20
2304.677974
 30
0.0
 11
1004.535307
 21
2304.677974
 31
0.0
  0
LINE
  5
3EA
330
3DE
100
AcDbEntity
  8
LC-002-002-----0
 62
     7
370
    25
100
AcDbLine
 10
1004.535307
 20
2304.677974
 30
0.0
 11
1004.566588
 21
2304.581053
 31
0.0
  0
ENDBLK
  5
3E0
330
3DE
100
AcDbEntity
  8
0
100
AcDbBlockEnd
  0
BLOCK
  5
3ED
330
3EC
100
AcDbEntity
  8
0
100
AcDbBlockBegin
  2
POLY5
 70
     0
 71
     0
 10
0.0
 20
0.0
 30
0.0
  3
POLY5
  1

  4
POLY5
  0
LINE
  5
3EF
330
3EC
100
AcDbEntity
  8
LC-002-002-----0
 62
     7
370
    25
100
AcDbLine
 10
773.02192
 20
2247.353683
 30
0.0
 11
773.04696
 21
2247.328667
 31
0.0
  0
ENDBLK
  5
3EE
330
3EC
100
AcDbEntity
  8
0
100
AcDbBlockEnd
  0
BLOCK
  5
3F2
330
3F1
100
AcDbEntity
  8
0
100
AcDbBlockBegin
  2
POLY6
 70
     0
 71
     0
 10
0.0
 20
0.0
 30
0.0
  3
POLY6
  1

  4
POLY6
  0
LINE
  5
3F4
330
3F1
100
AcDbEntity
  8
LC-002-002-----0
 62
     7
370
    25
100
AcDbLine
 10
910.075509
 20
2339.653439
 30
0.0
 11
910.075509
 21
2339.653439
 31
0.0
  0
LINE
  5
3F5
330
3F1
100
AcDbEntity
  8
LC-002-002-----0
 62
     7
370
    25
100
AcDbLine
 10
910.075509
 20
2339.653439
 30
0.0
 11
910.220493
 21
2339.653476
 31
0.0
  0
LINE
  5
3F6
330
3F1
100
AcDbEntity
  8
LC-002-002-----0
 62
     7
370
    25
100
AcDbLine
 10
910.220493
 20
2339.653476
 30
0.0
 11
910.220493
 21
2339.653476
 31
0.0
  0
LINE
  5
3F7
330
3F1
100
AcDbEntity
  8
LC-002-002-----0
 62
     7
370
    25
100
AcDbLine
 10
910.220493
 20
2339.653476
 30
0.0
 11
910.645134
 21
2339.653916
 31
0.0
  0
LINE
  5
3F8
330
3F1
100
AcDbEntity
  8
LC-002-002-----0
 62
     7
370
    25
100
AcDbLine
 10
910.645134
 20
2339.653916
 30
0.0
 11
910.645134
 21
2339.653916
 31
0.0
  0
LINE
  5
3F9
330
3F1
100
AcDbEntity
  8
LC-002-002-----0
 62
     7
370
    25
100
AcDbLine
 10
910.645134
 20
2339.653916
 30
0.0
 11
911.349481
 21
2339.653488
 31
0.0
  0
LINE
  5
3FA
330
3F1
100
AcDbEntity
  8
LC-002-002-----0
 62
     7
370
    25
100
AcDbLine
 10
911.349481
 20
2339.653488
 30
0.0
 11
911.349481
 21
2339.653488
 31
0.0
  0
LINE
  5
3FB
330
3F1
100
AcDbEntity
  8
LC-002-002-----0
 62
     7
370
    25
100
AcDbLine
 10
911.349481
 20
2339.653488
 30
0.0
 11
912.347891
 21
2339.653349
 31
0.0
  0
LINE
  5
3FC
330
3F1
100
AcDbEntity
  8
LC-002-002-----0
 62
     7
370
    25
100
AcDbLine
 10
912.347891
 20
2339.653349
 30
0.0
 11
912.347891
 21
2339.653349
 31
0.0
  0
LINE
  5
3FD
330
3F1
100
AcDbEntity
  8
LC-002-002-----0
 62
     7
370
    25
100
AcDbLine
 10
912.347891
 20
2339.653349
 30
0.0
 11
913.692987
 21
2339.653392
 31
0.0
  0
LINE
  5
3FE
330
3F1
100
AcDbEntity
  8
LC-002-002-----0
 62
     7
370
    25
100
AcDbLine
 10
913.692987
 20
2339.653392
 30
0.0
 11
913.692987
 21
2339.653392
 31
0.0
  0
LINE
  5
3FF
330
3F1
100
AcDbEntity
  8
LC-002-002-----0
 62
     7
370
    25
100
AcDbLine
 10
913.692987
 20
2339.653392
 30
0.0
 11
915.38484
 21
2339.653409
 31
0.0
  0
LINE
  5
400
330
3F1
100
AcDbEntity
  8
LC-002-002-----0
 62
     7
370
    25
100
AcDbLine
 10
915.38484
 20
2339.653409
 30
0.0
 11
915.38484
 21
2339.653409
 31
0.0
  0
LINE
  5
401
330
3F1
100
AcDbEntity
  8
LC-002-002-----0
 62
     7
370
    25
100
AcDbLine
 10
915.38484
 20
2339.653409
 30
0.0
 11
917.388145
 21
2339.653712
 31
0.0
  0
LINE
  5
402
330
3F1
100
AcDbEntity
  8
LC-002-002-----0
 62
     7
370
    25
100
AcDbLine
 10
917.388145
 20
2339.653712
 30
0.0
 11
917.388145
 21
2339.653712
 31
0.0
  0
LINE
  5
403
330
3F1
100
AcDbEntity
  8
LC-002-002-----0
 62
     7
370
    25
100
AcDbLine
 10
917.388145
 20
2339.653712
 30
0.0
 11
919.646583
 21
2339.65356
 31
0.0
  0
LINE
  5
404
330
3F1
100
AcDbEntity
  8
LC-002-002-----0
 62
     7
370
    25
100
AcDbLine
 10
919.646583
 20
2339.65356
 30
0.0
 11
919.646583
 21
2339.65356
 31
0.0
  0
LINE
  5
405
330
3F1
100
AcDbEntity
  8
LC-002-002-----0
 62
     7
370
    25
100
AcDbLine
 10
919.646583
 20
2339.65356
 30
0.0
 11
922.069513
 21
2339.653525
 31
0.0
  0
LINE
  5
406
330
3F1
100
AcDbEntity
  8
LC-002-002-----0
 62
     7
370
    25
100
AcDbLine
 10
922.069513
 20
2339.653525
 30
0.0
 11
922.069513
 21
2339.653525
 31
0.0
  0
LINE
  5
407
330
3F1
100
AcDbEntity
  8
LC-002-002-----0
 62
     7
370
    25
100
AcDbLine
 10
922.069513
 20
2339.653525
 30
0.0
 11
924.551707
 21
2339.653527
 31
0.0
  0
LINE
  5
408
330
3F1
100
AcDbEntity
  8
LC-002-002-----0
 62
     7
370
    25
100
AcDbLine
 10
924.551707
 20
2339.653527
 30
0.0
 11
924.551707
 21
2339.653527
 31
0.0
  0
LINE
  5
409
330
3F1
100
AcDbEntity
  8
LC-002-002-----0
 62
     7
370
    25
100
AcDbLine
 10
924.551707
 20
2339.653527
 30
0.0
 11
926.96405
 21
2339.653577
 31
0.0
  0
LINE
  5
40A
330
3F1
100
AcDbEntity
  8
LC-002-002-----0
 62
     7
370
    25
100
AcDbLine
 10
926.96405
 20
2339.653577
 30
0.0
 11
926.96405
 21
2339.653577
 31
0.0
  0
LINE
  5
40B
330
3F1
100
AcDbEntity
  8
LC-002-002-----0
 62
     7
370
    25
100
AcDbLine
 10
926.96405
 20
2339.653577
 30
0.0
 11
929.203119
 21
2339.653713
 31
0.0
  0
LINE
  5
40C
330
3F1
100
AcDbEntity
  8
LC-002-002-----0
 62
     7
370
    25
100
AcDbLine
 10
929.203119
 20
2339.653713
 30
0.0
 11
929.203119
 21
2339.653713
 31
0.0
  0
LINE
  5
40D
330
3F1
100
AcDbEntity
  8
LC-002-002-----0
 62
     7
370
    25
100
AcDbLine
 10
929.203119
 20
2339.653713
 30
0.0
 11
931.184963
 21
2339.653414
 31
0.0
  0
LINE
  5
40E
330
3F1
100
AcDbEntity
  8
LC-002-002-----0
 62
     7
370
    25
100
AcDbLine
 10
931.184963
 20
2339.653414
 30
0.0
 11
931.184963
 21
2339.653414
 31
0.0
  0
LINE
  5
40F
330
3F1
100
AcDbEntity
  8
LC-002-002-----0
 62
     7
370
    25
100
AcDbLine
 10
931.184963
 20
2339.653414
 30
0.0
 11
932.859254
 21
2339.653401
 31
0.0
  0
LINE
  5
410
330
3F1
100
AcDbEntity
  8
LC-002-002-----0
 62
     7
370
    25
100
AcDbLine
 10
932.859254
 20
2339.653401
 30
0.0
 11
932.859254
 21
2339.653401
 31
0.0
  0
LINE
  5
411
330
3F1
100
AcDbEntity
  8
LC-002-002-----0
 62
     7
370
    25
100
AcDbLine
 10
932.859254
 20
2339.653401
 30
0.0
 11
934.194406
 21
2339.653347
 31
0.0
  0
LINE
  5
412
330
3F1
100
AcDbEntity
  8
LC-002-002-----0
 62
     7
370
    25
100
AcDbLine
 10
934.194406
 20
2339.653347
 30
0.0
 11
934.194406
 21
2339.653347
 31
0.0
  0
LINE
  5
413
330
3F1
100
AcDbEntity
  8
LC-002-002-----0
 62
     7
370
    25
100
AcDbLine
 10
934.194406
 20
2339.653347
 30
0.0
 11
935.190341
 21
2339.653477
 31
0.0
  0
LINE
  5
414
330
3F1
100
AcDbEntity
  8
LC-002-002-----0
 62
     7
370
    25
100
AcDbLine
 10
935.190341
 20
2339.653477
 30
0.0
 11
935.190341
 21
2339.653477
 31
0.0
  0
LINE
  5
415
330
3F1
100
AcDbEntity
  8
LC-002-002-----0
 62
     7
370
    25
100
AcDbLine
 10
935.190341
 20
2339.653477
 30
0.0
 11
935.896436
 21
2339.653885
 31
0.0
  0
LINE
  5
416
330
3F1
100
AcDbEntity
  8
LC-002-002-----0
 62
     7
370
    25
100
AcDbLine
 10
935.896436
 20
2339.653885
 30
0.0
 11
935.896436
 21
2339.653885
 31
0.0
  0
LINE
  5
417
330
3F1
100
AcDbEntity
  8
LC-002-002-----0
 62
     7
370
    25
100
AcDbLine
 10
935.896436
 20
2339.653885
 30
0.0
 11
936.324085
 21
2339.653446
 31
0.0
  0
LINE
  5
418
330
3F1
100
AcDbEntity
  8
LC-002-002-----0
 62
     7
370
    25
100
AcDbLine
 10
936.324085
 20
2339.653446
 30
0.0
 11
936.324085
 21
2339.653446
 31
0.0
  0
LINE
  5
419
330
3F1
100
AcDbEntity
  8
LC-002-002-----0
 62
     7
370
    25
100
AcDbLine
 10
936.324085
 20
2339.653446
 30
0.0
 11
936.47059
 21
2339.653407
 31
0.0
  0
ENDBLK
  5
3F3
330
3F1
100
AcDbEntity
  8
0
100
AcDbBlockEnd
  0
BLOCK
  5
424
330
423
100
AcDbEntity
  8
0
100
AcDbBlockBegin
  2
POLY7
 70
     0
 71
     0
 10
0.0
 20
0.0
 30
0.0
  3
POLY7
  1

  4
POLY7
  0
LINE
  5
426
330
423
100
AcDbEntity
  8
LC-002-002-----0
 62
     7
370
    25
100
AcDbLine
 10
992.782716
 20
2337.470673
 30
0.0
 11
992.782716
 21
2337.470673
 31
0.0
  0
LINE
  5
427
330
423
100
AcDbEntity
  8
LC-002-002-----0
 62
     7
370
    25
100
AcDbLine
 10
992.782716
 20
2337.470673
 30
0.0
 11
992.927796
 21
2336.184431
 31
0.0
  0
LINE
  5
428
330
423
100
AcDbEntity
  8
LC-002-002-----0
 62
     7
370
    25
100
AcDbLine
 10
992.927796
 20
2336.184431
 30
0.0
 11
992.927796
 21
2336.184431
 31
0.0
  0
LINE
  5
429
330
423
100
AcDbEntity
  8
LC-002-002-----0
 62
     7
370
    25
100
AcDbLine
 10
992.927796
 20
2336.184431
 30
0.0
 11
993.358069
 21
2334.954653
 31
0.0
  0
LINE
  5
42A
330
423
100
AcDbEntity
  8
LC-002-002-----0
 62
     7
370
    25
100
AcDbLine
 10
993.358069
 20
2334.954653
 30
0.0
 11
993.358069
 21
2334.954653
 31
0.0
  0
LINE
  5
42B
330
423
100
AcDbEntity
  8
LC-002-002-----0
 62
     7
370
    25
100
AcDbLine
 10
993.358069
 20
2334.954653
 30
0.0
 11
994.059187
 21
2333.835898
 31
0.0
  0
LINE
  5
42C
330
423
100
AcDbEntity
  8
LC-002-002-----0
 62
     7
370
    25
100
AcDbLine
 10
994.059187
 20
2333.835898
 30
0.0
 11
994.059187
 21
2333.835898
 31
0.0
  0
LINE
  5
42D
330
423
100
AcDbEntity
  8
LC-002-002-----0
 62
     7
370
    25
100
AcDbLine
 10
994.059187
 20
2333.835898
 30
0.0
 11
995.006435
 21
2332.881577
 31
0.0
  0
LINE
  5
42E
330
423
100
AcDbEntity
  8
LC-002-002-----0
 62
     7
370
    25
100
AcDbLine
 10
995.006435
 20
2332.881577
 30
0.0
 11
995.006435
 21
2332.881577
 31
0.0
  0
LINE
  5
42F
330
423
100
AcDbEntity
  8
LC-002-002-----0
 62
     7
370
    25
100
AcDbLine
 10
995.006435
 20
2332.881577
 30
0.0
 11
996.163196
 21
2332.141988
 31
0.0
  0
LINE
  5
430
330
423
100
AcDbEntity
  8
LC-002-002-----0
 62
     7
370
    25
100
AcDbLine
 10
996.163196
 20
2332.141988
 30
0.0
 11
996.163196
 21
2332.141988
 31
0.0
  0
LINE
  5
431
330
423
100
AcDbEntity
  8
LC-002-002-----0
 62
     7
370
    25
100
AcDbLine
 10
996.163196
 20
2332.141988
 30
0.0
 11
997.479667
 21
2331.661198
 31
0.0
  0
ENDBLK
  5
425
330
423
100
AcDbEntity
  8
0
100
AcDbBlockEnd
  0
BLOCK
  5
434
330
433
100
AcDbEntity
  8
0
100
AcDbBlockBegin
  2
POLY8
 70
     0
 71
     0
 10
0.0
 20
0.0
 30
0.0
  3
POLY8
  1

  4
POLY8
  0
LINE
  5
436
330
433
100
AcDbEntity
  8
LC-002-002-----0
 62
     7
370
    25
100
AcDbLine
 10
997.479667
 20
2331.661198
 30
0.0
 11
997.479667
 21
2331.661198
 31
0.0
  0
LINE
  5
437
330
433
100
AcDbEntity
  8
LC-002-002-----0
 62
     7
370
    25
100
AcDbLine
 10
997.479667
 20
2331.661198
 30
0.0
 11
998.530316
 21
2331.251449
 31
0.0
  0
LINE
  5
438
330
433
100
AcDbEntity
  8
LC-002-002-----0
 62
     7
370
    25
100
AcDbLine
 10
998.530316
 20
2331.251449
 30
0.0
 11
998.530316
 21
2331.251449
 31
0.0
  0
LINE
  5
439
330
433
100
AcDbEntity
  8
LC-002-002-----0
 62
     7
370
    25
100
AcDbLine
 10
998.530316
 20
2331.251449
 30
0.0
 11
999.418645
 21
2330.598132
 31
0.0
  0
LINE
  5
43A
330
433
100
AcDbEntity
  8
LC-002-002-----0
 62
     7
370
    25
100
AcDbLine
 10
999.418645
 20
2330.598132
 30
0.0
 11
999.418645
 21
2330.598132
 31
0.0
  0
LINE
  5
43B
330
433
100
AcDbEntity
  8
LC-002-002-----0
 62
     7
370
    25
100
AcDbLine
 10
999.418645
 20
2330.598132
 30
0.0
 11
1000.085438
 21
2329.760006
 31
0.0
  0
LINE
  5
43C
330
433
100
AcDbEntity
  8
LC-002-002-----0
 62
     7
370
    25
100
AcDbLine
 10
1000.085438
 20
2329.760006
 30
0.0
 11
1000.085438
 21
2329.760006
 31
0.0
  0
LINE
  5
43D
330
433
100
AcDbEntity
  8
LC-002-002-----0
 62
     7
370
    25
100
AcDbLine
 10
1000.085438
 20
2329.760006
 30
0.0
 11
1000.495521
 21
2328.802216
 31
0.0
  0
LINE
  5
43E
330
433
100
AcDbEntity
  8
LC-002-002-----0
 62
     7
370
    25
100
AcDbLine
 10
1000.495521
 20
2328.802216
 30
0.0
 11
1000.495521
 21
2328.802216
 31
0.0
  0
LINE
  5
43F
330
433
100
AcDbEntity
  8
LC-002-002-----0
 62
     7
370
    25
100
AcDbLine
 10
1000.495521
 20
2328.802216
 30
0.0
 11
1000.633307
 21
2327.788214
 31
0.0
  0
ENDBLK
  5
435
330
433
100
AcDbEntity
  8
0
100
AcDbBlockEnd
  0
BLOCK
  5
44A
330
449
100
AcDbEntity
  8
0
100
AcDbBlockBegin
  2
LCDIM9
 70
     0
 71
     0
 10
0.0
 20
0.0
 30
0.0
  3
LCDIM9
  1

  4
LCDIM9
  0
LINE
  5
44C
330
449
100
AcDbEntity
  8
LC-006-003-MTH-0
 62
     7
370
    25
100
AcDbLine
 10
846.669293
 20
2405.439488
 30
0.0
 11
846.669293
 21
2185.0
 31
0.0
  0
LINE
  5
44D
330
449
100
AcDbEntity
  8
LC-006-003-MTH-0
 62
     7
370
    25
100
AcDbLine
 10
1346.669293
 20
2405.439488
 30
0.0
 11
1346.669293
 21
2185.0
 31
0.0
  0
LINE
  5
44E
330
449
100
AcDbEntity
  8
LC-007-003-MTG-0
 62
     7
370
    25
100
AcDbLine
 10
846.669293
 20
2200.0
 30
0.0
 11
1346.669293
 21
2200.0
 31
0.0
  0
LINE
  5
44F
330
449
100
AcDbEntity
  8
LC-008-003-----0
 62
     7
370
    25
100
AcDbLine
 10
871.455415
 20
2203.263155
 30
0.0
 11
846.669293
 21
2200.0
 31
0.0
  0
LINE
  5
450
330
449
100
AcDbEntity
  8
LC-008-003-----0
 62
     7
370
    25
100
AcDbLine
 10
846.669293
 20
2200.0
 30
0.0
 11
871.455415
 21
2196.736845
 31
0.0
  0
LINE
  5
451
330
449
100
AcDbEntity
  8
LC-008-003-----0
 62
     7
370
    25
100
AcDbLine
 10
871.455415
 20
2196.736845
 30
0.0
 11
871.455415
 21
2203.263155
 31
0.0
  0
LINE
  5
452
330
449
100
AcDbEntity
  8
LC-008-003-----0
 62
     7
370
    25
100
AcDbLine
 10
871.511023
 20
2202.414735
 30
0.0
 11
853.169293
 21
2200.0
 31
0.0
  0
LINE
  5
453
330
449
100
AcDbEntity
  8
LC-008-003-----0
 62
     7
370
    25
100
AcDbLine
 10
853.169293
 20
2200.0
 30
0.0
 11
871.511023
 21
2197.585265
 31
0.0
  0
LINE
  5
454
330
449
100
AcDbEntity
  8
LC-008-003-----0
 62
     7
370
    25
100
AcDbLine
 10
871.566631
 20
2201.566314
 30
0.0
 11
859.669293
 21
2200.0
 31
0.0
  0
LINE
  5
455
330
449
100
AcDbEntity
  8
LC-008-003-----0
 62
     7
370
    25
100
AcDbLine
 10
859.669293
 20
2200.0
 30
0.0
 11
871.566631
 21
2198.433686
 31
0.0
  0
LINE
  5
456
330
449
100
AcDbEntity
  8
LC-008-003-----0
 62
     7
370
    25
100
AcDbLine
 10
871.62224
 20
2200.717894
 30
0.0
 11
866.169293
 21
2200.0
 31
0.0
  0
LINE
  5
457
330
449
100
AcDbEntity
  8
LC-008-003-----0
 62
     7
370
    25
100
AcDbLine
 10
866.169293
 20
2200.0
 30
0.0
 11
871.62224
 21
2199.282106
 31
0.0
  0
LINE
  5
458
330
449
100
AcDbEntity
  8
LC-008-003-----0
 62
     7
370
    25
100
AcDbLine
 10
1321.883171
 20
2196.736845
 30
0.0
 11
1346.669293
 21
2200.0
 31
0.0
  0
LINE
  5
459
330
449
100
AcDbEntity
  8
LC-008-003-----0
 62
     7
370
    25
100
AcDbLine
 10
1346.669293
 20
2200.0
 30
0.0
 11
1321.883171
 21
2203.263155
 31
0.0
  0
LINE
  5
45A
330
449
100
AcDbEntity
  8
LC-008-003-----0
 62
     7
370
    25
100
AcDbLine
 10
1321.883171
 20
2203.263155
 30
0.0
 11
1321.883171
 21
2196.736845
 31
0.0
  0
LINE
  5
45B
330
449
100
AcDbEntity
  8
LC-008-003-----0
 62
     7
370
    25
100
AcDbLine
 10
1321.827562
 20
2197.585265
 30
0.0
 11
1340.169293
 21
2200.0
 31
0.0
  0
LINE
  5
45C
330
449
100
AcDbEntity
  8
LC-008-003-----0
 62
     7
370
    25
100
AcDbLine
 10
1340.169293
 20
2200.0
 30
0.0
 11
1321.827562
 21
2202.414735
 31
0.0
  0
LINE
  5
45D
330
449
100
AcDbEntity
  8
LC-008-003-----0
 62
     7
370
    25
100
AcDbLine
 10
1321.771954
 20
2198.433686
 30
0.0
 11
1333.669293
 21
2200.0
 31
0.0
  0
LINE
  5
45E
330
449
100
AcDbEntity
  8
LC-008-003-----0
 62
     7
370
    25
100
AcDbLine
 10
1333.669293
 20
2200.0
 30
0.0
 11
1321.771954
 21
2201.566314
 31
0.0
  0
LINE
  5
45F
330
449
100
AcDbEntity
  8
LC-008-003-----0
 62
     7
370
    25
100
AcDbLine
 10
1321.716346
 20
2199.282106
 30
0.0
 11
1327.169292
 21
2200.0
 31
0.0
  0
LINE
  5
460
330
449
100
AcDbEntity
  8
LC-008-003-----0
 62
     7
370
    25
100
AcDbLine
 10
1327.169292
 20
2200.0
 30
0.0
 11
1321.716346
 21
2200.717894
 31
0.0
  0
TEXT
  5
461
330
449
100
AcDbEntity
  8
LC-008-003-----0
 62
     7
370
    25
100
AcDbText
 10
1163.233595
 20
2215.0
 30
0.0
 40
25.0
  1
500
 41
0.7
  7
LCTX0-400-0-0pDIN-Schrift
 72
     1
 11
1188.233595
 21
2215.0
 31
0.0
100
AcDbText
  0
ENDBLK
  5
44B
330
449
100
AcDbEntity
  8
0
100
AcDbBlockEnd
  0
BLOCK
  5
464
330
463
100
AcDbEntity
  8
0
100
AcDbBlockBegin
  2
*X329
 70
     1
 71
     0
 10
0.0
 20
0.0
 30
0.0
  3
*X329
  1

  4
*X3
  0
LINE
  5
466
330
463
100
AcDbEntity
  8
LC-015-005-----0
 62
     7
370
    25
100
AcDbLine
 10
848.437965
 20
2404.072884
 30
0.0
 11
865.669293
 21
2421.304211
 31
0.0
  0
LINE
  5
467
330
463
100
AcDbEntity
  8
LC-015-005-----0
 62
     7
370
    25
100
AcDbLine
 10
846.669293
 20
2430.588483
 30
0.0
 11
865.669293
 21
2449.588483
 31
0.0
  0
LINE
  5
468
330
463
100
AcDbEntity
  8
LC-015-005-----0
 62
     7
370
    25
100
AcDbLine
 10
846.669293
 20
2458.872754
 30
0.0
 11
865.669293
 21
2477.872754
 31
0.0
  0
LINE
  5
469
330
463
100
AcDbEntity
  8
LC-015-005-----0
 62
     7
370
    25
100
AcDbLine
 10
846.669293
 20
2487.157025
 30
0.0
 11
856.443163
 21
2496.930896
 31
0.0
  0
ENDBLK
  5
465
330
463
100
AcDbEntity
  8
0
100
AcDbBlockEnd
  0
BLOCK
  5
46C
330
46B
100
AcDbEntity
  8
0
100
AcDbBlockBegin
  2
LCDIM10
 70
     0
 71
     0
 10
0.0
 20
0.0
 30
0.0
  3
LCDIM10
  1

  4
LCDIM10
  0
LINE
  5
46E
330
46B
100
AcDbEntity
  8
LC-006-003-MTH-0
 62
     7
370
    25
100
AcDbLine
 10
1817.213329
 20
1427.96075
 30
0.0
 11
1965.0
 21
1427.96075
 31
0.0
  0
LINE
  5
46F
330
46B
100
AcDbEntity
  8
LC-006-003-MTH-0
 62
     7
370
    25
100
AcDbLine
 10
1817.213329
 20
1815.96075
 30
0.0
 11
1965.0
 21
1815.96075
 31
0.0
  0
LINE
  5
470
330
46B
100
AcDbEntity
  8
LC-007-003-MTG-0
 62
     7
370
    25
100
AcDbLine
 10
1950.0
 20
1427.96075
 30
0.0
 11
1950.0
 21
1815.96075
 31
0.0
  0
LINE
  5
471
330
46B
100
AcDbEntity
  8
LC-008-003-----0
 62
     7
370
    25
100
AcDbLine
 10
1946.736845
 20
1452.746872
 30
0.0
 11
1950.0
 21
1427.96075
 31
0.0
  0
LINE
  5
472
330
46B
100
AcDbEntity
  8
LC-008-003-----0
 62
     7
370
    25
100
AcDbLine
 10
1950.0
 20
1427.96075
 30
0.0
 11
1953.263155
 21
1452.746872
 31
0.0
  0
LINE
  5
473
330
46B
100
AcDbEntity
  8
LC-008-003-----0
 62
     7
370
    25
100
AcDbLine
 10
1953.263155
 20
1452.746872
 30
0.0
 11
1946.736845
 21
1452.746872
 31
0.0
  0
LINE
  5
474
330
46B
100
AcDbEntity
  8
LC-008-003-----0
 62
     7
370
    25
100
AcDbLine
 10
1947.585265
 20
1452.802481
 30
0.0
 11
1950.0
 21
1434.46075
 31
0.0
  0
LINE
  5
475
330
46B
100
AcDbEntity
  8
LC-008-003-----0
 62
     7
370
    25
100
AcDbLine
 10
1950.0
 20
1434.46075
 30
0.0
 11
1952.414735
 21
1452.802481
 31
0.0
  0
LINE
  5
476
330
46B
100
AcDbEntity
  8
LC-008-003-----0
 62
     7
370
    25
100
AcDbLine
 10
1948.433686
 20
1452.858089
 30
0.0
 11
1950.0
 21
1440.96075
 31
0.0
  0
LINE
  5
477
330
46B
100
AcDbEntity
  8
LC-008-003-----0
 62
     7
370
    25
100
AcDbLine
 10
1950.0
 20
1440.96075
 30
0.0
 11
1951.566314
 21
1452.858089
 31
0.0
  0
LINE
  5
478
330
46B
100
AcDbEntity
  8
LC-008-003-----0
 62
     7
370
    25
100
AcDbLine
 10
1949.282106
 20
1452.913697
 30
0.0
 11
1950.0
 21
1447.46075
 31
0.0
  0
LINE
  5
479
330
46B
100
AcDbEntity
  8
LC-008-003-----0
 62
     7
370
    25
100
AcDbLine
 10
1950.0
 20
1447.46075
 30
0.0
 11
1950.717894
 21
1452.913697
 31
0.0
  0
LINE
  5
47A
330
46B
100
AcDbEntity
  8
LC-008-003-----0
 62
     7
370
    25
100
AcDbLine
 10
1953.263155
 20
1791.174628
 30
0.0
 11
1950.0
 21
1815.96075
 31
0.0
  0
LINE
  5
47B
330
46B
100
AcDbEntity
  8
LC-008-003-----0
 62
     7
370
    25
100
AcDbLine
 10
1950.0
 20
1815.96075
 30
0.0
 11
1946.736845
 21
1791.174628
 31
0.0
  0
LINE
  5
47C
330
46B
100
AcDbEntity
  8
LC-008-003-----0
 62
     7
370
    25
100
AcDbLine
 10
1946.736845
 20
1791.174628
 30
0.0
 11
1953.263155
 21
1791.174628
 31
0.0
  0
LINE
  5
47D
330
46B
100
AcDbEntity
  8
LC-008-003-----0
 62
     7
370
    25
100
AcDbLine
 10
1952.414735
 20
1791.11902
 30
0.0
 11
1950.0
 21
1809.46075
 31
0.0
  0
LINE
  5
47E
330
46B
100
AcDbEntity
  8
LC-008-003-----0
 62
     7
370
    25
100
AcDbLine
 10
1950.0
 20
1809.46075
 30
0.0
 11
1947.585265
 21
1791.11902
 31
0.0
  0
LINE
  5
47F
330
46B
100
AcDbEntity
  8
LC-008-003-----0
 62
     7
370
    25
100
AcDbLine
 10
1951.566314
 20
1791.063411
 30
0.0
 11
1950.0
 21
1802.96075
 31
0.0
  0
LINE
  5
480
330
46B
100
AcDbEntity
  8
LC-008-003-----0
 62
     7
370
    25
100
AcDbLine
 10
1950.0
 20
1802.96075
 30
0.0
 11
1948.433686
 21
1791.063411
 31
0.0
  0
LINE
  5
481
330
46B
100
AcDbEntity
  8
LC-008-003-----0
 62
     7
370
    25
100
AcDbLine
 10
1950.717894
 20
1791.007803
 30
0.0
 11
1950.0
 21
1796.46075
 31
0.0
  0
LINE
  5
482
330
46B
100
AcDbEntity
  8
LC-008-003-----0
 62
     7
370
    25
100
AcDbLine
 10
1950.0
 20
1796.46075
 30
0.0
 11
1949.282106
 21
1791.007803
 31
0.0
  0
TEXT
  5
483
330
46B
100
AcDbEntity
  8
LC-008-003-----0
 62
     7
370
    25
100
AcDbText
 10
1935.0
 20
1601.997353
 30
0.0
 40
25.0
  1
388
 50
90.0
 41
0.7
  7
LCTX0-400-0-0pDIN-Schrift
 72
     1
 11
1935.0
 21
1626.997353
 31
0.0
100
AcDbText
  0
ENDBLK
  5
46D
330
46B
100
AcDbEntity
  8
0
100
AcDbBlockEnd
  0
BLOCK
  5
4DF
330
4DE
100
AcDbEntity
  8
0
100
AcDbBlockBegin
  2
POLY9
 70
     0
 71
     0
 10
0.0
 20
0.0
 30
0.0
  3
POLY9
  1

  4
POLY9
  0
LINE
  5
4E1
330
4DE
100
AcDbEntity
  8
LC-002-002-----0
 62
     7
370
    25
100
AcDbLine
 10
1569.285375
 20
1824.324904
 30
0.0
 11
1569.260359
 21
1824.299863
 31
0.0
  0
ENDBLK
  5
4E0
330
4DE
100
AcDbEntity
  8
0
100
AcDbBlockEnd
  0
BLOCK
  5
4F3
330
4F2
100
AcDbEntity
  8
0
100
AcDbBlockBegin
  2
POLY10
 70
     0
 71
     0
 10
0.0
 20
0.0
 30
0.0
  3
POLY10
  1

  4
POLY10
  0
LINE
  5
4F5
330
4F2
100
AcDbEntity
  8
LC-002-002-----0
 62
     7
370
    25
100
AcDbLine
 10
1589.260359
 20
1693.96075
 30
0.0
 11
1589.260359
 21
1693.96075
 31
0.0
  0
LINE
  5
4F6
330
4F2
100
AcDbEntity
  8
LC-002-002-----0
 62
     7
370
    25
100
AcDbLine
 10
1589.260359
 20
1693.96075
 30
0.0
 11
1589.260393
 21
1694.475538
 31
0.0
  0
LINE
  5
4F7
330
4F2
100
AcDbEntity
  8
LC-002-002-----0
 62
     7
370
    25
100
AcDbLine
 10
1589.260393
 20
1694.475538
 30
0.0
 11
1589.260393
 21
1694.475538
 31
0.0
  0
LINE
  5
4F8
330
4F2
100
AcDbEntity
  8
LC-002-002-----0
 62
     7
370
    25
100
AcDbLine
 10
1589.260393
 20
1694.475538
 30
0.0
 11
1589.260356
 21
1694.956908
 31
0.0
  0
LINE
  5
4F9
330
4F2
100
AcDbEntity
  8
LC-002-002-----0
 62
     7
370
    25
100
AcDbLine
 10
1589.260356
 20
1694.956908
 30
0.0
 11
1589.260356
 21
1694.956908
 31
0.0
  0
LINE
  5
4FA
330
4F2
100
AcDbEntity
  8
LC-002-002-----0
 62
     7
370
    25
100
AcDbLine
 10
1589.260356
 20
1694.956908
 30
0.0
 11
1589.260363
 21
1695.370479
 31
0.0
  0
LINE
  5
4FB
330
4F2
100
AcDbEntity
  8
LC-002-002-----0
 62
     7
370
    25
100
AcDbLine
 10
1589.260363
 20
1695.370479
 30
0.0
 11
1589.260363
 21
1695.370479
 31
0.0
  0
LINE
  5
4FC
330
4F2
100
AcDbEntity
  8
LC-002-002-----0
 62
     7
370
    25
100
AcDbLine
 10
1589.260363
 20
1695.370479
 30
0.0
 11
1589.260337
 21
1695.689415
 31
0.0
  0
LINE
  5
4FD
330
4F2
100
AcDbEntity
  8
LC-002-002-----0
 62
     7
370
    25
100
AcDbLine
 10
1589.260337
 20
1695.689415
 30
0.0
 11
1589.260337
 21
1695.689415
 31
0.0
  0
LINE
  5
4FE
330
4F2
100
AcDbEntity
  8
LC-002-002-----0
 62
     7
370
    25
100
AcDbLine
 10
1589.260337
 20
1695.689415
 30
0.0
 11
1589.260386
 21
1695.891371
 31
0.0
  0
LINE
  5
4FF
330
4F2
100
AcDbEntity
  8
LC-002-002-----0
 62
     7
370
    25
100
AcDbLine
 10
1589.260386
 20
1695.891371
 30
0.0
 11
1589.260386
 21
1695.891371
 31
0.0
  0
LINE
  5
500
330
4F2
100
AcDbEntity
  8
LC-002-002-----0
 62
     7
370
    25
100
AcDbLine
 10
1589.260386
 20
1695.891371
 30
0.0
 11
1589.260368
 21
1695.96075
 31
0.0
  0
ENDBLK
  5
4F4
330
4F2
100
AcDbEntity
  8
0
100
AcDbBlockEnd
  0
BLOCK
  5
520
330
51F
100
AcDbEntity
  8
0
100
AcDbBlockBegin
  2
POLY11
 70
     0
 71
     0
 10
0.0
 20
0.0
 30
0.0
  3
POLY11
  1

  4
POLY11
  0
LINE
  5
522
330
51F
100
AcDbEntity
  8
LC-002-002-----0
 62
     7
370
    25
100
AcDbLine
 10
1812.028167
 20
1608.668209
 30
0.0
 11
1812.028167
 21
1608.668209
 31
0.0
  0
LINE
  5
523
330
51F
100
AcDbEntity
  8
LC-002-002-----0
 62
     7
370
    25
100
AcDbLine
 10
1812.028167
 20
1608.668209
 30
0.0
 11
1812.169181
 21
1608.664007
 31
0.0
  0
LINE
  5
524
330
51F
100
AcDbEntity
  8
LC-002-002-----0
 62
     7
370
    25
100
AcDbLine
 10
1812.169181
 20
1608.664007
 30
0.0
 11
1812.169181
 21
1608.664007
 31
0.0
  0
LINE
  5
525
330
51F
100
AcDbEntity
  8
LC-002-002-----0
 62
     7
370
    25
100
AcDbLine
 10
1812.169181
 20
1608.664007
 30
0.0
 11
1812.308239
 21
1608.700669
 31
0.0
  0
LINE
  5
526
330
51F
100
AcDbEntity
  8
LC-002-002-----0
 62
     7
370
    25
100
AcDbLine
 10
1812.308239
 20
1608.700669
 30
0.0
 11
1812.308239
 21
1608.700669
 31
0.0
  0
LINE
  5
527
330
51F
100
AcDbEntity
  8
LC-002-002-----0
 62
     7
370
    25
100
AcDbLine
 10
1812.308239
 20
1608.700669
 30
0.0
 11
1812.432304
 21
1608.776436
 31
0.0
  0
LINE
  5
528
330
51F
100
AcDbEntity
  8
LC-002-002-----0
 62
     7
370
    25
100
AcDbLine
 10
1812.432304
 20
1608.776436
 30
0.0
 11
1812.432304
 21
1608.776436
 31
0.0
  0
LINE
  5
529
330
51F
100
AcDbEntity
  8
LC-002-002-----0
 62
     7
370
    25
100
AcDbLine
 10
1812.432304
 20
1608.776436
 30
0.0
 11
1812.529824
 21
1608.885257
 31
0.0
  0
LINE
  5
52A
330
51F
100
AcDbEntity
  8
LC-002-002-----0
 62
     7
370
    25
100
AcDbLine
 10
1812.529824
 20
1608.885257
 30
0.0
 11
1812.529824
 21
1608.885257
 31
0.0
  0
LINE
  5
52B
330
51F
100
AcDbEntity
  8
LC-002-002-----0
 62
     7
370
    25
100
AcDbLine
 10
1812.529824
 20
1608.885257
 30
0.0
 11
1812.591523
 21
1609.017482
 31
0.0
  0
LINE
  5
52C
330
51F
100
AcDbEntity
  8
LC-002-002-----0
 62
     7
370
    25
100
AcDbLine
 10
1812.591523
 20
1609.017482
 30
0.0
 11
1812.591523
 21
1609.017482
 31
0.0
  0
LINE
  5
52D
330
51F
100
AcDbEntity
  8
LC-002-002-----0
 62
     7
370
    25
100
AcDbLine
 10
1812.591523
 20
1609.017482
 30
0.0
 11
1812.612588
 21
1609.160747
 31
0.0
  0
ENDBLK
  5
521
330
51F
100
AcDbEntity
  8
0
100
AcDbBlockEnd
  0
BLOCK
  5
530
330
52F
100
AcDbEntity
  8
0
100
AcDbBlockBegin
  2
POLY12
 70
     0
 71
     0
 10
0.0
 20
0.0
 30
0.0
  3
POLY12
  1

  4
POLY12
  0
LINE
  5
532
330
52F
100
AcDbEntity
  8
LC-002-002-----0
 62
     7
370
    25
100
AcDbLine
 10
1812.612588
 20
1634.760749
 30
0.0
 11
1812.612588
 21
1634.760749
 31
0.0
  0
LINE
  5
533
330
52F
100
AcDbEntity
  8
LC-002-002-----0
 62
     7
370
    25
100
AcDbLine
 10
1812.612588
 20
1634.760749
 30
0.0
 11
1812.545601
 21
1635.010749
 31
0.0
  0
LINE
  5
534
330
52F
100
AcDbEntity
  8
LC-002-002-----0
 62
     7
370
    25
100
AcDbLine
 10
1812.545601
 20
1635.010749
 30
0.0
 11
1812.545601
 21
1635.010749
 31
0.0
  0
LINE
  5
535
330
52F
100
AcDbEntity
  8
LC-002-002-----0
 62
     7
370
    25
100
AcDbLine
 10
1812.545601
 20
1635.010749
 30
0.0
 11
1812.362588
 21
1635.193762
 31
0.0
  0
LINE
  5
536
330
52F
100
AcDbEntity
  8
LC-002-002-----0
 62
     7
370
    25
100
AcDbLine
 10
1812.362588
 20
1635.193762
 30
0.0
 11
1812.362588
 21
1635.193762
 31
0.0
  0
LINE
  5
537
330
52F
100
AcDbEntity
  8
LC-002-002-----0
 62
     7
370
    25
100
AcDbLine
 10
1812.362588
 20
1635.193762
 30
0.0
 11
1812.112588
 21
1635.260749
 31
0.0
  0
LINE
  5
538
330
52F
100
AcDbEntity
  8
LC-002-002-----0
 62
     7
370
    25
100
AcDbLine
 10
1812.112588
 20
1635.260749
 30
0.0
 11
1812.112588
 21
1635.260749
 31
0.0
  0
LINE
  5
539
330
52F
100
AcDbEntity
  8
LC-002-002-----0
 62
     7
370
    25
100
AcDbLine
 10
1812.112588
 20
1635.260749
 30
0.0
 11
1812.028167
 21
1635.253288
 31
0.0
  0
ENDBLK
  5
531
330
52F
100
AcDbEntity
  8
0
100
AcDbBlockEnd
  0
BLOCK
  5
552
330
551
100
AcDbEntity
  8
0
100
AcDbBlockBegin
  2
LCDIM11
 70
     0
 71
     0
 10
0.0
 20
0.0
 30
0.0
  3
LCDIM11
  1

  4
LCDIM11
  0
LINE
  5
554
330
551
100
AcDbEntity
  8
LC-006-003-MTH-0
 62
     7
370
    25
100
AcDbLine
 10
1561.555566
 20
1676.96075
 30
0.0
 11
1561.555566
 21
1335.0
 31
0.0
  0
LINE
  5
555
330
551
100
AcDbEntity
  8
LC-006-003-MTH-0
 62
     7
370
    25
100
AcDbLine
 10
1861.862588
 20
1376.960754
 30
0.0
 11
1861.862588
 21
1335.0
 31
0.0
  0
LINE
  5
556
330
551
100
AcDbEntity
  8
LC-007-003-MTG-0
 62
     7
370
    25
100
AcDbLine
 10
1561.555566
 20
1350.0
 30
0.0
 11
1861.862588
 21
1350.0
 31
0.0
  0
LINE
  5
557
330
551
100
AcDbEntity
  8
LC-008-003-----0
 62
     7
370
    25
100
AcDbLine
 10
1586.341688
 20
1353.263155
 30
0.0
 11
1561.555566
 21
1350.0
 31
0.0
  0
LINE
  5
558
330
551
100
AcDbEntity
  8
LC-008-003-----0
 62
     7
370
    25
100
AcDbLine
 10
1561.555566
 20
1350.0
 30
0.0
 11
1586.341688
 21
1346.736845
 31
0.0
  0
LINE
  5
559
330
551
100
AcDbEntity
  8
LC-008-003-----0
 62
     7
370
    25
100
AcDbLine
 10
1586.341688
 20
1346.736845
 30
0.0
 11
1586.341688
 21
1353.263155
 31
0.0
  0
LINE
  5
55A
330
551
100
AcDbEntity
  8
LC-008-003-----0
 62
     7
370
    25
100
AcDbLine
 10
1586.397296
 20
1352.414735
 30
0.0
 11
1568.055566
 21
1350.0
 31
0.0
  0
LINE
  5
55B
330
551
100
AcDbEntity
  8
LC-008-003-----0
 62
     7
370
    25
100
AcDbLine
 10
1568.055566
 20
1350.0
 30
0.0
 11
1586.397296
 21
1347.585265
 31
0.0
  0
LINE
  5
55C
330
551
100
AcDbEntity
  8
LC-008-003-----0
 62
     7
370
    25
100
AcDbLine
 10
1586.452905
 20
1351.566314
 30
0.0
 11
1574.555566
 21
1350.0
 31
0.0
  0
LINE
  5
55D
330
551
100
AcDbEntity
  8
LC-008-003-----0
 62
     7
370
    25
100
AcDbLine
 10
1574.555566
 20
1350.0
 30
0.0
 11
1586.452905
 21
1348.433686
 31
0.0
  0
LINE
  5
55E
330
551
100
AcDbEntity
  8
LC-008-003-----0
 62
     7
370
    25
100
AcDbLine
 10
1586.508513
 20
1350.717894
 30
0.0
 11
1581.055566
 21
1350.0
 31
0.0
  0
LINE
  5
55F
330
551
100
AcDbEntity
  8
LC-008-003-----0
 62
     7
370
    25
100
AcDbLine
 10
1581.055566
 20
1350.0
 30
0.0
 11
1586.508513
 21
1349.282106
 31
0.0
  0
LINE
  5
560
330
551
100
AcDbEntity
  8
LC-008-003-----0
 62
     7
370
    25
100
AcDbLine
 10
1837.076466
 20
1346.736845
 30
0.0
 11
1861.862588
 21
1350.0
 31
0.0
  0
LINE
  5
561
330
551
100
AcDbEntity
  8
LC-008-003-----0
 62
     7
370
    25
100
AcDbLine
 10
1861.862588
 20
1350.0
 30
0.0
 11
1837.076466
 21
1353.263155
 31
0.0
  0
LINE
  5
562
330
551
100
AcDbEntity
  8
LC-008-003-----0
 62
     7
370
    25
100
AcDbLine
 10
1837.076466
 20
1353.263155
 30
0.0
 11
1837.076466
 21
1346.736845
 31
0.0
  0
LINE
  5
563
330
551
100
AcDbEntity
  8
LC-008-003-----0
 62
     7
370
    25
100
AcDbLine
 10
1837.020858
 20
1347.585265
 30
0.0
 11
1855.362588
 21
1350.0
 31
0.0
  0
LINE
  5
564
330
551
100
AcDbEntity
  8
LC-008-003-----0
 62
     7
370
    25
100
AcDbLine
 10
1855.362588
 20
1350.0
 30
0.0
 11
1837.020858
 21
1352.414735
 31
0.0
  0
LINE
  5
565
330
551
100
AcDbEntity
  8
LC-008-003-----0
 62
     7
370
    25
100
AcDbLine
 10
1836.965249
 20
1348.433686
 30
0.0
 11
1848.862588
 21
1350.0
 31
0.0
  0
LINE
  5
566
330
551
100
AcDbEntity
  8
LC-008-003-----0
 62
     7
370
    25
100
AcDbLine
 10
1848.862588
 20
1350.0
 30
0.0
 11
1836.965249
 21
1351.566314
 31
0.0
  0
LINE
  5
567
330
551
100
AcDbEntity
  8
LC-008-003-----0
 62
     7
370
    25
100
AcDbLine
 10
1836.909641
 20
1349.282106
 30
0.0
 11
1842.362588
 21
1350.0
 31
0.0
  0
LINE
  5
568
330
551
100
AcDbEntity
  8
LC-008-003-----0
 62
     7
370
    25
100
AcDbLine
 10
1842.362588
 20
1350.0
 30
0.0
 11
1836.909641
 21
1350.717894
 31
0.0
  0
TEXT
  5
569
330
551
100
AcDbEntity
  8
LC-008-003-----0
 62
     7
370
    25
100
AcDbText
 10
1679.115827
 20
1365.0
 30
0.0
 40
25.0
  1
300
 41
0.7
  7
LCTX0-400-0-0pDIN-Schrift
 72
     1
 11
1704.115827
 21
1365.0
 31
0.0
100
AcDbText
  0
ENDBLK
  5
553
330
551
100
AcDbEntity
  8
0
100
AcDbBlockEnd
  0
BLOCK
  5
56E
330
56D
100
AcDbEntity
  8
0
100
AcDbBlockBegin
  2
LCDIM12
 70
     0
 71
     0
 10
0.0
 20
0.0
 30
0.0
  3
LCDIM12
  1

  4
LCDIM12
  0
LINE
  5
570
330
56D
100
AcDbEntity
  8
LC-006-003-MTH-0
 62
     7
370
    25
100
AcDbLine
 10
474.490842
 20
816.693289
 30
0.0
 11
474.490842
 21
735.0
 31
0.0
  0
LINE
  5
571
330
56D
100
AcDbEntity
  8
LC-006-003-MTH-0
 62
     7
370
    25
100
AcDbLine
 10
894.490842
 20
816.693289
 30
0.0
 11
894.490842
 21
735.0
 31
0.0
  0
LINE
  5
572
330
56D
100
AcDbEntity
  8
LC-007-003-MTG-0
 62
     7
370
    25
100
AcDbLine
 10
474.490842
 20
750.0
 30
0.0
 11
894.490842
 21
750.0
 31
0.0
  0
LINE
  5
573
330
56D
100
AcDbEntity
  8
LC-008-003-----0
 62
     7
370
    25
100
AcDbLine
 10
499.276964
 20
753.263155
 30
0.0
 11
474.490842
 21
750.0
 31
0.0
  0
LINE
  5
574
330
56D
100
AcDbEntity
  8
LC-008-003-----0
 62
     7
370
    25
100
AcDbLine
 10
474.490842
 20
750.0
 30
0.0
 11
499.276964
 21
746.736845
 31
0.0
  0
LINE
  5
575
330
56D
100
AcDbEntity
  8
LC-008-003-----0
 62
     7
370
    25
100
AcDbLine
 10
499.276964
 20
746.736845
 30
0.0
 11
499.276964
 21
753.263155
 31
0.0
  0
LINE
  5
576
330
56D
100
AcDbEntity
  8
LC-008-003-----0
 62
     7
370
    25
100
AcDbLine
 10
499.332572
 20
752.414735
 30
0.0
 11
480.990842
 21
750.0
 31
0.0
  0
LINE
  5
577
330
56D
100
AcDbEntity
  8
LC-008-003-----0
 62
     7
370
    25
100
AcDbLine
 10
480.990842
 20
750.0
 30
0.0
 11
499.332572
 21
747.585265
 31
0.0
  0
LINE
  5
578
330
56D
100
AcDbEntity
  8
LC-008-003-----0
 62
     7
370
    25
100
AcDbLine
 10
499.38818
 20
751.566314
 30
0.0
 11
487.490842
 21
750.0
 31
0.0
  0
LINE
  5
579
330
56D
100
AcDbEntity
  8
LC-008-003-----0
 62
     7
370
    25
100
AcDbLine
 10
487.490842
 20
750.0
 30
0.0
 11
499.38818
 21
748.433686
 31
0.0
  0
LINE
  5
57A
330
56D
100
AcDbEntity
  8
LC-008-003-----0
 62
     7
370
    25
100
AcDbLine
 10
499.443789
 20
750.717894
 30
0.0
 11
493.990842
 21
750.0
 31
0.0
  0
LINE
  5
57B
330
56D
100
AcDbEntity
  8
LC-008-003-----0
 62
     7
370
    25
100
AcDbLine
 10
493.990842
 20
750.0
 30
0.0
 11
499.443789
 21
749.282106
 31
0.0
  0
LINE
  5
57C
330
56D
100
AcDbEntity
  8
LC-008-003-----0
 62
     7
370
    25
100
AcDbLine
 10
869.70472
 20
746.736845
 30
0.0
 11
894.490842
 21
750.0
 31
0.0
  0
LINE
  5
57D
330
56D
100
AcDbEntity
  8
LC-008-003-----0
 62
     7
370
    25
100
AcDbLine
 10
894.490842
 20
750.0
 30
0.0
 11
869.70472
 21
753.263155
 31
0.0
  0
LINE
  5
57E
330
56D
100
AcDbEntity
  8
LC-008-003-----0
 62
     7
370
    25
100
AcDbLine
 10
869.70472
 20
753.263155
 30
0.0
 11
869.70472
 21
746.736845
 31
0.0
  0
LINE
  5
57F
330
56D
100
AcDbEntity
  8
LC-008-003-----0
 62
     7
370
    25
100
AcDbLine
 10
869.649111
 20
747.585265
 30
0.0
 11
887.990842
 21
750.0
 31
0.0
  0
LINE
  5
580
330
56D
100
AcDbEntity
  8
LC-008-003-----0
 62
     7
370
    25
100
AcDbLine
 10
887.990842
 20
750.0
 30
0.0
 11
869.649111
 21
752.414735
 31
0.0
  0
LINE
  5
581
330
56D
100
AcDbEntity
  8
LC-008-003-----0
 62
     7
370
    25
100
AcDbLine
 10
869.593503
 20
748.433686
 30
0.0
 11
881.490841
 21
750.0
 31
0.0
  0
LINE
  5
582
330
56D
100
AcDbEntity
  8
LC-008-003-----0
 62
     7
370
    25
100
AcDbLine
 10
881.490841
 20
750.0
 30
0.0
 11
869.593503
 21
751.566314
 31
0.0
  0
LINE
  5
583
330
56D
100
AcDbEntity
  8
LC-008-003-----0
 62
     7
370
    25
100
AcDbLine
 10
869.537895
 20
749.282106
 30
0.0
 11
874.990841
 21
750.0
 31
0.0
  0
LINE
  5
584
330
56D
100
AcDbEntity
  8
LC-008-003-----0
 62
     7
370
    25
100
AcDbLine
 10
874.990841
 20
750.0
 30
0.0
 11
869.537895
 21
750.717894
 31
0.0
  0
TEXT
  5
585
330
56D
100
AcDbEntity
  8
LC-008-003-----0
 62
     7
370
    25
100
AcDbText
 10
679.72152
 20
765.0
 30
0.0
 40
25.0
  1
840
 41
0.7
  7
LCTX0-400-0-0pDIN-Schrift
 72
     1
 11
704.72152
 21
765.0
 31
0.0
100
AcDbText
  0
ENDBLK
  5
56F
330
56D
100
AcDbEntity
  8
0
100
AcDbBlockEnd
  0
BLOCK
  5
588
330
587
100
AcDbEntity
  8
0
100
AcDbBlockBegin
  2
LCDIM13
 70
     0
 71
     0
 10
0.0
 20
0.0
 30
0.0
  3
LCDIM13
  1

  4
LCDIM13
  0
LINE
  5
58A
330
587
100
AcDbEntity
  8
LC-006-003-MTH-0
 62
     7
370
    25
100
AcDbLine
 10
653.990842
 20
1082.806015
 30
0.0
 11
653.990842
 21
1115.0
 31
0.0
  0
LINE
  5
58B
330
587
100
AcDbEntity
  8
LC-006-003-MTH-0
 62
     7
370
    25
100
AcDbLine
 10
903.990842
 20
1082.806015
 30
0.0
 11
903.990842
 21
1115.0
 31
0.0
  0
LINE
  5
58C
330
587
100
AcDbEntity
  8
LC-007-003-MTG-0
 62
     7
370
    25
100
AcDbLine
 10
653.990842
 20
1100.0
 30
0.0
 11
903.990842
 21
1100.0
 31
0.0
  0
LINE
  5
58D
330
587
100
AcDbEntity
  8
LC-008-003-----0
 62
     7
370
    25
100
AcDbLine
 10
678.776964
 20
1103.263155
 30
0.0
 11
653.990842
 21
1100.0
 31
0.0
  0
LINE
  5
58E
330
587
100
AcDbEntity
  8
LC-008-003-----0
 62
     7
370
    25
100
AcDbLine
 10
653.990842
 20
1100.0
 30
0.0
 11
678.776964
 21
1096.736845
 31
0.0
  0
LINE
  5
58F
330
587
100
AcDbEntity
  8
LC-008-003-----0
 62
     7
370
    25
100
AcDbLine
 10
678.776964
 20
1096.736845
 30
0.0
 11
678.776964
 21
1103.263155
 31
0.0
  0
LINE
  5
590
330
587
100
AcDbEntity
  8
LC-008-003-----0
 62
     7
370
    25
100
AcDbLine
 10
678.832572
 20
1102.414735
 30
0.0
 11
660.490842
 21
1100.0
 31
0.0
  0
LINE
  5
591
330
587
100
AcDbEntity
  8
LC-008-003-----0
 62
     7
370
    25
100
AcDbLine
 10
660.490842
 20
1100.0
 30
0.0
 11
678.832572
 21
1097.585265
 31
0.0
  0
LINE
  5
592
330
587
100
AcDbEntity
  8
LC-008-003-----0
 62
     7
370
    25
100
AcDbLine
 10
678.88818
 20
1101.566314
 30
0.0
 11
666.990842
 21
1100.0
 31
0.0
  0
LINE
  5
593
330
587
100
AcDbEntity
  8
LC-008-003-----0
 62
     7
370
    25
100
AcDbLine
 10
666.990842
 20
1100.0
 30
0.0
 11
678.88818
 21
1098.433686
 31
0.0
  0
LINE
  5
594
330
587
100
AcDbEntity
  8
LC-008-003-----0
 62
     7
370
    25
100
AcDbLine
 10
678.943789
 20
1100.717894
 30
0.0
 11
673.490842
 21
1100.0
 31
0.0
  0
LINE
  5
595
330
587
100
AcDbEntity
  8
LC-008-003-----0
 62
     7
370
    25
100
AcDbLine
 10
673.490842
 20
1100.0
 30
0.0
 11
678.943789
 21
1099.282106
 31
0.0
  0
LINE
  5
596
330
587
100
AcDbEntity
  8
LC-008-003-----0
 62
     7
370
    25
100
AcDbLine
 10
879.20472
 20
1096.736845
 30
0.0
 11
903.990842
 21
1100.0
 31
0.0
  0
LINE
  5
597
330
587
100
AcDbEntity
  8
LC-008-003-----0
 62
     7
370
    25
100
AcDbLine
 10
903.990842
 20
1100.0
 30
0.0
 11
879.20472
 21
1103.263155
 31
0.0
  0
LINE
  5
598
330
587
100
AcDbEntity
  8
LC-008-003-----0
 62
     7
370
    25
100
AcDbLine
 10
879.20472
 20
1103.263155
 30
0.0
 11
879.20472
 21
1096.736845
 31
0.0
  0
LINE
  5
599
330
587
100
AcDbEntity
  8
LC-008-003-----0
 62
     7
370
    25
100
AcDbLine
 10
879.149111
 20
1097.585265
 30
0.0
 11
897.490842
 21
1100.0
 31
0.0
  0
LINE
  5
59A
330
587
100
AcDbEntity
  8
LC-008-003-----0
 62
     7
370
    25
100
AcDbLine
 10
897.490842
 20
1100.0
 30
0.0
 11
879.149111
 21
1102.414735
 31
0.0
  0
LINE
  5
59B
330
587
100
AcDbEntity
  8
LC-008-003-----0
 62
     7
370
    25
100
AcDbLine
 10
879.093503
 20
1098.433686
 30
0.0
 11
890.990841
 21
1100.0
 31
0.0
  0
LINE
  5
59C
330
587
100
AcDbEntity
  8
LC-008-003-----0
 62
     7
370
    25
100
AcDbLine
 10
890.990841
 20
1100.0
 30
0.0
 11
879.093503
 21
1101.566314
 31
0.0
  0
LINE
  5
59D
330
587
100
AcDbEntity
  8
LC-008-003-----0
 62
     7
370
    25
100
AcDbLine
 10
879.037895
 20
1099.282106
 30
0.0
 11
884.490841
 21
1100.0
 31
0.0
  0
LINE
  5
59E
330
587
100
AcDbEntity
  8
LC-008-003-----0
 62
     7
370
    25
100
AcDbLine
 10
884.490841
 20
1100.0
 30
0.0
 11
879.037895
 21
1100.717894
 31
0.0
  0
TEXT
  5
59F
330
587
100
AcDbEntity
  8
LC-008-003-----0
 62
     7
370
    25
100
AcDbText
 10
750.207287
 20
1115.0
 30
0.0
 40
25.0
  1
500
 41
0.7
  7
LCTX0-400-0-0pDIN-Schrift
 72
     1
 11
775.207287
 21
1115.0
 31
0.0
100
AcDbText
  0
ENDBLK
  5
589
330
587
100
AcDbEntity
  8
0
100
AcDbBlockEnd
  0
BLOCK
  5
5AC
330
5AB
100
AcDbEntity
  8
0
100
AcDbBlockBegin
  2
LCDIM14
 70
     0
 71
     0
 10
0.0
 20
0.0
 30
0.0
  3
LCDIM14
  1

  4
LCDIM14
  0
LINE
  5
5AE
330
5AB
100
AcDbEntity
  8
LC-006-003-MTH-0
 62
     7
370
    25
100
AcDbLine
 10
1340.631196
 20
928.026573
 30
0.0
 11
1340.631196
 21
735.0
 31
0.0
  0
LINE
  5
5AF
330
5AB
100
AcDbEntity
  8
LC-006-003-MTH-0
 62
     7
370
    25
100
AcDbLine
 10
1772.631196
 20
928.026573
 30
0.0
 11
1772.631196
 21
735.0
 31
0.0
  0
LINE
  5
5B0
330
5AB
100
AcDbEntity
  8
LC-007-003-MTG-0
 62
     7
370
    25
100
AcDbLine
 10
1340.631196
 20
750.0
 30
0.0
 11
1772.631196
 21
750.0
 31
0.0
  0
LINE
  5
5B1
330
5AB
100
AcDbEntity
  8
LC-008-003-----0
 62
     7
370
    25
100
AcDbLine
 10
1365.417318
 20
753.263155
 30
0.0
 11
1340.631196
 21
750.0
 31
0.0
  0
LINE
  5
5B2
330
5AB
100
AcDbEntity
  8
LC-008-003-----0
 62
     7
370
    25
100
AcDbLine
 10
1340.631196
 20
750.0
 30
0.0
 11
1365.417318
 21
746.736845
 31
0.0
  0
LINE
  5
5B3
330
5AB
100
AcDbEntity
  8
LC-008-003-----0
 62
     7
370
    25
100
AcDbLine
 10
1365.417318
 20
746.736845
 30
0.0
 11
1365.417318
 21
753.263155
 31
0.0
  0
LINE
  5
5B4
330
5AB
100
AcDbEntity
  8
LC-008-003-----0
 62
     7
370
    25
100
AcDbLine
 10
1365.472926
 20
752.414735
 30
0.0
 11
1347.131196
 21
750.0
 31
0.0
  0
LINE
  5
5B5
330
5AB
100
AcDbEntity
  8
LC-008-003-----0
 62
     7
370
    25
100
AcDbLine
 10
1347.131196
 20
750.0
 30
0.0
 11
1365.472926
 21
747.585265
 31
0.0
  0
LINE
  5
5B6
330
5AB
100
AcDbEntity
  8
LC-008-003-----0
 62
     7
370
    25
100
AcDbLine
 10
1365.528534
 20
751.566314
 30
0.0
 11
1353.631196
 21
750.0
 31
0.0
  0
LINE
  5
5B7
330
5AB
100
AcDbEntity
  8
LC-008-003-----0
 62
     7
370
    25
100
AcDbLine
 10
1353.631196
 20
750.0
 30
0.0
 11
1365.528534
 21
748.433686
 31
0.0
  0
LINE
  5
5B8
330
5AB
100
AcDbEntity
  8
LC-008-003-----0
 62
     7
370
    25
100
AcDbLine
 10
1365.584143
 20
750.717894
 30
0.0
 11
1360.131196
 21
750.0
 31
0.0
  0
LINE
  5
5B9
330
5AB
100
AcDbEntity
  8
LC-008-003-----0
 62
     7
370
    25
100
AcDbLine
 10
1360.131196
 20
750.0
 30
0.0
 11
1365.584143
 21
749.282106
 31
0.0
  0
LINE
  5
5BA
330
5AB
100
AcDbEntity
  8
LC-008-003-----0
 62
     7
370
    25
100
AcDbLine
 10
1747.845074
 20
746.736845
 30
0.0
 11
1772.631196
 21
750.0
 31
0.0
  0
LINE
  5
5BB
330
5AB
100
AcDbEntity
  8
LC-008-003-----0
 62
     7
370
    25
100
AcDbLine
 10
1772.631196
 20
750.0
 30
0.0
 11
1747.845074
 21
753.263155
 31
0.0
  0
LINE
  5
5BC
330
5AB
100
AcDbEntity
  8
LC-008-003-----0
 62
     7
370
    25
100
AcDbLine
 10
1747.845074
 20
753.263155
 30
0.0
 11
1747.845074
 21
746.736845
 31
0.0
  0
LINE
  5
5BD
330
5AB
100
AcDbEntity
  8
LC-008-003-----0
 62
     7
370
    25
100
AcDbLine
 10
1747.789465
 20
747.585265
 30
0.0
 11
1766.131196
 21
750.0
 31
0.0
  0
LINE
  5
5BE
330
5AB
100
AcDbEntity
  8
LC-008-003-----0
 62
     7
370
    25
100
AcDbLine
 10
1766.131196
 20
750.0
 30
0.0
 11
1747.789465
 21
752.414735
 31
0.0
  0
LINE
  5
5BF
330
5AB
100
AcDbEntity
  8
LC-008-003-----0
 62
     7
370
    25
100
AcDbLine
 10
1747.733857
 20
748.433686
 30
0.0
 11
1759.631196
 21
750.0
 31
0.0
  0
LINE
  5
5C0
330
5AB
100
AcDbEntity
  8
LC-008-003-----0
 62
     7
370
    25
100
AcDbLine
 10
1759.631196
 20
750.0
 30
0.0
 11
1747.733857
 21
751.566314
 31
0.0
  0
LINE
  5
5C1
330
5AB
100
AcDbEntity
  8
LC-008-003-----0
 62
     7
370
    25
100
AcDbLine
 10
1747.678249
 20
749.282106
 30
0.0
 11
1753.131195
 21
750.0
 31
0.0
  0
LINE
  5
5C2
330
5AB
100
AcDbEntity
  8
LC-008-003-----0
 62
     7
370
    25
100
AcDbLine
 10
1753.131195
 20
750.0
 30
0.0
 11
1747.678249
 21
750.717894
 31
0.0
  0
TEXT
  5
5C3
330
5AB
100
AcDbEntity
  8
LC-008-003-----0
 62
     7
370
    25
100
AcDbText
 10
1532.699529
 20
765.0
 30
0.0
 40
25.0
  1
864
 41
0.7
  7
LCTX0-400-0-0pDIN-Schrift
 72
     1
 11
1558.116196
 21
765.0
 31
0.0
100
AcDbText
  0
ENDBLK
  5
5AD
330
5AB
100
AcDbEntity
  8
0
100
AcDbBlockEnd
  0
BLOCK
  5
5C6
330
5C5
100
AcDbEntity
  8
0
100
AcDbBlockBegin
  2
LCDIM15
 70
     0
 71
     0
 10
0.0
 20
0.0
 30
0.0
  3
LCDIM15
  1

  4
LCDIM15
  0
LINE
  5
5C8
330
5C5
100
AcDbEntity
  8
LC-006-003-MTH-0
 62
     7
370
    25
100
AcDbLine
 10
1760.819454
 20
807.033154
 30
0.0
 11
1865.0
 21
807.033154
 31
0.0
  0
LINE
  5
5C9
330
5C5
100
AcDbEntity
  8
LC-006-003-MTH-0
 62
     7
370
    25
100
AcDbLine
 10
1760.817902
 20
1049.033154
 30
0.0
 11
1865.0
 21
1049.033154
 31
0.0
  0
LINE
  5
5CA
330
5C5
100
AcDbEntity
  8
LC-007-003-MTG-0
 62
     7
370
    25
100
AcDbLine
 10
1850.0
 20
807.033154
 30
0.0
 11
1850.0
 21
1049.033154
 31
0.0
  0
LINE
  5
5CB
330
5C5
100
AcDbEntity
  8
LC-008-003-----0
 62
     7
370
    25
100
AcDbLine
 10
1846.736845
 20
831.819276
 30
0.0
 11
1850.0
 21
807.033154
 31
0.0
  0
LINE
  5
5CC
330
5C5
100
AcDbEntity
  8
LC-008-003-----0
 62
     7
370
    25
100
AcDbLine
 10
1850.0
 20
807.033154
 30
0.0
 11
1853.263155
 21
831.819276
 31
0.0
  0
LINE
  5
5CD
330
5C5
100
AcDbEntity
  8
LC-008-003-----0
 62
     7
370
    25
100
AcDbLine
 10
1853.263155
 20
831.819276
 30
0.0
 11
1846.736845
 21
831.819276
 31
0.0
  0
LINE
  5
5CE
330
5C5
100
AcDbEntity
  8
LC-008-003-----0
 62
     7
370
    25
100
AcDbLine
 10
1847.585265
 20
831.874884
 30
0.0
 11
1850.0
 21
813.533154
 31
0.0
  0
LINE
  5
5CF
330
5C5
100
AcDbEntity
  8
LC-008-003-----0
 62
     7
370
    25
100
AcDbLine
 10
1850.0
 20
813.533154
 30
0.0
 11
1852.414735
 21
831.874884
 31
0.0
  0
LINE
  5
5D0
330
5C5
100
AcDbEntity
  8
LC-008-003-----0
 62
     7
370
    25
100
AcDbLine
 10
1848.433686
 20
831.930493
 30
0.0
 11
1850.0
 21
820.033154
 31
0.0
  0
LINE
  5
5D1
330
5C5
100
AcDbEntity
  8
LC-008-003-----0
 62
     7
370
    25
100
AcDbLine
 10
1850.0
 20
820.033154
 30
0.0
 11
1851.566314
 21
831.930493
 31
0.0
  0
LINE
  5
5D2
330
5C5
100
AcDbEntity
  8
LC-008-003-----0
 62
     7
370
    25
100
AcDbLine
 10
1849.282106
 20
831.986101
 30
0.0
 11
1850.0
 21
826.533154
 31
0.0
  0
LINE
  5
5D3
330
5C5
100
AcDbEntity
  8
LC-008-003-----0
 62
     7
370
    25
100
AcDbLine
 10
1850.0
 20
826.533154
 30
0.0
 11
1850.717894
 21
831.986101
 31
0.0
  0
LINE
  5
5D4
330
5C5
100
AcDbEntity
  8
LC-008-003-----0
 62
     7
370
    25
100
AcDbLine
 10
1853.263155
 20
1024.247032
 30
0.0
 11
1850.0
 21
1049.033154
 31
0.0
  0
LINE
  5
5D5
330
5C5
100
AcDbEntity
  8
LC-008-003-----0
 62
     7
370
    25
100
AcDbLine
 10
1850.0
 20
1049.033154
 30
0.0
 11
1846.736845
 21
1024.247032
 31
0.0
  0
LINE
  5
5D6
330
5C5
100
AcDbEntity
  8
LC-008-003-----0
 62
     7
370
    25
100
AcDbLine
 10
1846.736845
 20
1024.247032
 30
0.0
 11
1853.263155
 21
1024.247032
 31
0.0
  0
LINE
  5
5D7
330
5C5
100
AcDbEntity
  8
LC-008-003-----0
 62
     7
370
    25
100
AcDbLine
 10
1852.414735
 20
1024.191424
 30
0.0
 11
1850.0
 21
1042.533154
 31
0.0
  0
LINE
  5
5D8
330
5C5
100
AcDbEntity
  8
LC-008-003-----0
 62
     7
370
    25
100
AcDbLine
 10
1850.0
 20
1042.533154
 30
0.0
 11
1847.585265
 21
1024.191424
 31
0.0
  0
LINE
  5
5D9
330
5C5
100
AcDbEntity
  8
LC-008-003-----0
 62
     7
370
    25
100
AcDbLine
 10
1851.566314
 20
1024.135815
 30
0.0
 11
1850.0
 21
1036.033154
 31
0.0
  0
LINE
  5
5DA
330
5C5
100
AcDbEntity
  8
LC-008-003-----0
 62
     7
370
    25
100
AcDbLine
 10
1850.0
 20
1036.033154
 30
0.0
 11
1848.433686
 21
1024.135815
 31
0.0
  0
LINE
  5
5DB
330
5C5
100
AcDbEntity
  8
LC-008-003-----0
 62
     7
370
    25
100
AcDbLine
 10
1850.717894
 20
1024.080207
 30
0.0
 11
1850.0
 21
1029.533154
 31
0.0
  0
LINE
  5
5DC
330
5C5
100
AcDbEntity
  8
LC-008-003-----0
 62
     7
370
    25
100
AcDbLine
 10
1850.0
 20
1029.533154
 30
0.0
 11
1849.282106
 21
1024.080207
 31
0.0
  0
TEXT
  5
5DD
330
5C5
100
AcDbEntity
  8
LC-008-003-----0
 62
     7
370
    25
100
AcDbText
 10
1835.0
 20
903.559413
 30
0.0
 40
25.0
  1
484
 50
90.0
 41
0.7
  7
LCTX0-400-0-0pDIN-Schrift
 72
     1
 11
1835.0
 21
928.97608
 31
0.0
100
AcDbText
  0
ENDBLK
  5
5C7
330
5C5
100
AcDbEntity
  8
0
100
AcDbBlockEnd
  0
BLOCK
  5
5E0
330
5DF
100
AcDbEntity
  8
0
100
AcDbBlockBegin
  2
LCDIM16
 70
     0
 71
     0
 10
0.0
 20
0.0
 30
0.0
  3
LCDIM16
  1

  4
LCDIM16
  0
TEXT
  5
5E2
330
5DF
100
AcDbEntity
  8
LC-008-003-----0
 62
     7
370
    25
100
AcDbText
 10
1226.011471
 20
1010.455143
 30
0.0
 40
25.0
  1
R1992
 50
356.5271
 41
0.7
  7
LCTX0-400-0-0pDIN-Schrift
 72
     2
 11
1307.528162
 21
1005.508067
 31
0.0
100
AcDbText
  0
LINE
  5
5E3
330
5DF
100
AcDbEntity
  8
LC-007-003-MTG-0
 62
     7
370
    25
100
AcDbLine
 10
1244.553209
 20
994.302287
 30
0.0
 11
1342.460277
 21
988.360517
 31
0.0
  0
LINE
  5
5E4
330
5DF
100
AcDbEntity
  8
LC-008-003-----0
 62
     7
370
    25
100
AcDbLine
 10
1317.522004
 20
986.604809
 30
0.0
 11
1342.460277
 21
988.360517
 31
0.0
  0
LINE
  5
5E5
330
5DF
100
AcDbEntity
  8
LC-008-003-----0
 62
     7
370
    25
100
AcDbLine
 10
1342.460277
 20
988.360517
 30
0.0
 11
1317.917344
 21
993.119134
 31
0.0
  0
LINE
  5
5E6
330
5DF
100
AcDbEntity
  8
LC-008-003-----0
 62
     7
370
    25
100
AcDbLine
 10
1317.917344
 20
993.119134
 30
0.0
 11
1317.522004
 21
986.604809
 31
0.0
  0
LINE
  5
5E7
330
5DF
100
AcDbEntity
  8
LC-008-003-----0
 62
     7
370
    25
100
AcDbLine
 10
1317.517892
 20
987.45504
 30
0.0
 11
1335.972214
 21
988.754264
 31
0.0
  0
LINE
  5
5E8
330
5DF
100
AcDbEntity
  8
LC-008-003-----0
 62
     7
370
    25
100
AcDbLine
 10
1335.972214
 20
988.754264
 30
0.0
 11
1317.810443
 21
992.27564
 31
0.0
  0
LINE
  5
5E9
330
5DF
100
AcDbEntity
  8
LC-008-003-----0
 62
     7
370
    25
100
AcDbLine
 10
1317.51378
 20
988.305271
 30
0.0
 11
1329.484151
 21
989.148011
 31
0.0
  0
LINE
  5
5EA
330
5DF
100
AcDbEntity
  8
LC-008-003-----0
 62
     7
370
    25
100
AcDbLine
 10
1329.484151
 20
989.148011
 30
0.0
 11
1317.703543
 21
991.432146
 31
0.0
  0
LINE
  5
5EB
330
5DF
100
AcDbEntity
  8
LC-008-003-----0
 62
     7
370
    25
100
AcDbLine
 10
1317.509668
 20
989.155501
 30
0.0
 11
1322.996088
 21
989.541757
 31
0.0
  0
LINE
  5
5EC
330
5DF
100
AcDbEntity
  8
LC-008-003-----0
 62
     7
370
    25
100
AcDbLine
 10
1322.996088
 20
989.541757
 30
0.0
 11
1317.596642
 21
990.588653
 31
0.0
  0
ENDBLK
  5
5E1
330
5DF
100
AcDbEntity
  8
0
100
AcDbBlockEnd
  0
BLOCK
  5
5EF
330
5EE
100
AcDbEntity
  8
0
100
AcDbBlockBegin
  2
LCDIM17
 70
     0
 71
     0
 10
0.0
 20
0.0
 30
0.0
  3
LCDIM17
  1

  4
LCDIM17
  0
TEXT
  5
5F1
330
5EE
100
AcDbEntity
  8
LC-008-003-----0
 62
     7
370
    25
100
AcDbText
 10
1290.141615
 20
1108.618002
 30
0.0
 40
25.0
  1
R10
 50
323.592072
 41
0.7
  7
LCTX0-400-0-0pDIN-Schrift
 72
     2
 11
1329.040846
 21
1079.930706
 31
0.0
100
AcDbText
  0
LINE
  5
5F2
330
5EE
100
AcDbEntity
  8
LC-007-003-MTG-0
 62
     7
370
    25
100
AcDbLine
 10
1294.048539
 20
1087.098833
 30
0.0
 11
1348.420431
 21
1047.000805
 31
0.0
  0
LINE
  5
5F3
330
5EE
100
AcDbEntity
  8
LC-008-003-----0
 62
     7
370
    25
100
AcDbLine
 10
1326.535489
 20
1059.085892
 30
0.0
 11
1348.420431
 21
1047.000805
 31
0.0
  0
LINE
  5
5F4
330
5EE
100
AcDbEntity
  8
LC-008-003-----0
 62
     7
370
    25
100
AcDbLine
 10
1348.420431
 20
1047.000805
 30
0.0
 11
1330.409051
 21
1064.338343
 31
0.0
  0
LINE
  5
5F5
330
5EE
100
AcDbEntity
  8
LC-008-003-----0
 62
     7
370
    25
100
AcDbLine
 10
1330.409051
 20
1064.338343
 30
0.0
 11
1326.535489
 21
1059.085892
 31
0.0
  0
LINE
  5
5F6
330
5EE
100
AcDbEntity
  8
LC-008-003-----0
 62
     7
370
    25
100
AcDbLine
 10
1326.994298
 20
1059.801716
 30
0.0
 11
1343.189155
 21
1050.858751
 31
0.0
  0
LINE
  5
5F7
330
5EE
100
AcDbEntity
  8
LC-008-003-----0
 62
     7
370
    25
100
AcDbLine
 10
1343.189155
 20
1050.858751
 30
0.0
 11
1329.860734
 21
1063.688529
 31
0.0
  0
LINE
  5
5F8
330
5EE
100
AcDbEntity
  8
LC-008-003-----0
 62
     7
370
    25
100
AcDbLine
 10
1327.453107
 20
1060.51754
 30
0.0
 11
1337.957879
 21
1054.716698
 31
0.0
  0
LINE
  5
5F9
330
5EE
100
AcDbEntity
  8
LC-008-003-----0
 62
     7
370
    25
100
AcDbLine
 10
1337.957879
 20
1054.716698
 30
0.0
 11
1329.312417
 21
1063.038716
 31
0.0
  0
LINE
  5
5FA
330
5EE
100
AcDbEntity
  8
LC-008-003-----0
 62
     7
370
    25
100
AcDbLine
 10
1327.911916
 20
1061.233364
 30
0.0
 11
1332.726603
 21
1058.574645
 31
0.0
  0
LINE
  5
5FB
330
5EE
100
AcDbEntity
  8
LC-008-003-----0
 62
     7
370
    25
100
AcDbLine
 10
1332.726603
 20
1058.574645
 30
0.0
 11
1328.764099
 21
1062.388903
 31
0.0
  0
ENDBLK
  5
5F0
330
5EE
100
AcDbEntity
  8
0
100
AcDbBlockEnd
  0
BLOCK
  5
5FF
330
5FE
100
AcDbEntity
  8
0
100
AcDbBlockBegin
  2
*X442
 70
     1
 71
     0
 10
0.0
 20
0.0
 30
0.0
  3
*X442
  1

  4
*X4
  0
LINE
  5
601
330
5FE
100
AcDbEntity
  8
LC-015-005-----0
 62
     7
370
    25
100
AcDbLine
 10
1366.560046
 20
2497.930896
 30
0.0
 11
1384.74134
 21
2516.11219
 31
0.0
  0
LINE
  5
602
330
5FE
100
AcDbEntity
  8
LC-015-005-----0
 62
     7
370
    25
100
AcDbLine
 10
1338.275774
 20
2497.930896
 30
0.0
 11
1376.275774
 21
2535.930896
 31
0.0
  0
LINE
  5
603
330
5FE
100
AcDbEntity
  8
LC-015-005-----0
 62
     7
370
    25
100
AcDbLine
 10
1327.669293
 20
2515.608685
 30
0.0
 11
1347.991503
 21
2535.930896
 31
0.0
  0
ENDBLK
  5
600
330
5FE
100
AcDbEntity
  8
0
100
AcDbBlockEnd
  0
ENDSEC
  0
SECTION
  2
ENTITIES
  0
INSERT
  5
101
330
1F
100
AcDbEntity
  8
LC-003-230-ZVN-0
 62
     7
370
    50
100
AcDbBlockReference
  2
SYM1
 10
0.0
 20
0.0
 30
0.0
  0
ARC
  5
103
102
{ACAD_REACTORS
330
60D
102
}
330
1F
100
AcDbEntity
  8
LC-004-100-D01-0
 62
     7
370
    50
100
AcDbCircle
 10
1104.674718
 20
2349.992909
 30
0.0
 40
0.9999999999999225
100
AcDbArc
 50
92.0
 51
175.000046
  0
ARC
  5
104
102
{ACAD_REACTORS
330
60D
102
}
330
1F
100
AcDbEntity
  8
LC-004-100-D01-0
 62
     7
370
    50
100
AcDbCircle
 10
1102.648666
 20
2349.782458
 30
0.0
 40
1.000000000000074
100
AcDbArc
 50
279.999999
 51
355.000046
  0
ARC
  5
105
102
{ACAD_REACTORS
330
60D
102
}
330
1F
100
AcDbEntity
  8
LC-004-100-D01-0
 62
     7
370
    50
100
AcDbCircle
 10
1346.459487
 20
2538.896339
 30
0.0
 40
0.9999999999999959
100
AcDbArc
 50
4.0
 51
44.134987
  0
LINE
  5
107
102
{ACAD_REACTORS
330
610
102
}
330
1F
100
AcDbEntity
  8
LC-002-002-----0
  6
DASHDOT
 62
     7
370
    25
100
AcDbLine
 10
903.990842
 20
785.499745
 30
0.0
 11
903.990842
 21
1082.806015
 31
0.0
  0
ARC
  5
108
102
{ACAD_REACTORS
330
60D
102
}
330
1F
100
AcDbEntity
  8
LC-004-100-D01-0
 62
     7
370
    50
100
AcDbCircle
 10
1239.336628
 20
2384.942657
 30
0.0
 40
42.4245409716976
100
AcDbArc
 50
330.348381
 51
353.926048
  0
ARC
  5
109
102
{ACAD_REACTORS
330
60D
102
}
330
1F
100
AcDbEntity
  8
LC-002-002-----0
 62
     7
370
    50
100
AcDbCircle
 10
1259.83678
 20
2373.272508
 30
0.0
 40
18.83617914813321
100
AcDbArc
 50
308.157902
 51
330.348381
  0
ARC
  5
10A
102
{ACAD_REACTORS
330
60D
102
}
330
1F
100
AcDbEntity
  8
LC-004-100-D01-0
 62
     7
370
    50
100
AcDbCircle
 10
1266.19242
 20
2365.183708
 30
0.0
 40
8.549155999999858
100
AcDbArc
 50
273.858682
 51
308.157902
  0
LINE
  5
10B
102
{ACAD_REACTORS
330
610
102
}
330
1F
100
AcDbEntity
  8
LC-002-002-----0
  6
DASHDOT
 62
     7
370
    25
100
AcDbLine
 10
894.490842
 20
785.499745
 30
0.0
 11
894.490842
 21
1082.806015
 31
0.0
  0
LINE
  5
10C
102
{ACAD_REACTORS
330
610
102
}
330
1F
100
AcDbEntity
  8
LC-002-002-----0
  6
DASHDOT
 62
     7
370
    25
100
AcDbLine
 10
653.990842
 20
785.499745
 30
0.0
 11
653.990842
 21
1082.806015
 31
0.0
  0
ARC
  5
10D
102
{ACAD_REACTORS
330
60D
102
}
330
1F
100
AcDbEntity
  8
LC-004-100-D01-0
 62
     7
370
    50
100
AcDbCircle
 10
1265.809222
 20
2364.475584
 30
0.0
 40
18.83537799999997
100
AcDbArc
 50
308.63961
 51
329.420891
  0
ARC
  5
10E
102
{ACAD_REACTORS
330
60D
102
}
330
1F
100
AcDbEntity
  8
LC-004-100-D01-0
 62
     7
370
    50
100
AcDbCircle
 10
1272.164862
 20
2356.386785
 30
0.0
 40
8.54915599999989
100
AcDbArc
 50
273.858682
 51
309.219238
  0
ARC
  5
10F
102
{ACAD_REACTORS
330
60D
102
}
330
1F
100
AcDbEntity
  8
LC-002-002-----0
 62
     7
370
    50
100
AcDbCircle
 10
1247.732381
 20
2375.157303
 30
0.0
 40
39.8323136638696
100
AcDbArc
 50
329.420891
 51
352.999999
  0
LINE
  5
110
102
{ACAD_REACTORS
330
60D
102
}
330
1F
100
AcDbEntity
  8
LC-004-100-D01-0
 62
     7
370
    50
100
AcDbLine
 10
909.873059
 20
2519.430896
 30
0.0
 11
921.20309
 21
2519.430896
 31
0.0
  0
LINE
  5
111
102
{ACAD_REACTORS
330
610
102
}
330
1F
100
AcDbEntity
  8
LC-002-002-----0
  6
DASHDOT
 62
     7
370
    25
100
AcDbLine
 10
663.490842
 20
785.499745
 30
0.0
 11
663.490842
 21
1082.806015
 31
0.0
  0
LINE
  5
114
102
{ACAD_REACTORS
330
60C
102
}
330
1F
100
AcDbEntity
  8
LC-005-006-MLN-0
 62
     7
370
    25
100
AcDbLine
 10
1660.862588
 20
1621.96075
 30
0.0
 11
1679.862588
 21
1621.96075
 31
0.0
  0
ARC
  5
115
102
{ACAD_REACTORS
330
60D
102
}
330
1F
100
AcDbEntity
  8
LC-004-100-D01-0
 62
     7
370
    50
100
AcDbCircle
 10
1339.457276
 20
2532.526215
 30
0.0
 40
10.40468800000006
100
AcDbArc
 50
66.356073
 51
89.93383
  0
ARC
  5
116
102
{ACAD_REACTORS
330
60D
102
}
330
1F
100
AcDbEntity
  8
LC-004-100-D01-0
 62
     7
370
    50
100
AcDbCircle
 10
1339.104866
 20
2531.760502
 30
0.0
 40
11.24746900000054
100
AcDbArc
 50
44.134987
 51
66.275905
  0
ARC
  5
117
102
{ACAD_REACTORS
330
60D
102
}
330
1F
100
AcDbEntity
  8
LC-002-002-----0
 62
     7
370
    50
100
AcDbCircle
 10
1005.25423
 20
2381.565838
 30
0.0
 40
48.48693783764551
100
AcDbArc
 50
185.326405
 51
207.527753
  0
ARC
  5
118
102
{ACAD_REACTORS
330
60D
102
}
330
1F
100
AcDbEntity
  8
LC-004-100-D01-0
 62
     7
370
    50
100
AcDbCircle
 10
972.531674
 20
2360.171576
 30
0.0
 40
8.696481999999998
100
AcDbArc
 50
229.330471
 51
265.941468
  0
ARC
  5
119
102
{ACAD_REACTORS
330
60D
102
}
330
1F
100
AcDbEntity
  8
LC-004-100-D01-0
 62
     7
370
    50
100
AcDbCircle
 10
979.621306
 20
2368.800356
 30
0.0
 40
19.86304899999986
100
AcDbArc
 50
209.047261
 51
230.040034
  0
LINE
  5
11A
102
{ACAD_REACTORS
330
60D
102
}
330
1F
100
AcDbEntity
  8
LC-002-002-----0
 62
     7
370
    50
100
AcDbLine
 10
879.873059
 20
2526.089291
 30
0.0
 11
909.873059
 21
2526.089291
 31
0.0
  0
LINE
  5
11B
102
{ACAD_REACTORS
330
60D
102
}
330
1F
100
AcDbEntity
  8
LC-002-002-----0
 62
     7
370
    50
100
AcDbLine
 10
879.873059
 20
2519.430896
 30
0.0
 11
909.873059
 21
2519.430896
 31
0.0
  0
LINE
  5
11C
102
{ACAD_REACTORS
330
60D
102
}
330
1F
100
AcDbEntity
  8
LC-002-002-----0
 62
     7
370
    50
100
AcDbLine
 10
1000.502961
 20
2346.543249
 30
0.0
 11
1090.502961
 21
2346.543249
 31
0.0
  0
LINE
  5
11D
102
{ACAD_REACTORS
330
60D
102
}
330
1F
100
AcDbEntity
  8
LC-002-002-----0
 62
     7
370
    50
100
AcDbLine
 10
1090.502961
 20
2337.930896
 30
0.0
 11
1000.502961
 21
2337.930896
 31
0.0
  0
INSERT
  5
13A
102
{ACAD_REACTORS
330
60B
102
}
330
1F
100
AcDbEntity
  8
LC-008-003-----0
 62
     7
370
    25
100
AcDbBlockReference
  2
LCDIM1
 10
0.0
 20
0.0
 30
0.0
  0
INSERT
  5
154
102
{ACAD_REACTORS
330
60D
102
}
330
1F
100
AcDbEntity
  8
LC-008-003-----0
 62
     7
370
    25
100
AcDbBlockReference
  2
LCDIM2
 10
0.0
 20
0.0
 30
0.0
  0
LINE
  5
155
102
{ACAD_REACTORS
330
605
102
}
330
1F
100
AcDbEntity
  8
LC-002-002-----0
 62
     7
370
    50
100
AcDbLine
 10
487.669293
 20
2535.930896
 30
0.0
 11
487.669293
 21
2497.930896
 31
0.0
  0
LINE
  5
156
102
{ACAD_REACTORS
330
605
102
}
330
1F
100
AcDbEntity
  8
LC-002-002-----0
 62
     7
370
    50
100
AcDbLine
 10
487.669293
 20
2535.930896
 30
0.0
 11
411.841035
 21
2535.930896
 31
0.0
  0
LINE
  5
157
102
{ACAD_REACTORS
330
605
102
}
330
1F
100
AcDbEntity
  8
LC-002-002-----0
 62
     7
370
    50
100
AcDbLine
 10
487.669293
 20
2497.930896
 30
0.0
 11
411.841035
 21
2497.930896
 31
0.0
  0
LINE
  5
158
102
{ACAD_REACTORS
330
605
102
}
330
1F
100
AcDbEntity
  8
LC-002-002-----0
 62
     7
370
    25
100
AcDbLine
 10
411.841035
 20
2535.930896
 30
0.0
 11
407.847797
 21
2514.226684
 31
0.0
  0
LINE
  5
159
102
{ACAD_REACTORS
330
605
102
}
330
1F
100
AcDbEntity
  8
LC-002-002-----0
 62
     7
370
    25
100
AcDbLine
 10
407.847797
 20
2514.226684
 30
0.0
 11
411.841035
 21
2497.930896
 31
0.0
  0
LINE
  5
15A
102
{ACAD_REACTORS
330
605
102
}
330
1F
100
AcDbEntity
  8
LC-002-002-----0
 62
     7
370
    25
100
AcDbLine
 10
1327.669293
 20
2405.439488
 30
0.0
 11
1341.384912
 21
2402.596564
 31
0.0
  0
LINE
  5
15B
102
{ACAD_REACTORS
330
605
102
}
330
1F
100
AcDbEntity
  8
LC-002-002-----0
 62
     7
370
    25
100
AcDbLine
 10
1341.384912
 20
2402.596564
 30
0.0
 11
1346.669293
 21
2405.439488
 31
0.0
  0
LINE
  5
15C
102
{ACAD_REACTORS
330
60D
102
}
330
1F
100
AcDbEntity
  8
LC-005-006-MLN-0
 62
     7
370
    25
100
AcDbLine
 10
894.873059
 20
2530.930896
 30
0.0
 11
894.873059
 21
2516.430896
 31
0.0
  0
LINE
  5
15E
330
1F
100
AcDbEntity
  8
LC-009-007-KH--0
 62
     7
370
    13
100
AcDbLine
 10
1817.213329
 20
1427.96075
 30
0.0
 11
1868.862588
 21
1427.96075
 31
0.0
  0
LINE
  5
15F
330
1F
100
AcDbEntity
  8
LC-002-002-----0
 62
     7
370
    50
100
AcDbLine
 10
489.669293
 20
2535.930896
 30
0.0
 11
489.669293
 21
2530.780421
 31
0.0
  0
LINE
  5
160
330
1F
100
AcDbEntity
  8
LC-002-002-----0
 62
     7
370
    50
100
AcDbLine
 10
1325.669293
 20
2535.930896
 30
0.0
 11
1325.669293
 21
2532.346014
 31
0.0
  0
INSERT
  5
166
102
{ACAD_REACTORS
330
60D
102
}
330
1F
100
AcDbEntity
  8
LC-004-100-D01-0
 62
     7
370
    50
100
AcDbBlockReference
  2
OBJ1
 10
0.0
 20
0.0
 30
0.0
  0
INSERT
  5
16C
102
{ACAD_REACTORS
330
60D
102
}
330
1F
100
AcDbEntity
  8
LC-004-100-D01-0
 62
     7
370
    50
100
AcDbBlockReference
  2
OBJ2
 10
0.0
 20
0.0
 30
0.0
  0
INSERT
  5
172
102
{ACAD_REACTORS
330
60D
102
}
330
1F
100
AcDbEntity
  8
LC-004-100-D01-0
 62
     7
370
    50
100
AcDbBlockReference
  2
OBJ3
 10
0.0
 20
0.0
 30
0.0
  0
INSERT
  5
178
102
{ACAD_REACTORS
330
60D
102
}
330
1F
100
AcDbEntity
  8
LC-004-100-D01-0
 62
     7
370
    50
100
AcDbBlockReference
  2
OBJ4
 10
0.0
 20
0.0
 30
0.0
  0
INSERT
  5
17E
102
{ACAD_REACTORS
330
60D
102
}
330
1F
100
AcDbEntity
  8
LC-004-100-D01-0
 62
     7
370
    50
100
AcDbBlockReference
  2
OBJ5
 10
0.0
 20
0.0
 30
0.0
  0
INSERT
  5
185
102
{ACAD_REACTORS
330
60D
102
}
330
1F
100
AcDbEntity
  8
LC-004-100-D01-0
 62
     7
370
    50
100
AcDbBlockReference
  2
OBJ6
 10
0.0
 20
0.0
 30
0.0
  0
LINE
  5
186
102
{ACAD_REACTORS
330
60B
102
}
330
1F
100
AcDbEntity
  8
LC-004-100-D01-0
 62
     7
370
    50
100
AcDbLine
 10
490.425345
 20
1869.782653
 30
0.0
 11
1324.913241
 21
1869.782653
 31
0.0
  0
ARC
  5
188
102
{ACAD_REACTORS
330
60B
102
}
330
1F
100
AcDbEntity
  8
LC-010-100-D00-0
 62
     7
370
    50
100
AcDbCircle
 10
490.425345
 20
1861.782653
 30
0.0
 40
8.0
100
AcDbArc
 50
90.0
 51
173.02175
  0
ARC
  5
189
102
{ACAD_REACTORS
330
60B
102
}
330
1F
100
AcDbEntity
  8
LC-010-100-D00-0
 62
     7
370
    50
100
AcDbCircle
 10
490.422123
 20
1377.782653
 30
0.0
 40
8.000000000000187
100
AcDbArc
 50
186.977487
 51
270.0
  0
LINE
  5
18A
102
{ACAD_REACTORS
330
60B
102
}
330
1F
100
AcDbEntity
  8
LC-004-100-D01-0
 62
     7
370
    50
100
AcDbLine
 10
490.422123
 20
1369.782653
 30
0.0
 11
1324.916462
 21
1369.782653
 31
0.0
  0
ARC
  5
18B
102
{ACAD_REACTORS
330
60B
102
}
330
1F
100
AcDbEntity
  8
LC-010-100-D00-0
 62
     7
370
    50
100
AcDbCircle
 10
1324.913241
 20
1861.782653
 30
0.0
 40
7.999999999999795
100
AcDbArc
 50
6.97825
 51
90.0
  0
ARC
  5
18C
102
{ACAD_REACTORS
330
60B
102
}
330
1F
100
AcDbEntity
  8
LC-010-100-D00-0
 62
     7
370
    50
100
AcDbCircle
 10
1324.916462
 20
1377.782653
 30
0.0
 40
8.0
100
AcDbArc
 50
270.0
 51
353.022513
  0
ARC
  5
18D
102
{ACAD_REACTORS
330
60B
102
}
330
1F
100
AcDbEntity
  8
LC-004-100-D01-0
 62
     7
370
    50
100
AcDbCircle
 10
2467.669293
 20
1619.769491
 30
0.0
 40
2000.0
100
AcDbArc
 50
173.02175
 51
186.977487
  0
ARC
  5
18E
102
{ACAD_REACTORS
330
60B
102
}
330
1F
100
AcDbEntity
  8
LC-004-100-D01-0
 62
     7
370
    50
100
AcDbCircle
 10
-652.330707
 20
1619.769491
 30
0.0
 40
2000.0
100
AcDbArc
 50
353.022513
 51
6.97825
  0
ARC
  5
18F
102
{ACAD_REACTORS
330
60B
102
}
330
1F
100
AcDbEntity
  8
LC-004-100-D01-0
 62
     7
370
    25
100
AcDbCircle
 10
2937.669293
 20
1619.769491
 30
0.0
 40
1980.989114
100
AcDbArc
 50
175.260425
 51
184.739575
  0
LINE
  5
190
102
{ACAD_REACTORS
330
60B
102
}
330
1F
100
AcDbEntity
  8
LC-004-100-D01-0
 62
     7
370
    25
100
AcDbLine
 10
985.378839
 20
1803.634653
 30
0.0
 11
1252.65724
 21
1803.634653
 31
0.0
  0
ARC
  5
191
102
{ACAD_REACTORS
330
60B
102
}
330
1F
100
AcDbEntity
  8
LC-004-100-D01-0
 62
     7
370
    25
100
AcDbCircle
 10
-652.330707
 20
1619.769491
 30
0.0
 40
1933.852351
100
AcDbArc
 50
355.143293
 51
4.856707
  0
CIRCLE
  5
192
102
{ACAD_REACTORS
330
60B
102
}
330
1F
100
AcDbEntity
  8
LC-004-100-D01-0
 62
     7
370
    50
100
AcDbCircle
 10
1045.669293
 20
1619.769491
 30
0.0
 40
45.16633100000013
  0
LINE
  5
193
102
{ACAD_REACTORS
330
60B
102
}
330
1F
100
AcDbEntity
  8
LC-004-100-D01-0
 62
     7
370
    25
100
AcDbLine
 10
985.378839
 20
1435.904329
 30
0.0
 11
1252.65724
 21
1435.904329
 31
0.0
  0
ARC
  5
194
102
{ACAD_REACTORS
330
60B
102
}
330
1F
100
AcDbEntity
  8
LC-010-100-D00-0
 62
     7
370
    25
100
AcDbCircle
 10
985.378839
 20
1781.634653
 30
0.0
 40
22.0
100
AcDbArc
 50
90.0
 51
175.260425
  0
ARC
  5
195
102
{ACAD_REACTORS
330
60B
102
}
330
1F
100
AcDbEntity
  8
LC-010-100-D00-0
 62
     7
370
    25
100
AcDbCircle
 10
1252.65724
 20
1781.634653
 30
0.0
 40
21.99999999999983
100
AcDbArc
 50
4.856707
 51
90.0
  0
ARC
  5
196
102
{ACAD_REACTORS
330
60B
102
}
330
1F
100
AcDbEntity
  8
LC-004-100-D01-0
 62
     7
370
    50
100
AcDbCircle
 10
2937.669293
 20
1619.769491
 30
0.0
 40
2000.000001000001
100
AcDbArc
 50
174.095097
 51
185.904903
  0
ARC
  5
197
102
{ACAD_REACTORS
330
60B
102
}
330
1F
100
AcDbEntity
  8
LC-010-100-D00-0
 62
     7
370
    50
100
AcDbCircle
 10
964.207166
 20
1823.986814
 30
0.0
 40
16.00000000000002
100
AcDbArc
 50
126.973162
 51
174.484004
  0
ARC
  5
198
102
{ACAD_REACTORS
330
60B
102
}
330
1F
100
AcDbEntity
  8
LC-010-100-D00-0
 62
     7
370
    50
100
AcDbCircle
 10
964.207166
 20
1415.552169
 30
0.0
 40
16.00000000000014
100
AcDbArc
 50
185.515996
 51
233.026838
  0
LINE
  5
199
102
{ACAD_REACTORS
330
60B
102
}
330
1F
100
AcDbEntity
  8
LC-004-100-D01-0
 62
     7
370
    25
100
AcDbLine
 10
515.362964
 20
1402.769491
 30
0.0
 11
954.584111
 21
1402.769491
 31
0.0
  0
LINE
  5
19A
102
{ACAD_REACTORS
330
60B
102
}
330
1F
100
AcDbEntity
  8
LC-004-100-D01-0
 62
     7
370
    25
100
AcDbLine
 10
515.362964
 20
1836.769491
 30
0.0
 11
954.584113
 21
1836.769491
 31
0.0
  0
ARC
  5
19B
102
{ACAD_REACTORS
330
60B
102
}
330
1F
100
AcDbEntity
  8
LC-004-100-D01-0
 62
     7
370
    25
100
AcDbCircle
 10
2467.669293
 20
1619.769491
 30
0.0
 40
1967.0
100
AcDbArc
 50
173.744557
 51
186.255443
  0
ARC
  5
19C
102
{ACAD_REACTORS
330
60B
102
}
330
1F
100
AcDbEntity
  8
LC-004-100-D01-0
 62
     7
370
    50
100
AcDbCircle
 10
1816.669292
 20
1619.769491
 30
0.0
 40
999.9999999999999
100
AcDbArc
 50
172.298614
 51
187.701386
  0
LINE
  5
19D
102
{ACAD_REACTORS
330
60B
102
}
330
1F
100
AcDbEntity
  8
LC-004-100-D01-0
 62
     7
370
    50
100
AcDbLine
 10
840.554032
 20
1766.769491
 30
0.0
 11
926.997513
 21
1766.769491
 31
0.0
  0
ARC
  5
19E
102
{ACAD_REACTORS
330
60B
102
}
330
1F
100
AcDbEntity
  8
LC-010-100-D00-0
 62
     7
370
    25
100
AcDbCircle
 10
515.362964
 20
1833.769491
 30
0.0
 40
3.0
100
AcDbArc
 50
90.0
 51
173.744557
  0
ARC
  5
19F
102
{ACAD_REACTORS
330
60B
102
}
330
1F
100
AcDbEntity
  8
LC-010-100-D00-0
 62
     7
370
    50
100
AcDbCircle
 10
926.997513
 20
1751.769491
 30
0.0
 40
14.99999999999968
100
AcDbArc
 50
356.243939
 51
90.0
  0
LINE
  5
1A0
102
{ACAD_REACTORS
330
60B
102
}
330
1F
100
AcDbEntity
  8
LC-004-100-D01-0
 62
     7
370
    50
100
AcDbLine
 10
840.554032
 20
1472.769491
 30
0.0
 11
926.997513
 21
1472.769491
 31
0.0
  0
ARC
  5
1A1
102
{ACAD_REACTORS
330
60B
102
}
330
1F
100
AcDbEntity
  8
LC-010-100-D00-0
 62
     7
370
    50
100
AcDbCircle
 10
926.997513
 20
1487.769491
 30
0.0
 40
15.0
100
AcDbArc
 50
270.0
 51
3.756061
  0
ARC
  5
1A2
102
{ACAD_REACTORS
330
60B
102
}
330
1F
100
AcDbEntity
  8
LC-010-100-D00-0
 62
     7
370
    25
100
AcDbCircle
 10
1252.65724
 20
1457.904329
 30
0.0
 40
22.0
100
AcDbArc
 50
270.0
 51
355.143293
  0
ARC
  5
1A3
102
{ACAD_REACTORS
330
60B
102
}
330
1F
100
AcDbEntity
  8
LC-010-100-D00-0
 62
     7
370
    50
100
AcDbCircle
 10
840.554032
 20
1751.769491
 30
0.0
 40
15.0
100
AcDbArc
 50
90.0
 51
172.298614
  0
ARC
  5
1A4
102
{ACAD_REACTORS
330
60B
102
}
330
1F
100
AcDbEntity
  8
LC-010-100-D00-0
 62
     7
370
    50
100
AcDbCircle
 10
840.554032
 20
1487.769491
 30
0.0
 40
14.99999999999973
100
AcDbArc
 50
187.701386
 51
270.0
  0
ARC
  5
1A5
102
{ACAD_REACTORS
330
60B
102
}
330
1F
100
AcDbEntity
  8
LC-010-100-D00-0
 62
     7
370
    25
100
AcDbCircle
 10
515.362964
 20
1405.769491
 30
0.0
 40
2.999999999999932
100
AcDbArc
 50
186.255443
 51
270.0
  0
LINE
  5
1A6
102
{ACAD_REACTORS
330
60B
102
}
330
1F
100
AcDbEntity
  8
LC-004-100-D01-0
 62
     7
370
    25
100
AcDbLine
 10
552.780262
 20
1479.769491
 30
0.0
 11
835.327523
 21
1473.709491
 31
0.0
  0
LINE
  5
1A7
102
{ACAD_REACTORS
330
60B
102
}
330
1F
100
AcDbEntity
  8
LC-004-100-D01-0
 62
     7
370
    25
100
AcDbLine
 10
552.780262
 20
1479.769491
 30
0.0
 11
825.679848
 21
1485.829491
 31
0.0
  0
LINE
  5
1A8
102
{ACAD_REACTORS
330
60B
102
}
330
1F
100
AcDbEntity
  8
LC-004-100-D01-0
 62
     7
370
    25
100
AcDbLine
 10
547.669293
 20
1619.769491
 30
0.0
 11
816.687653
 21
1625.829491
 31
0.0
  0
LINE
  5
1A9
102
{ACAD_REACTORS
330
60B
102
}
330
1F
100
AcDbEntity
  8
LC-004-100-D01-0
 62
     7
370
    25
100
AcDbLine
 10
547.669293
 20
1619.769491
 30
0.0
 11
816.687653
 21
1613.709491
 31
0.0
  0
LINE
  5
1AA
102
{ACAD_REACTORS
330
60B
102
}
330
1F
100
AcDbEntity
  8
LC-004-100-D01-0
 62
     7
370
    25
100
AcDbLine
 10
548.945759
 20
1689.769491
 30
0.0
 11
819.566049
 21
1695.829491
 31
0.0
  0
LINE
  5
1AB
102
{ACAD_REACTORS
330
60B
102
}
330
1F
100
AcDbEntity
  8
LC-004-100-D01-0
 62
     7
370
    25
100
AcDbLine
 10
548.945759
 20
1689.769491
 30
0.0
 11
818.715547
 21
1683.709491
 31
0.0
  0
LINE
  5
1AC
102
{ACAD_REACTORS
330
60B
102
}
330
1F
100
AcDbEntity
  8
LC-004-100-D01-0
 62
     7
370
    25
100
AcDbLine
 10
552.780262
 20
1759.769491
 30
0.0
 11
835.327523
 21
1765.829491
 31
0.0
  0
LINE
  5
1AD
102
{ACAD_REACTORS
330
60B
102
}
330
1F
100
AcDbEntity
  8
LC-004-100-D01-0
 62
     7
370
    25
100
AcDbLine
 10
552.780262
 20
1759.769491
 30
0.0
 11
825.679848
 21
1753.709491
 31
0.0
  0
LINE
  5
1AE
102
{ACAD_REACTORS
330
60B
102
}
330
1F
100
AcDbEntity
  8
LC-004-100-D01-0
 62
     7
370
    25
100
AcDbLine
 10
548.945759
 20
1549.769491
 30
0.0
 11
819.566049
 21
1543.709491
 31
0.0
  0
LINE
  5
1AF
102
{ACAD_REACTORS
330
60B
102
}
330
1F
100
AcDbEntity
  8
LC-004-100-D01-0
 62
     7
370
    25
100
AcDbLine
 10
548.945759
 20
1549.769491
 30
0.0
 11
818.715547
 21
1555.829491
 31
0.0
  0
LINE
  5
1B0
102
{ACAD_REACTORS
330
60D
102
}
330
1F
100
AcDbEntity
  8
LC-004-100-D01-0
 62
     7
370
    50
100
AcDbLine
 10
1104.639818
 20
2350.9923
 30
0.0
 11
1266.767743
 21
2356.653932
 31
0.0
  0
LINE
  5
1B1
102
{ACAD_REACTORS
330
60D
102
}
330
1F
100
AcDbEntity
  8
LC-004-100-D01-0
 62
     7
370
    50
100
AcDbLine
 10
1111.58308
 20
2342.229279
 30
0.0
 11
1272.735768
 21
2347.856854
 31
0.0
  0
ARC
  5
1B2
102
{ACAD_REACTORS
330
60D
102
}
330
1F
100
AcDbEntity
  8
LC-004-100-D01-0
 62
     7
370
    50
100
AcDbCircle
 10
816.669292
 20
2529.930896
 30
0.0
 40
4.999999999999641
100
AcDbArc
 50
36.434545
 51
89.456113
  0
ARC
  5
1B3
102
{ACAD_REACTORS
330
60D
102
}
330
1F
100
AcDbEntity
  8
LC-004-100-D01-0
 62
     7
370
    50
100
AcDbCircle
 10
940.845903
 20
2507.11667
 30
0.0
 40
21.53702999999986
100
AcDbArc
 50
115.932419
 51
140.658049
  0
LINE
  5
1B4
102
{ACAD_REACTORS
330
60D
102
}
330
1F
100
AcDbEntity
  8
LC-004-100-D01-0
 62
     7
370
    50
100
AcDbLine
 10
816.716754
 20
2534.930671
 30
0.0
 11
500.667788
 21
2537.930895
 31
0.0
  0
LINE
  5
1B5
102
{ACAD_REACTORS
330
60D
102
}
330
1F
100
AcDbEntity
  8
LC-004-100-D01-0
 62
     7
370
    50
100
AcDbLine
 10
467.669293
 20
2535.930896
 30
0.0
 11
489.669293
 21
2535.930896
 31
0.0
  0
LINE
  5
1B6
102
{ACAD_REACTORS
330
60D
102
}
330
1F
100
AcDbEntity
  8
LC-004-100-D01-0
 62
     7
370
    50
100
AcDbLine
 10
475.869293
 20
2542.930896
 30
0.0
 11
478.869146
 21
2542.930896
 31
0.0
  0
LINE
  5
1B7
102
{ACAD_REACTORS
330
60D
102
}
330
1F
100
AcDbEntity
  8
LC-004-100-D01-0
 62
     7
370
    25
100
AcDbLine
 10
1103.752961
 20
2350.930896
 30
0.0
 11
987.252961
 21
2350.930896
 31
0.0
  0
LINE
  5
1B8
102
{ACAD_REACTORS
330
60D
102
}
330
1F
100
AcDbEntity
  8
LC-004-100-D01-0
 62
     7
370
    50
100
AcDbLine
 10
999.634721
 20
2346.778511
 30
0.0
 11
988.183608
 21
2348.797651
 31
0.0
  0
ARC
  5
1B9
102
{ACAD_REACTORS
330
60D
102
}
330
1F
100
AcDbEntity
  8
LC-010-100-D00-0
 62
     7
370
    50
100
AcDbCircle
 10
979.283245
 20
2338.231715
 30
0.0
 40
4.000000000000061
100
AcDbArc
 50
16.451092
 51
88.0
  0
ARC
  5
1BA
102
{ACAD_REACTORS
330
60D
102
}
330
1F
100
AcDbEntity
  8
LC-010-100-D00-0
 62
     7
370
    50
100
AcDbCircle
 10
986.331205
 20
2349.99291
 30
0.0
 40
1.000000000000293
100
AcDbArc
 50
5.0
 51
88.0
  0
LINE
  5
1BB
102
{ACAD_REACTORS
330
60D
102
}
330
1F
100
AcDbEntity
  8
LC-004-100-D01-0
 62
     7
370
    50
100
AcDbLine
 10
987.361062
 20
2349.695303
 30
0.0
 11
987.3274
 21
2350.080065
 31
0.0
  0
ARC
  5
1BC
102
{ACAD_REACTORS
330
60D
102
}
330
1F
100
AcDbEntity
  8
LC-010-100-D00-0
 62
     7
370
    50
100
AcDbCircle
 10
985.037615
 20
2339.930896
 30
0.0
 40
2.000000000000095
100
AcDbArc
 50
196.451092
 51
270.0
  0
ARC
  5
1BD
102
{ACAD_REACTORS
330
60D
102
}
330
1F
100
AcDbEntity
  8
LC-010-100-D00-0
 62
     7
370
    50
100
AcDbCircle
 10
988.357257
 20
2349.782459
 30
0.0
 40
0.9999999999998402
100
AcDbArc
 50
185.0
 51
260.0
  0
ARC
  5
1BE
102
{ACAD_REACTORS
330
60D
102
}
330
1F
100
AcDbEntity
  8
LC-010-100-D00-0
 62
     7
370
    50
100
AcDbCircle
 10
998.76648
 20
2341.854472
 30
0.0
 40
4.999999999999924
100
AcDbArc
 50
69.677972
 51
80.0
  0
LINE
  5
1BF
102
{ACAD_REACTORS
330
60D
102
}
330
1F
100
AcDbEntity
  8
LC-004-100-D01-0
 62
     7
370
    50
100
AcDbLine
 10
1091.371202
 20
2346.778511
 30
0.0
 11
1102.822314
 21
2348.79765
 31
0.0
  0
LINE
  5
1C0
102
{ACAD_REACTORS
330
60D
102
}
330
1F
100
AcDbEntity
  8
LC-004-100-D01-0
 62
     7
370
    50
100
AcDbLine
 10
877.849565
 20
2526.446088
 30
0.0
 11
879.873059
 21
2526.089291
 31
0.0
  0
ARC
  5
1C1
102
{ACAD_REACTORS
330
60D
102
}
330
1F
100
AcDbEntity
  8
LC-010-100-D00-0
 62
     7
370
    50
100
AcDbCircle
 10
1092.239443
 20
2341.854472
 30
0.0
 40
5.000000000000097
100
AcDbArc
 50
100.0
 51
110.32204
  0
LINE
  5
1C2
102
{ACAD_REACTORS
330
60D
102
}
330
1F
100
AcDbEntity
  8
LC-004-100-D01-0
 62
     7
370
    50
100
AcDbLine
 10
1105.968308
 20
2337.930896
 30
0.0
 11
1090.502961
 21
2337.930896
 31
0.0
  0
ARC
  5
1C3
102
{ACAD_REACTORS
330
60D
102
}
330
1F
100
AcDbEntity
  8
LC-010-100-D00-0
 62
     7
370
    50
100
AcDbCircle
 10
1105.968308
 20
2339.930896
 30
0.0
 40
2.0
100
AcDbArc
 50
270.0
 51
343.548908
  0
ARC
  5
1C4
102
{ACAD_REACTORS
330
60D
102
}
330
1F
100
AcDbEntity
  8
LC-010-100-D00-0
 62
     7
370
    50
100
AcDbCircle
 10
1111.722678
 20
2338.231715
 30
0.0
 40
3.999999999999834
100
AcDbArc
 50
92.0
 51
163.548908
  0
LINE
  5
1C5
102
{ACAD_REACTORS
330
60D
102
}
330
1F
100
AcDbEntity
  8
LC-004-100-D01-0
 62
     7
370
    50
100
AcDbLine
 10
1090.502961
 20
2337.930896
 30
0.0
 11
1090.502961
 21
2346.54325
 31
0.0
  0
LINE
  5
1C6
102
{ACAD_REACTORS
330
60D
102
}
330
1F
100
AcDbEntity
  8
LC-004-100-D01-0
 62
     7
370
    50
100
AcDbLine
 10
1000.502961
 20
2337.930896
 30
0.0
 11
1000.502961
 21
2346.54325
 31
0.0
  0
LINE
  5
1C7
102
{ACAD_REACTORS
330
60D
102
}
330
1F
100
AcDbEntity
  8
LC-004-100-D01-0
 62
     7
370
    50
100
AcDbLine
 10
1103.644861
 20
2349.695303
 30
0.0
 11
1103.678523
 21
2350.080064
 31
0.0
  0
LINE
  5
1C8
102
{ACAD_REACTORS
330
60D
102
}
330
1F
100
AcDbEntity
  8
LC-004-100-D01-0
 62
     7
370
    50
100
AcDbLine
 10
985.037615
 20
2337.930896
 30
0.0
 11
1000.502961
 21
2337.930896
 31
0.0
  0
LINE
  5
1C9
102
{ACAD_REACTORS
330
60D
102
}
330
1F
100
AcDbEntity
  8
LC-004-100-D01-0
  6
DASHDOT
 62
     7
370
    25
100
AcDbLine
 10
909.873059
 20
2519.430896
 30
0.0
 11
909.873059
 21
2526.089292
 31
0.0
  0
LINE
  5
1CA
102
{ACAD_REACTORS
330
60D
102
}
330
1F
100
AcDbEntity
  8
LC-004-100-D01-0
 62
     7
370
    50
100
AcDbLine
 10
971.916257
 20
2351.4969
 30
0.0
 11
986.366104
 21
2350.9923
 31
0.0
  0
LINE
  5
1CB
102
{ACAD_REACTORS
330
60D
102
}
330
1F
100
AcDbEntity
  8
LC-004-100-D01-0
 62
     7
370
    50
100
AcDbLine
 10
965.658128
 20
2342.709953
 30
0.0
 11
979.422843
 21
2342.229279
 31
0.0
  0
ARC
  5
1CC
102
{ACAD_REACTORS
330
60D
102
}
330
1F
100
AcDbEntity
  8
LC-010-100-D00-0
 62
     7
370
    50
100
AcDbCircle
 10
921.20309
 20
2523.430896
 30
0.0
 40
4.0
100
AcDbArc
 50
270.0
 51
318.300714
  0
LINE
  5
1CD
102
{ACAD_REACTORS
330
60D
102
}
330
1F
100
AcDbEntity
  8
LC-004-100-D01-0
 62
     7
370
    50
100
AcDbLine
 10
467.669292
 20
2535.930896
 30
0.0
 11
467.881646
 21
2538.967697
 31
0.0
  0
LINE
  5
1CE
102
{ACAD_REACTORS
330
60D
102
}
330
1F
100
AcDbEntity
  8
LC-005-006-MLN-0
 62
     7
370
    25
100
AcDbLine
 10
1045.669293
 20
2334.930896
 30
0.0
 11
1045.669293
 21
2353.930896
 31
0.0
  0
LINE
  5
1CF
102
{ACAD_REACTORS
330
60D
102
}
330
1F
100
AcDbEntity
  8
LC-004-100-D01-0
 62
     7
370
    50
100
AcDbLine
 10
870.78939
 20
2519.430896
 30
0.0
 11
879.873059
 21
2519.430896
 31
0.0
  0
ARC
  5
1D0
102
{ACAD_REACTORS
330
60D
102
}
330
1F
100
AcDbEntity
  8
LC-004-100-D01-0
 62
     7
370
    50
100
AcDbCircle
 10
500.915477
 20
2564.022943
 30
0.0
 40
26.09322300000013
100
AcDbArc
 50
244.4377
 51
269.456114
  0
ARC
  5
1D1
102
{ACAD_REACTORS
330
60D
102
}
330
1F
100
AcDbEntity
  8
LC-010-100-D00-0
 62
     7
370
    50
100
AcDbCircle
 10
878.023213
 20
2527.430896
 30
0.0
 40
0.9999999999999444
100
AcDbArc
 50
193.54784
 51
260.0
  0
ARC
  5
1D2
102
{ACAD_REACTORS
330
60D
102
}
330
1F
100
AcDbEntity
  8
LC-004-100-D01-0
 62
     7
370
    50
100
AcDbCircle
 10
478.869146
 20
2517.930896
 30
0.0
 40
24.99999999999984
100
AcDbArc
 50
64.4377
 51
90.0
  0
ARC
  5
1D3
102
{ACAD_REACTORS
330
60D
102
}
330
1F
100
AcDbEntity
  8
LC-004-100-D01-0
 62
     7
370
    50
100
AcDbCircle
 10
500.915477
 20
2564.022943
 30
0.0
 40
35.09333099999996
100
AcDbArc
 50
251.308952
 51
269.59806
  0
LINE
  5
1D4
102
{ACAD_REACTORS
330
60D
102
}
330
1F
100
AcDbEntity
  8
LC-004-100-D01-0
 62
     7
370
    50
100
AcDbLine
 10
813.108674
 20
2525.964516
 30
0.0
 11
500.581006
 21
2528.931313
 31
0.0
  0
ARC
  5
1D5
102
{ACAD_REACTORS
330
60D
102
}
330
1F
100
AcDbEntity
  8
LC-010-100-D00-0
 62
     7
370
    50
100
AcDbCircle
 10
813.070704
 20
2521.964697
 30
0.0
 40
4.000000000000081
100
AcDbArc
 50
44.37901
 51
89.456113
  0
LINE
  5
1D6
102
{ACAD_REACTORS
330
60D
102
}
330
1F
100
AcDbEntity
  8
LC-004-100-D01-0
 62
     7
370
    25
100
AcDbLine
 10
937.686368
 20
2534.930896
 30
0.0
 11
817.707143
 21
2534.930896
 31
0.0
  0
ARC
  5
1D7
102
{ACAD_REACTORS
330
60D
102
}
330
1F
100
AcDbEntity
  8
LC-004-100-D01-0
 62
     7
370
    50
100
AcDbCircle
 10
825.513934
 20
2534.14108
 30
0.0
 40
13.40971799999988
100
AcDbArc
 50
224.37901
 51
268.000106
  0
ARC
  5
1D8
102
{ACAD_REACTORS
330
60D
102
}
330
1F
100
AcDbEntity
  8
LC-010-100-D00-0
 62
     7
370
    50
100
AcDbCircle
 10
933.176773
 20
2522.887905
 30
0.0
 40
3.999999999999814
100
AcDbArc
 50
5.0
 51
115.932419
  0
ARC
  5
1D9
102
{ACAD_REACTORS
330
60D
102
}
330
1F
100
AcDbEntity
  8
LC-004-100-D01-0
 62
     7
370
    50
100
AcDbCircle
 10
937.669293
 20
2528.906373
 30
0.0
 40
6.000031000000124
100
AcDbArc
 50
5.0
 51
89.836942
  0
LINE
  5
1DA
102
{ACAD_REACTORS
330
60D
102
}
330
1F
100
AcDbEntity
  8
LC-004-100-D01-0
 62
     7
370
    50
100
AcDbLine
 10
943.646492
 20
2529.42931
 30
0.0
 11
956.976658
 21
2377.064822
 31
0.0
  0
LINE
  5
1DB
102
{ACAD_REACTORS
330
60D
102
}
330
1F
100
AcDbEntity
  8
LC-004-100-D01-0
 62
     7
370
    50
100
AcDbLine
 10
937.161551
 20
2523.236528
 30
0.0
 11
950.718568
 21
2368.279118
 31
0.0
  0
LINE
  5
1DC
102
{ACAD_REACTORS
330
60D
102
}
330
1F
100
AcDbEntity
  8
LC-004-100-D01-0
 62
     7
370
    25
100
AcDbLine
 10
912.748169
 20
2527.930896
 30
0.0
 11
876.873059
 21
2527.930896
 31
0.0
  0
LINE
  5
1DD
102
{ACAD_REACTORS
330
60D
102
}
330
1F
100
AcDbEntity
  8
LC-004-100-D01-0
 62
     7
370
    50
100
AcDbLine
 10
913.632355
 20
2527.961772
 30
0.0
 11
920.188097
 21
2528.190704
 31
0.0
  0
ARC
  5
1DE
102
{ACAD_REACTORS
330
60D
102
}
330
1F
100
AcDbEntity
  8
LC-010-100-D00-0
 62
     7
370
    50
100
AcDbCircle
 10
876.078864
 20
2526.962382
 30
0.0
 40
0.9999999999998379
100
AcDbArc
 50
13.54784
 51
88.0
  0
LINE
  5
1DF
102
{ACAD_REACTORS
330
60D
102
}
330
1F
100
AcDbEntity
  8
LC-004-100-D01-0
  6
DASHDOT
 62
     7
370
    25
100
AcDbLine
 10
879.873059
 20
2519.430896
 30
0.0
 11
879.873059
 21
2526.089292
 31
0.0
  0
ARC
  5
1E0
102
{ACAD_REACTORS
330
60D
102
}
330
1F
100
AcDbEntity
  8
LC-010-100-D00-0
 62
     7
370
    50
100
AcDbCircle
 10
913.667255
 20
2526.962382
 30
0.0
 40
0.9999999999998488
100
AcDbArc
 50
92.0
 51
166.45216
  0
LINE
  5
1E1
102
{ACAD_REACTORS
330
60D
102
}
330
1F
100
AcDbEntity
  8
LC-004-100-D01-0
 62
     7
370
    50
100
AcDbLine
 10
825.332991
 20
2529.735076
 30
0.0
 11
876.113763
 21
2527.961772
 31
0.0
  0
ARC
  5
1E2
102
{ACAD_REACTORS
330
60D
102
}
330
1F
100
AcDbEntity
  8
LC-010-100-D00-0
 62
     7
370
    50
100
AcDbCircle
 10
870.78939
 20
2518.430896
 30
0.0
 40
1.0
100
AcDbArc
 50
90.0
 51
119.191155
  0
LINE
  5
1E3
102
{ACAD_REACTORS
330
60D
102
}
330
1F
100
AcDbEntity
  8
LC-004-100-D01-0
 62
     7
370
    50
100
AcDbLine
 10
909.873059
 20
2526.089291
 30
0.0
 11
911.896554
 21
2526.446088
 31
0.0
  0
LINE
  5
1E4
102
{ACAD_REACTORS
330
60D
102
}
330
1F
100
AcDbEntity
  8
LC-004-100-D01-0
 62
     7
370
    50
100
AcDbLine
 10
825.045941
 20
2520.739531
 30
0.0
 11
869.779041
 21
2519.1775
 31
0.0
  0
ARC
  5
1E5
102
{ACAD_REACTORS
330
60D
102
}
330
1F
100
AcDbEntity
  8
LC-010-100-D00-0
 62
     7
370
    50
100
AcDbCircle
 10
869.813941
 20
2520.176891
 30
0.0
 40
1.000000000000287
100
AcDbArc
 50
268.0
 51
299.191155
  0
ARC
  5
1E6
102
{ACAD_REACTORS
330
60D
102
}
330
1F
100
AcDbEntity
  8
LC-010-100-D00-0
 62
     7
370
    50
100
AcDbCircle
 10
911.722906
 20
2527.430896
 30
0.0
 40
1.000000000000125
100
AcDbArc
 50
280.0
 51
346.45216
  0
ARC
  5
1E7
102
{ACAD_REACTORS
330
60D
102
}
330
1F
100
AcDbEntity
  8
LC-004-100-D01-0
 62
     7
370
    50
100
AcDbCircle
 10
1356.604302
 20
2494.429663
 30
0.0
 40
48.93490099999991
100
AcDbArc
 50
129.210151
 51
149.510558
  0
ARC
  5
1E8
102
{ACAD_REACTORS
330
60D
102
}
330
1F
100
AcDbEntity
  8
LC-004-100-D01-0
 62
     7
370
    50
100
AcDbCircle
 10
1379.876362
 20
2479.788565
 30
0.0
 40
76.42183699999993
100
AcDbArc
 50
148.904166
 51
164.1996
  0
ARC
  5
1E9
102
{ACAD_REACTORS
330
60D
102
}
330
1F
100
AcDbEntity
  8
LC-004-100-D01-0
 62
     7
370
    50
100
AcDbCircle
 10
1539.925363
 20
2433.605955
 30
0.0
 40
242.9999999999999
100
AcDbArc
 50
163.997203
 51
173.0
  0
LINE
  5
1EA
102
{ACAD_REACTORS
330
60D
102
}
330
1F
100
AcDbEntity
  8
LC-004-100-D01-0
 62
     7
370
    50
100
AcDbLine
 10
1336.469439
 20
2542.930896
 30
0.0
 11
480.720416
 21
2542.930896
 31
0.0
  0
LINE
  5
1EB
102
{ACAD_REACTORS
330
60D
102
}
330
1F
100
AcDbEntity
  8
LC-004-100-D01-0
 62
     7
370
    50
100
AcDbLine
 10
1298.736648
 20
2463.220205
 30
0.0
 11
1287.326953
 21
2370.295701
 31
0.0
  0
LINE
  5
1EC
102
{ACAD_REACTORS
330
60D
102
}
330
1F
100
AcDbEntity
  8
LC-004-100-D01-0
 62
     7
370
    50
100
AcDbLine
 10
1347.669293
 20
2535.930896
 30
0.0
 11
1325.669293
 21
2535.930896
 31
0.0
  0
LINE
  5
1ED
102
{ACAD_REACTORS
330
60D
102
}
330
1F
100
AcDbEntity
  8
LC-004-100-D01-0
 62
     7
370
    50
100
AcDbLine
 10
1339.469293
 20
2542.930896
 30
0.0
 11
1336.469439
 21
2542.930896
 31
0.0
  0
ARC
  5
1EE
102
{ACAD_REACTORS
330
60D
102
}
330
1F
100
AcDbEntity
  8
LC-004-100-D01-0
 62
     7
370
    50
100
AcDbCircle
 10
1539.925363
 20
2433.605955
 30
0.0
 40
249.9999999999997
100
AcDbArc
 50
164.0
 51
173.0
  0
LINE
  5
1EF
102
{ACAD_REACTORS
330
60D
102
}
330
1F
100
AcDbEntity
  8
LC-004-100-D01-0
 62
     7
370
    50
100
AcDbLine
 10
1281.521618
 20
2380.453599
 30
0.0
 11
1291.788825
 21
2464.073291
 31
0.0
  0
ARC
  5
1F0
102
{ACAD_REACTORS
330
60D
102
}
330
1F
100
AcDbEntity
  8
LC-004-100-D01-0
 62
     7
370
    50
100
AcDbCircle
 10
1336.469439
 20
2517.930896
 30
0.0
 40
24.99999999999955
100
AcDbArc
 50
90.0
 51
128.185654
  0
LINE
  5
1F1
102
{ACAD_REACTORS
330
60D
102
}
330
1F
100
AcDbEntity
  8
LC-004-100-D01-0
 62
     7
370
    50
100
AcDbLine
 10
1347.669293
 20
2535.930896
 30
0.0
 11
1347.457051
 21
2538.966095
 31
0.0
  0
CIRCLE
  5
1F2
102
{ACAD_REACTORS
330
60B
102
}
330
1F
100
AcDbEntity
  8
LC-004-100-D01-0
 62
     7
370
    50
100
AcDbCircle
 10
894.873059
 20
1619.769491
 30
0.0
 40
18.0
  0
CIRCLE
  5
1F3
102
{ACAD_REACTORS
330
60B
102
}
330
1F
100
AcDbEntity
  8
LC-004-100-D01-0
  6
DASHED
 62
     7
370
    25
100
AcDbCircle
 10
897.669293
 20
1802.282653
 30
0.0
 40
17.5
  0
ARC
  5
1F4
102
{ACAD_REACTORS
330
60B
102
}
330
1F
100
AcDbEntity
  8
LC-010-100-D00-0
 62
     7
370
    25
100
AcDbCircle
 10
985.378839
 20
1457.904329
 30
0.0
 40
22.0
100
AcDbArc
 50
184.739575
 51
270.0
  0
CIRCLE
  5
1F5
102
{ACAD_REACTORS
330
60B
102
}
330
1F
100
AcDbEntity
  8
LC-004-100-D01-0
  6
DASHED
 62
     7
370
    25
100
AcDbCircle
 10
897.669293
 20
1437.256329
 30
0.0
 40
17.5
  0
ARC
  5
1F6
102
{ACAD_REACTORS
330
60D
102
}
330
1F
100
AcDbEntity
  8
LC-004-100-D01-0
 62
     7
370
    50
100
AcDbCircle
 10
468.879211
 20
2538.897941
 30
0.0
 40
0.9999999999999008
100
AcDbArc
 50
132.69488
 51
176.0
  0
INSERT
  5
1FD
102
{ACAD_REACTORS
330
60C
102
}
330
1F
100
AcDbEntity
  8
LC-011-100-D04-0
 62
     7
370
    50
100
AcDbBlockReference
  2
OBJ7
 10
0.0
 20
0.0
 30
0.0
  0
LINE
  5
1FE
102
{ACAD_REACTORS
330
60C
102
}
330
1F
100
AcDbEntity
  8
LC-011-100-D04-0
 62
     7
370
    50
100
AcDbLine
 10
1868.862588
 20
1849.139397
 30
0.0
 11
1868.862588
 21
1388.160603
 31
0.0
  0
ARC
  5
1FF
102
{ACAD_REACTORS
330
60C
102
}
330
1F
100
AcDbEntity
  8
LC-004-100-D01-0
 62
     7
370
    50
100
AcDbCircle
 10
1837.459144
 20
1831.853238
 30
0.0
 40
1.999999999999872
100
AcDbArc
 50
295.243921
 51
53.118337
  0
LINE
  5
201
102
{ACAD_REACTORS
330
60C
102
}
330
1F
100
AcDbEntity
  8
LC-012-100-D06-0
 62
     7
370
    50
100
AcDbLine
 10
1858.749296
 20
1845.96075
 30
0.0
 11
1857.582824
 21
1845.96075
 31
0.0
  0
ARC
  5
202
102
{ACAD_REACTORS
330
60C
102
}
330
1F
100
AcDbEntity
  8
LC-004-100-D01-0
 62
     7
370
    50
100
AcDbCircle
 10
1857.582824
 20
1842.96075
 30
0.0
 40
3.0
100
AcDbArc
 50
90.0
 51
117.0
  0
LINE
  5
203
102
{ACAD_REACTORS
330
60C
102
}
330
1F
100
AcDbEntity
  8
LC-011-100-D04-0
 62
     7
370
    50
100
AcDbLine
 10
1856.220852
 20
1845.63377
 30
0.0
 11
1838.95182
 21
1836.834758
 31
0.0
  0
ARC
  5
204
102
{ACAD_REACTORS
330
60C
102
}
330
1F
100
AcDbEntity
  8
LC-004-100-D01-0
 62
     7
370
    50
100
AcDbCircle
 10
1839.859801
 20
1835.052745
 30
0.0
 40
1.999999999999802
100
AcDbArc
 50
117.0
 51
233.118337
  0
LINE
  5
205
102
{ACAD_REACTORS
330
60C
102
}
330
1F
100
AcDbEntity
  8
LC-011-100-D04-0
 62
     7
370
    50
100
AcDbLine
 10
1868.862588
 20
1858.75097
 30
0.0
 11
1868.862588
 21
1855.75097
 31
0.0
  0
LINE
  5
206
102
{ACAD_REACTORS
330
60C
102
}
330
1F
100
AcDbEntity
  8
LC-011-100-D04-0
 62
     7
370
    50
100
AcDbLine
 10
1671.959168
 20
1791.807008
 30
0.0
 11
1668.16097
 21
1683.040869
 31
0.0
  0
LINE
  5
207
102
{ACAD_REACTORS
330
60C
102
}
330
1F
100
AcDbEntity
  8
LC-011-100-D04-0
 62
     7
370
    25
100
AcDbLine
 10
1676.862588
 20
1568.710751
 30
0.0
 11
1676.862588
 21
1675.21075
 31
0.0
  0
LINE
  5
208
102
{ACAD_REACTORS
330
60C
102
}
330
1F
100
AcDbEntity
  8
LC-011-100-D04-0
 62
     7
370
    50
100
AcDbLine
 10
1672.710203
 20
1662.828991
 30
0.0
 11
1674.729343
 21
1674.280104
 31
0.0
  0
ARC
  5
209
102
{ACAD_REACTORS
330
60C
102
}
330
1F
100
AcDbEntity
  8
LC-004-100-D01-0
 62
     7
370
    50
100
AcDbCircle
 10
1664.163407
 20
1683.180467
 30
0.0
 40
4.000000000000061
100
AcDbArc
 50
286.451092
 51
358.0
  0
LINE
  5
20A
102
{ACAD_REACTORS
330
60C
102
}
330
1F
100
AcDbEntity
  8
LC-011-100-D04-0
 62
     7
370
    50
100
AcDbLine
 10
1675.626996
 20
1675.10265
 30
0.0
 11
1676.011756
 21
1675.136312
 31
0.0
  0
ARC
  5
20B
102
{ACAD_REACTORS
330
60C
102
}
330
1F
100
AcDbEntity
  8
LC-004-100-D01-0
 62
     7
370
    50
100
AcDbCircle
 10
1667.786164
 20
1663.697232
 30
0.0
 40
4.999999999999845
100
AcDbArc
 50
339.67796
 51
350.0
  0
LINE
  5
20C
102
{ACAD_REACTORS
330
60C
102
}
330
1F
100
AcDbEntity
  8
LC-011-100-D04-0
 62
     7
370
    50
100
AcDbLine
 10
1680.756091
 20
1785.834566
 30
0.0
 11
1676.923992
 21
1676.097607
 31
0.0
  0
ARC
  5
20D
102
{ACAD_REACTORS
330
60C
102
}
330
1F
100
AcDbEntity
  8
LC-004-100-D01-0
 62
     7
370
    50
100
AcDbCircle
 10
1665.862588
 20
1677.426096
 30
0.0
 40
1.99999999999953
100
AcDbArc
 50
106.451092
 51
180.0
  0
ARC
  5
20E
102
{ACAD_REACTORS
330
60C
102
}
330
1F
100
AcDbEntity
  8
LC-011-100-D04-0
 62
     7
370
    50
100
AcDbCircle
 10
1759.537646
 20
2059.21682
 30
0.0
 40
243.0
100
AcDbArc
 50
277.0
 51
286.002797
  0
ARC
  5
20F
102
{ACAD_REACTORS
330
60C
102
}
330
1F
100
AcDbEntity
  8
LC-011-100-D04-0
 62
     7
370
    50
100
AcDbCircle
 10
1820.361355
 20
1875.89576
 30
0.0
 40
48.93490099999998
100
AcDbArc
 50
300.489442
 51
320.705435
  0
ARC
  5
210
102
{ACAD_REACTORS
330
60C
102
}
330
1F
100
AcDbEntity
  8
LC-011-100-D04-0
 62
     7
370
    50
100
AcDbCircle
 10
1805.720256
 20
1899.16782
 30
0.0
 40
76.42183700000017
100
AcDbArc
 50
285.8004
 51
301.095834
  0
ARC
  5
211
102
{ACAD_REACTORS
330
60C
102
}
330
1F
100
AcDbEntity
  8
LC-004-100-D01-0
 62
     7
370
    50
100
AcDbCircle
 10
1854.362588
 20
1848.071459
 30
0.0
 40
5.000000000000148
100
AcDbArc
 50
320.705435
 51
0.0
  0
LINE
  5
212
102
{ACAD_REACTORS
330
60C
102
}
330
1F
100
AcDbEntity
  8
LC-011-100-D04-0
 62
     7
370
    50
100
AcDbLine
 10
1859.362588
 20
1852.030677
 30
0.0
 11
1859.362588
 21
1848.071459
 31
0.0
  0
ARC
  5
213
102
{ACAD_REACTORS
330
60C
102
}
330
1F
100
AcDbEntity
  8
LC-011-100-D04-0
 62
     7
370
    50
100
AcDbCircle
 10
1759.537646
 20
2059.21682
 30
0.0
 40
249.9999999999999
100
AcDbArc
 50
277.0
 51
286.0
  0
ARC
  5
214
102
{ACAD_REACTORS
330
60C
102
}
330
1F
100
AcDbEntity
  8
LC-011-100-D04-0
 62
     7
370
    50
100
AcDbCircle
 10
1843.862588
 20
1855.760897
 30
0.0
 40
25.00000000000024
100
AcDbArc
 50
321.814346
 51
0.0
  0
LINE
  5
215
102
{ACAD_REACTORS
330
60C
102
}
330
1F
100
AcDbEntity
  8
LC-011-100-D04-0
 62
     7
370
    50
100
AcDbLine
 10
1861.862588
 20
1866.960747
 30
0.0
 11
1864.897602
 21
1866.748517
 31
0.0
  0
LINE
  5
216
102
{ACAD_REACTORS
330
60C
102
}
330
1F
100
AcDbEntity
  8
LC-002-002-----0
 62
     7
370
    50
100
AcDbLine
 10
1859.362588
 20
1852.030677
 30
0.0
 11
1861.864543
 21
1852.030677
 31
0.0
  0
LINE
  5
217
102
{ACAD_REACTORS
330
60C
102
}
330
1F
100
AcDbEntity
  8
LC-002-002-----0
 62
     7
370
    50
100
AcDbLine
 10
1861.862588
 20
1866.960747
 30
0.0
 11
1861.864543
 21
1852.030677
 31
0.0
  0
LINE
  5
218
102
{ACAD_REACTORS
330
60C
102
}
330
1F
100
AcDbEntity
  8
LC-002-002-----0
 62
     7
370
    50
100
AcDbLine
 10
1663.862588
 20
1677.426096
 30
0.0
 11
1663.862588
 21
1661.96075
 31
0.0
  0
LINE
  5
219
102
{ACAD_REACTORS
330
60C
102
}
330
1F
100
AcDbEntity
  8
LC-002-002-----0
 62
     7
370
    50
100
AcDbLine
 10
1672.474941
 20
1661.96075
 30
0.0
 11
1663.862588
 21
1661.96075
 31
0.0
  0
LINE
  5
21A
102
{ACAD_REACTORS
330
60C
102
}
330
1F
100
AcDbEntity
  8
LC-002-002-----0
 62
     7
370
    50
100
AcDbLine
 10
1672.474941
 20
1581.96075
 30
0.0
 11
1672.474941
 21
1661.96075
 31
0.0
  0
ARC
  5
21B
102
{ACAD_REACTORS
330
60C
102
}
330
1F
100
AcDbEntity
  8
LC-011-100-D04-0
 62
     7
370
    50
100
AcDbCircle
 10
1675.924601
 20
1676.132507
 30
0.0
 40
0.999999999999893
100
AcDbArc
 50
274.999954
 51
358.0
  0
ARC
  5
21C
102
{ACAD_REACTORS
330
60C
102
}
330
1F
100
AcDbEntity
  8
LC-011-100-D04-0
 62
     7
370
    50
100
AcDbCircle
 10
1675.714151
 20
1674.106456
 30
0.0
 40
1.00000000000012
100
AcDbArc
 50
94.999954
 51
170.0
  0
LINE
  5
21D
102
{ACAD_REACTORS
330
60C
102
}
330
1F
100
AcDbEntity
  8
LC-002-002-----0
 62
     7
370
    50
100
AcDbLine
 10
1703.194858
 20
1800.421339
 30
0.0
 11
1790.004982
 21
1811.080282
 31
0.0
  0
LINE
  5
21E
102
{ACAD_REACTORS
330
60C
102
}
330
1F
100
AcDbEntity
  8
LC-002-002-----0
 62
     7
370
    50
100
AcDbLine
 10
1695.759025
 20
1806.560903
 30
0.0
 11
1789.151896
 21
1818.028105
 31
0.0
  0
ARC
  5
21F
102
{ACAD_REACTORS
330
60C
102
}
330
1F
100
AcDbEntity
  8
LC-002-002-----0
 62
     7
370
    50
100
AcDbCircle
 10
1700.247884
 20
1764.375913
 30
0.0
 40
42.42314475555587
100
AcDbArc
 50
96.073926
 51
120.063417
  0
ARC
  5
220
102
{ACAD_REACTORS
330
60C
102
}
330
1F
100
AcDbEntity
  8
LC-002-002-----0
 62
     7
370
    50
100
AcDbCircle
 10
1688.577735
 20
1784.87605
 30
0.0
 40
18.83536700001611
100
AcDbArc
 50
120.579127
 51
141.360405
  0
ARC
  5
221
102
{ACAD_REACTORS
330
60C
102
}
330
1F
100
AcDbEntity
  8
LC-002-002-----0
 62
     7
370
    50
100
AcDbCircle
 10
1680.488942
 20
1791.231682
 30
0.0
 40
8.549155000012181
100
AcDbArc
 50
140.780779
 51
176.14132
  0
ARC
  5
222
102
{ACAD_REACTORS
330
60C
102
}
330
1F
100
AcDbEntity
  8
LC-002-002-----0
 62
     7
370
    50
100
AcDbCircle
 10
1709.044808
 20
1758.403471
 30
0.0
 40
42.42314459389636
100
AcDbArc
 50
97.926071
 51
120.063418
  0
ARC
  5
223
102
{ACAD_REACTORS
330
60C
102
}
330
1F
100
AcDbEntity
  8
LC-002-002-----0
 62
     7
370
    50
100
AcDbCircle
 10
1697.374658
 20
1778.903609
 30
0.0
 40
18.83536500000123
100
AcDbArc
 50
120.57913
 51
141.360408
  0
ARC
  5
224
102
{ACAD_REACTORS
330
60C
102
}
330
1F
100
AcDbEntity
  8
LC-002-002-----0
 62
     7
370
    50
100
AcDbCircle
 10
1689.285865
 20
1785.25924
 30
0.0
 40
8.54915499999302
100
AcDbArc
 50
140.780781
 51
176.14132
  0
ARC
  5
225
102
{ACAD_REACTORS
330
60C
102
}
330
1F
100
AcDbEntity
  8
LC-002-002-----0
 62
     7
370
    50
100
AcDbCircle
 10
1858.458999
 20
1858.74888
 30
0.0
 40
10.40359500000534
100
AcDbArc
 50
0.065371
 51
23.547198
  0
ARC
  5
226
102
{ACAD_REACTORS
330
60C
102
}
330
1F
100
AcDbEntity
  8
LC-002-002-----0
 62
     7
370
    50
100
AcDbCircle
 10
1857.698261
 20
1858.400331
 30
0.0
 40
11.24024499999251
100
AcDbArc
 50
23.626757
 51
45.87454
  0
ARC
  5
227
102
{ACAD_REACTORS
330
60C
102
}
330
1F
100
AcDbEntity
  8
LC-011-100-D04-0
 62
     7
370
    50
100
AcDbCircle
 10
1864.827845
 20
1865.750953
 30
0.0
 40
1.000000000000129
100
AcDbArc
 50
45.87454
 51
85.99999
  0
INSERT
  5
22D
102
{ACAD_REACTORS
330
60C
102
}
330
1F
100
AcDbEntity
  8
LC-011-100-D04-0
 62
     7
370
    50
100
AcDbBlockReference
  2
OBJ8
 10
0.0
 20
0.0
 30
0.0
  0
ARC
  5
22E
102
{ACAD_REACTORS
330
60C
102
}
330
1F
100
AcDbEntity
  8
LC-004-100-D01-0
 62
     7
370
    50
100
AcDbCircle
 10
1837.459144
 20
1412.068262
 30
0.0
 40
1.999999999999688
100
AcDbArc
 50
306.881663
 51
64.756079
  0
LINE
  5
22F
102
{ACAD_REACTORS
330
60C
102
}
330
1F
100
AcDbEntity
  8
LC-012-100-D06-0
 62
     7
370
    50
100
AcDbLine
 10
1858.749296
 20
1397.96075
 30
0.0
 11
1857.582824
 21
1397.96075
 31
0.0
  0
ARC
  5
230
102
{ACAD_REACTORS
330
60C
102
}
330
1F
100
AcDbEntity
  8
LC-004-100-D01-0
 62
     7
370
    50
100
AcDbCircle
 10
1857.582824
 20
1400.96075
 30
0.0
 40
3.000000000000108
100
AcDbArc
 50
243.0
 51
270.0
  0
LINE
  5
231
102
{ACAD_REACTORS
330
60C
102
}
330
1F
100
AcDbEntity
  8
LC-011-100-D04-0
 62
     7
370
    50
100
AcDbLine
 10
1856.220852
 20
1398.28773
 30
0.0
 11
1838.95182
 21
1407.086742
 31
0.0
  0
ARC
  5
232
102
{ACAD_REACTORS
330
60C
102
}
330
1F
100
AcDbEntity
  8
LC-004-100-D01-0
 62
     7
370
    50
100
AcDbCircle
 10
1839.859801
 20
1408.868755
 30
0.0
 40
1.999999999999688
100
AcDbArc
 50
126.881663
 51
243.0
  0
LINE
  5
233
102
{ACAD_REACTORS
330
60C
102
}
330
1F
100
AcDbEntity
  8
LC-011-100-D04-0
 62
     7
370
    50
100
AcDbLine
 10
1868.862588
 20
1385.17053
 30
0.0
 11
1868.862588
 21
1388.17053
 31
0.0
  0
LINE
  5
234
102
{ACAD_REACTORS
330
60C
102
}
330
1F
100
AcDbEntity
  8
LC-011-100-D04-0
 62
     7
370
    50
100
AcDbLine
 10
1671.959168
 20
1452.114492
 30
0.0
 11
1668.16097
 21
1560.880631
 31
0.0
  0
LINE
  5
235
102
{ACAD_REACTORS
330
60C
102
}
330
1F
100
AcDbEntity
  8
LC-011-100-D04-0
 62
     7
370
    50
100
AcDbLine
 10
1672.710203
 20
1581.092509
 30
0.0
 11
1674.729343
 21
1569.641397
 31
0.0
  0
ARC
  5
236
102
{ACAD_REACTORS
330
60C
102
}
330
1F
100
AcDbEntity
  8
LC-004-100-D01-0
 62
     7
370
    50
100
AcDbCircle
 10
1664.163407
 20
1560.741033
 30
0.0
 40
4.000000000000288
100
AcDbArc
 50
2.0
 51
73.548908
  0
LINE
  5
237
102
{ACAD_REACTORS
330
60C
102
}
330
1F
100
AcDbEntity
  8
LC-011-100-D04-0
 62
     7
370
    50
100
AcDbLine
 10
1675.626996
 20
1568.81885
 30
0.0
 11
1676.011756
 21
1568.785188
 31
0.0
  0
ARC
  5
238
102
{ACAD_REACTORS
330
60C
102
}
330
1F
100
AcDbEntity
  8
LC-004-100-D01-0
 62
     7
370
    50
100
AcDbCircle
 10
1667.786164
 20
1580.224268
 30
0.0
 40
5.000000000000018
100
AcDbArc
 50
10.0
 51
20.32204
  0
LINE
  5
239
102
{ACAD_REACTORS
330
60C
102
}
330
1F
100
AcDbEntity
  8
LC-011-100-D04-0
 62
     7
370
    50
100
AcDbLine
 10
1680.756091
 20
1458.086934
 30
0.0
 11
1676.923992
 21
1567.823893
 31
0.0
  0
ARC
  5
23A
102
{ACAD_REACTORS
330
60C
102
}
330
1F
100
AcDbEntity
  8
LC-004-100-D01-0
 62
     7
370
    50
100
AcDbCircle
 10
1665.862588
 20
1566.495404
 30
0.0
 40
1.999999999999545
100
AcDbArc
 50
180.0
 51
253.548908
  0
ARC
  5
23B
102
{ACAD_REACTORS
330
60C
102
}
330
1F
100
AcDbEntity
  8
LC-011-100-D04-0
 62
     7
370
    50
100
AcDbCircle
 10
1759.537646
 20
1184.70468
 30
0.0
 40
243.0000000000001
100
AcDbArc
 50
73.997203
 51
83.0
  0
ARC
  5
23C
102
{ACAD_REACTORS
330
60C
102
}
330
1F
100
AcDbEntity
  8
LC-011-100-D04-0
 62
     7
370
    50
100
AcDbCircle
 10
1820.361355
 20
1368.02574
 30
0.0
 40
48.93490099999989
100
AcDbArc
 50
39.294565
 51
59.510558
  0
ARC
  5
23D
102
{ACAD_REACTORS
330
60C
102
}
330
1F
100
AcDbEntity
  8
LC-011-100-D04-0
 62
     7
370
    50
100
AcDbCircle
 10
1805.720256
 20
1344.75368
 30
0.0
 40
76.42183700000017
100
AcDbArc
 50
58.904166
 51
74.1996
  0
ARC
  5
23E
102
{ACAD_REACTORS
330
60C
102
}
330
1F
100
AcDbEntity
  8
LC-004-100-D01-0
 62
     7
370
    50
100
AcDbCircle
 10
1854.362588
 20
1395.850041
 30
0.0
 40
5.0
100
AcDbArc
 50
0.0
 51
39.294565
  0
LINE
  5
23F
102
{ACAD_REACTORS
330
60C
102
}
330
1F
100
AcDbEntity
  8
LC-011-100-D04-0
 62
     7
370
    50
100
AcDbLine
 10
1859.362588
 20
1391.890823
 30
0.0
 11
1859.362588
 21
1395.850041
 31
0.0
  0
ARC
  5
240
102
{ACAD_REACTORS
330
60C
102
}
330
1F
100
AcDbEntity
  8
LC-011-100-D04-0
 62
     7
370
    50
100
AcDbCircle
 10
1759.537646
 20
1184.70468
 30
0.0
 40
249.9999999999999
100
AcDbArc
 50
74.0
 51
83.0
  0
ARC
  5
241
102
{ACAD_REACTORS
330
60C
102
}
330
1F
100
AcDbEntity
  8
LC-011-100-D04-0
 62
     7
370
    50
100
AcDbCircle
 10
1843.862588
 20
1388.160603
 30
0.0
 40
25.00000000000046
100
AcDbArc
 50
0.0
 51
38.185654
  0
LINE
  5
242
102
{ACAD_REACTORS
330
60C
102
}
330
1F
100
AcDbEntity
  8
LC-011-100-D04-0
 62
     7
370
    50
100
AcDbLine
 10
1861.862588
 20
1376.960754
 30
0.0
 11
1864.897602
 21
1377.172983
 31
0.0
  0
LINE
  5
243
102
{ACAD_REACTORS
330
60C
102
}
330
1F
100
AcDbEntity
  8
LC-002-002-----0
 62
     7
370
    50
100
AcDbLine
 10
1859.362588
 20
1391.890823
 30
0.0
 11
1861.864543
 21
1391.890823
 31
0.0
  0
LINE
  5
244
102
{ACAD_REACTORS
330
60C
102
}
330
1F
100
AcDbEntity
  8
LC-002-002-----0
 62
     7
370
    50
100
AcDbLine
 10
1861.862588
 20
1376.960754
 30
0.0
 11
1861.864543
 21
1391.890823
 31
0.0
  0
LINE
  5
245
102
{ACAD_REACTORS
330
60C
102
}
330
1F
100
AcDbEntity
  8
LC-002-002-----0
 62
     7
370
    50
100
AcDbLine
 10
1663.862588
 20
1566.495404
 30
0.0
 11
1663.862588
 21
1581.96075
 31
0.0
  0
LINE
  5
246
102
{ACAD_REACTORS
330
60C
102
}
330
1F
100
AcDbEntity
  8
LC-002-002-----0
 62
     7
370
    50
100
AcDbLine
 10
1672.474941
 20
1581.96075
 30
0.0
 11
1663.862588
 21
1581.96075
 31
0.0
  0
ARC
  5
247
102
{ACAD_REACTORS
330
60C
102
}
330
1F
100
AcDbEntity
  8
LC-011-100-D04-0
 62
     7
370
    50
100
AcDbCircle
 10
1675.924601
 20
1567.788994
 30
0.0
 40
0.9999999999998928
100
AcDbArc
 50
2.0
 51
85.000046
  0
ARC
  5
248
102
{ACAD_REACTORS
330
60C
102
}
330
1F
100
AcDbEntity
  8
LC-011-100-D04-0
 62
     7
370
    50
100
AcDbCircle
 10
1675.714151
 20
1569.815045
 30
0.0
 40
0.9999999999998906
100
AcDbArc
 50
190.0
 51
265.000046
  0
LINE
  5
249
102
{ACAD_REACTORS
330
60C
102
}
330
1F
100
AcDbEntity
  8
LC-002-002-----0
 62
     7
370
    50
100
AcDbLine
 10
1703.194858
 20
1443.500161
 30
0.0
 11
1790.004982
 21
1432.841218
 31
0.0
  0
LINE
  5
24A
102
{ACAD_REACTORS
330
60C
102
}
330
1F
100
AcDbEntity
  8
LC-002-002-----0
 62
     7
370
    50
100
AcDbLine
 10
1695.759025
 20
1437.360597
 30
0.0
 11
1789.151896
 21
1425.893395
 31
0.0
  0
ARC
  5
24B
102
{ACAD_REACTORS
330
60C
102
}
330
1F
100
AcDbEntity
  8
LC-002-002-----0
 62
     7
370
    50
100
AcDbCircle
 10
1700.247884
 20
1479.545587
 30
0.0
 40
42.42314475555578
100
AcDbArc
 50
239.936583
 51
263.926074
  0
ARC
  5
24C
102
{ACAD_REACTORS
330
60C
102
}
330
1F
100
AcDbEntity
  8
LC-002-002-----0
 62
     7
370
    50
100
AcDbCircle
 10
1688.577735
 20
1459.04545
 30
0.0
 40
18.83536700001612
100
AcDbArc
 50
218.639595
 51
239.420873
  0
ARC
  5
24D
102
{ACAD_REACTORS
330
60C
102
}
330
1F
100
AcDbEntity
  8
LC-002-002-----0
 62
     7
370
    50
100
AcDbCircle
 10
1680.488942
 20
1452.689818
 30
0.0
 40
8.549155000012139
100
AcDbArc
 50
183.85868
 51
219.219221
  0
ARC
  5
24E
102
{ACAD_REACTORS
330
60C
102
}
330
1F
100
AcDbEntity
  8
LC-002-002-----0
 62
     7
370
    50
100
AcDbCircle
 10
1709.044808
 20
1485.51803
 30
0.0
 40
42.4231445938963
100
AcDbArc
 50
239.936582
 51
262.073929
  0
ARC
  5
24F
102
{ACAD_REACTORS
330
60C
102
}
330
1F
100
AcDbEntity
  8
LC-002-002-----0
 62
     7
370
    50
100
AcDbCircle
 10
1697.374658
 20
1465.017891
 30
0.0
 40
18.8353650000012
100
AcDbArc
 50
218.639592
 51
239.42087
  0
ARC
  5
250
102
{ACAD_REACTORS
330
60C
102
}
330
1F
100
AcDbEntity
  8
LC-002-002-----0
 62
     7
370
    50
100
AcDbCircle
 10
1689.285865
 20
1458.66226
 30
0.0
 40
8.549154999992986
100
AcDbArc
 50
183.85868
 51
219.219219
  0
ARC
  5
251
102
{ACAD_REACTORS
330
60C
102
}
330
1F
100
AcDbEntity
  8
LC-002-002-----0
 62
     7
370
    50
100
AcDbCircle
 10
1858.458999
 20
1385.17262
 30
0.0
 40
10.40359500000537
100
AcDbArc
 50
336.452802
 51
359.934629
  0
ARC
  5
252
102
{ACAD_REACTORS
330
60C
102
}
330
1F
100
AcDbEntity
  8
LC-002-002-----0
 62
     7
370
    50
100
AcDbCircle
 10
1857.698261
 20
1385.521169
 30
0.0
 40
11.24024499999261
100
AcDbArc
 50
314.12546
 51
336.373243
  0
ARC
  5
253
102
{ACAD_REACTORS
330
60C
102
}
330
1F
100
AcDbEntity
  8
LC-011-100-D04-0
 62
     7
370
    50
100
AcDbCircle
 10
1864.827845
 20
1378.170547
 30
0.0
 40
1.000000000000033
100
AcDbArc
 50
274.00001
 51
314.12546
  0
LINE
  5
254
102
{ACAD_REACTORS
330
60C
102
}
330
1F
100
AcDbEntity
  8
LC-002-002-----0
 62
     7
370
    50
100
AcDbLine
 10
1663.862588
 20
1581.96075
 30
0.0
 11
1663.862588
 21
1661.96075
 31
0.0
  0
LINE
  5
255
102
{ACAD_REACTORS
330
610
102
}
330
1F
100
AcDbEntity
  8
LC-002-002-----0
 62
     7
370
    50
100
AcDbLine
 10
474.490842
 20
1046.693289
 30
0.0
 11
474.490842
 21
816.693289
 31
0.0
  0
LINE
  5
256
102
{ACAD_REACTORS
330
610
102
}
330
1F
100
AcDbEntity
  8
LC-002-002-----0
 62
     7
370
    50
100
AcDbLine
 10
479.490842
 20
811.693289
 30
0.0
 11
889.490842
 21
811.693289
 31
0.0
  0
LINE
  5
257
102
{ACAD_REACTORS
330
610
102
}
330
1F
100
AcDbEntity
  8
LC-002-002-----0
 62
     7
370
    50
100
AcDbLine
 10
894.490842
 20
816.693289
 30
0.0
 11
894.490842
 21
1046.693289
 31
0.0
  0
LINE
  5
258
102
{ACAD_REACTORS
330
610
102
}
330
1F
100
AcDbEntity
  8
LC-002-002-----0
 62
     7
370
    50
100
AcDbLine
 10
889.490842
 20
1051.693289
 30
0.0
 11
479.490842
 21
1051.693289
 31
0.0
  0
ARC
  5
25A
102
{ACAD_REACTORS
330
610
102
}
330
1F
100
AcDbEntity
  8
LC-013-002-RND-0
 62
     7
370
    50
100
AcDbCircle
 10
479.490842
 20
1046.693289
 30
0.0
 40
5.0
100
AcDbArc
 50
90.0
 51
180.0
  0
ARC
  5
25B
102
{ACAD_REACTORS
330
610
102
}
330
1F
100
AcDbEntity
  8
LC-013-002-RND-0
 62
     7
370
    50
100
AcDbCircle
 10
889.490842
 20
1046.693289
 30
0.0
 40
5.0
100
AcDbArc
 50
0.0
 51
90.0
  0
ARC
  5
25C
102
{ACAD_REACTORS
330
610
102
}
330
1F
100
AcDbEntity
  8
LC-013-002-RND-0
 62
     7
370
    50
100
AcDbCircle
 10
479.490842
 20
816.693289
 30
0.0
 40
5.0
100
AcDbArc
 50
180.0
 51
270.0
  0
ARC
  5
25D
102
{ACAD_REACTORS
330
610
102
}
330
1F
100
AcDbEntity
  8
LC-013-002-RND-0
 62
     7
370
    50
100
AcDbCircle
 10
889.490842
 20
816.693289
 30
0.0
 40
5.0
100
AcDbArc
 50
270.0
 51
0.0
  0
INSERT
  5
277
102
{ACAD_REACTORS
330
610
102
}
330
1F
100
AcDbEntity
  8
LC-008-003-----0
 62
     7
370
    25
100
AcDbBlockReference
  2
LCDIM3
 10
0.0
 20
0.0
 30
0.0
  0
INSERT
  5
286
102
{ACAD_REACTORS
330
610
102
}
330
1F
100
AcDbEntity
  8
LC-008-003-----0
 62
     7
370
    25
100
AcDbBlockReference
  2
LCDIM4
 10
0.0
 20
0.0
 30
0.0
  0
INSERT
  5
2A0
102
{ACAD_REACTORS
330
60B
102
}
330
1F
100
AcDbEntity
  8
LC-008-003-----0
 62
     7
370
    25
100
AcDbBlockReference
  2
LCDIM5
 10
0.0
 20
0.0
 30
0.0
  0
INSERT
  5
2BA
102
{ACAD_REACTORS
330
60B
102
}
330
1F
100
AcDbEntity
  8
LC-008-003-----0
 62
     7
370
    25
100
AcDbBlockReference
  2
LCDIM6
 10
0.0
 20
0.0
 30
0.0
  0
INSERT
  5
2D4
102
{ACAD_REACTORS
330
60B
102
}
330
1F
100
AcDbEntity
  8
LC-008-003-----0
 62
     7
370
    25
100
AcDbBlockReference
  2
LCDIM7
 10
0.0
 20
0.0
 30
0.0
  0
INSERT
  5
2EE
102
{ACAD_REACTORS
330
60D
102
}
330
1F
100
AcDbEntity
  8
LC-008-003-----0
 62
     7
370
    25
100
AcDbBlockReference
  2
LCDIM8
 10
0.0
 20
0.0
 30
0.0
  0
LINE
  5
2EF
102
{ACAD_REACTORS
330
60E
102
}
330
1F
100
AcDbEntity
  8
LC-004-100-D01-0
 62
     7
370
    25
100
AcDbLine
 10
874.373059
 20
2519.430896
 30
0.0
 11
915.373059
 21
2519.430896
 31
0.0
  0
LINE
  5
2F0
102
{ACAD_REACTORS
330
60E
102
}
330
1F
100
AcDbEntity
  8
LC-004-100-D01-0
 62
     7
370
    25
100
AcDbLine
 10
915.373059
 20
2514.430896
 30
0.0
 11
915.373059
 21
2519.430896
 31
0.0
  0
LINE
  5
2F1
102
{ACAD_REACTORS
330
60E
102
}
330
1F
100
AcDbEntity
  8
LC-004-100-D01-0
 62
     7
370
    25
100
AcDbLine
 10
874.373059
 20
2514.430896
 30
0.0
 11
874.373059
 21
2519.430896
 31
0.0
  0
LINE
  5
2F2
102
{ACAD_REACTORS
330
60E
102
}
330
1F
100
AcDbEntity
  8
LC-004-100-D01-0
 62
     7
370
    25
100
AcDbLine
 10
874.373059
 20
2514.430896
 30
0.0
 11
915.373059
 21
2514.430896
 31
0.0
  0
LINE
  5
2F3
102
{ACAD_REACTORS
330
60E
102
}
330
1F
100
AcDbEntity
  8
LC-004-100-D01-0
 62
     7
370
    25
100
AcDbLine
 10
877.373059
 20
2514.430896
 30
0.0
 11
877.373059
 21
2513.430896
 31
0.0
  0
LINE
  5
2F4
102
{ACAD_REACTORS
330
60E
102
}
330
1F
100
AcDbEntity
  8
LC-004-100-D01-0
 62
     7
370
    25
100
AcDbLine
 10
885.149538
 20
2499.430896
 30
0.0
 11
906.373059
 21
2499.430896
 31
0.0
  0
ARC
  5
2F5
102
{ACAD_REACTORS
330
60E
102
}
330
1F
100
AcDbEntity
  8
LC-010-100-D00-0
 62
     7
370
    25
100
AcDbCircle
 10
885.149538
 20
2501.430896
 30
0.0
 40
1.99999999999987
100
AcDbArc
 50
204.904769
 51
270.0
  0
ARC
  5
2F6
102
{ACAD_REACTORS
330
60E
102
}
330
1F
100
AcDbEntity
  8
LC-010-100-D00-0
 62
     7
370
    25
100
AcDbCircle
 10
899.956979
 20
2498.430896
 30
0.0
 40
1.000000000000134
100
AcDbArc
 50
9.594068
 51
90.0
  0
LINE
  5
2F7
102
{ACAD_REACTORS
330
60E
102
}
330
1F
100
AcDbEntity
  8
LC-004-100-D01-0
 62
     7
370
    25
100
AcDbLine
 10
877.373059
 20
2513.430896
 30
0.0
 11
883.33552
 21
2500.588673
 31
0.0
  0
LINE
  5
2F8
102
{ACAD_REACTORS
330
60E
102
}
330
1F
100
AcDbEntity
  8
LC-004-100-D01-0
 62
     7
370
    25
100
AcDbLine
 10
908.373059
 20
2514.430896
 30
0.0
 11
908.373059
 21
2501.430896
 31
0.0
  0
LINE
  5
2F9
102
{ACAD_REACTORS
330
60E
102
}
330
1F
100
AcDbEntity
  8
LC-004-100-D01-0
 62
     7
370
    25
100
AcDbLine
 10
905.873059
 20
2494.430896
 30
0.0
 11
911.873059
 21
2494.430896
 31
0.0
  0
ARC
  5
2FA
102
{ACAD_REACTORS
330
60E
102
}
330
1F
100
AcDbEntity
  8
LC-004-100-D01-0
 62
     7
370
    25
100
AcDbCircle
 10
905.873059
 20
2499.430896
 30
0.0
 40
4.99999999999985
100
AcDbArc
 50
189.594068
 51
270.0
  0
ARC
  5
2FB
102
{ACAD_REACTORS
330
60E
102
}
330
1F
100
AcDbEntity
  8
LC-010-100-D00-0
 62
     7
370
    25
100
AcDbCircle
 10
906.373059
 20
2501.430896
 30
0.0
 40
2.0
100
AcDbArc
 50
270.0
 51
0.0
  0
LINE
  5
2FC
102
{ACAD_REACTORS
330
60E
102
}
330
1F
100
AcDbEntity
  8
LC-004-100-D01-0
 62
     7
370
    25
100
AcDbLine
 10
915.373059
 20
2516.430896
 30
0.0
 11
933.873059
 21
2516.430896
 31
0.0
  0
LINE
  5
2FD
102
{ACAD_REACTORS
330
60E
102
}
330
1F
100
AcDbEntity
  8
LC-004-100-D01-0
 62
     7
370
    25
100
AcDbLine
 10
934.873059
 20
2515.430896
 30
0.0
 11
934.873059
 21
2490.680896
 31
0.0
  0
ARC
  5
2FE
102
{ACAD_REACTORS
330
60E
102
}
330
1F
100
AcDbEntity
  8
LC-010-100-D00-0
 62
     7
370
    25
100
AcDbCircle
 10
933.873059
 20
2515.430896
 30
0.0
 40
1.0
100
AcDbArc
 50
0.0
 51
90.0
  0
LINE
  5
2FF
102
{ACAD_REACTORS
330
60E
102
}
330
1F
100
AcDbEntity
  8
LC-004-100-D01-0
 62
     7
370
    25
100
AcDbLine
 10
912.873059
 20
2493.430896
 30
0.0
 11
912.873059
 21
2490.680896
 31
0.0
  0
ARC
  5
300
102
{ACAD_REACTORS
330
60E
102
}
330
1F
100
AcDbEntity
  8
LC-010-100-D00-0
 62
     7
370
    25
100
AcDbCircle
 10
911.873059
 20
2493.430896
 30
0.0
 40
1.0
100
AcDbArc
 50
0.0
 51
90.0
  0
LINE
  5
301
102
{ACAD_REACTORS
330
605
102
}
330
1F
100
AcDbEntity
  8
LC-002-002-----0
 62
     7
370
    50
100
AcDbLine
 10
1327.669293
 20
2535.930896
 30
0.0
 11
1327.669293
 21
2497.930896
 31
0.0
  0
LINE
  5
302
102
{ACAD_REACTORS
330
605
102
}
330
1F
100
AcDbEntity
  8
LC-002-002-----0
 62
     7
370
    50
100
AcDbLine
 10
1372.726463
 20
2497.930896
 30
0.0
 11
1327.669293
 21
2497.930896
 31
0.0
  0
LINE
  5
303
102
{ACAD_REACTORS
330
605
102
}
330
1F
100
AcDbEntity
  8
LC-002-002-----0
 62
     7
370
    50
100
AcDbLine
 10
1327.669293
 20
2535.930896
 30
0.0
 11
1384.941952
 21
2535.930896
 31
0.0
  0
LINE
  5
304
102
{ACAD_REACTORS
330
605
102
}
330
1F
100
AcDbEntity
  8
LC-002-002-----0
 62
     7
370
    25
100
AcDbLine
 10
1372.726463
 20
2497.930896
 30
0.0
 11
1385.974846
 21
2517.97877
 31
0.0
  0
LINE
  5
305
102
{ACAD_REACTORS
330
605
102
}
330
1F
100
AcDbEntity
  8
LC-002-002-----0
 62
     7
370
    25
100
AcDbLine
 10
1385.974846
 20
2517.97877
 30
0.0
 11
1384.941952
 21
2535.930896
 31
0.0
  0
LINE
  5
306
102
{ACAD_REACTORS
330
605
102
}
330
1F
100
AcDbEntity
  8
LC-002-002-----0
 62
     7
370
    50
100
AcDbLine
 10
1346.669293
 20
2497.930896
 30
0.0
 11
1346.669293
 21
2405.439488
 31
0.0
  0
LINE
  5
307
102
{ACAD_REACTORS
330
605
102
}
330
1F
100
AcDbEntity
  8
LC-002-002-----0
 62
     7
370
    50
100
AcDbLine
 10
1327.669293
 20
2497.930896
 30
0.0
 11
1327.669293
 21
2405.439488
 31
0.0
  0
LINE
  5
308
102
{ACAD_REACTORS
330
605
102
}
330
1F
100
AcDbEntity
  8
LC-002-002-----0
 62
     7
370
    50
100
AcDbLine
 10
1327.669293
 20
2497.930896
 30
0.0
 11
1346.669293
 21
2497.930896
 31
0.0
  0
TEXT
  5
30A
102
{ACAD_REACTORS
330
610
102
}
330
1F
100
AcDbEntity
  8
LC-014-004-----0
 62
     7
370
    35
100
AcDbText
 10
497.675112
 20
1163.440745
 30
0.0
 40
35.0
  1
Ausschnitt übergreifend
 41
0.8
  7
LCTX0-400-0-0pDIN-Schrift
100
AcDbText
  0
TEXT
  5
30B
102
{ACAD_REACTORS
330
610
102
}
330
1F
100
AcDbEntity
  8
LC-014-004-----0
 62
     7
370
    35
100
AcDbText
 10
497.675112
 20
1093.440745
 30
0.0
 40
35.0
  1
M 1:20
 41
0.8
  7
LCTX0-400-0-0pDIN-Schrift
100
AcDbText
  0
INSERT
  5
314
102
{ACAD_REACTORS
330
605
102
}
330
1F
100
AcDbEntity
  8
LC-015-005-----0
 62
     7
370
    25
100
AcDbBlockReference
  2
*X118
 10
0.0
 20
0.0
 30
0.0
  0
INSERT
  5
31C
102
{ACAD_REACTORS
330
605
102
}
330
1F
100
AcDbEntity
  8
LC-015-005-----0
 62
     7
370
    25
100
AcDbBlockReference
  2
*X219
 10
0.0
 20
0.0
 30
0.0
  0
LINE
  5
31D
102
{ACAD_REACTORS
330
612
102
}
330
1F
100
AcDbEntity
  8
LC-002-002-----0
 62
     7
370
    25
100
AcDbLine
 10
728.09908
 20
2217.109635
 30
0.0
 11
726.96162
 21
2217.701759
 31
0.0
  0
LINE
  5
31E
102
{ACAD_REACTORS
330
612
102
}
330
1F
100
AcDbEntity
  8
LC-002-002-----0
 62
     7
370
    25
100
AcDbLine
 10
728.09908
 20
2219.418635
 30
0.0
 11
726.96162
 21
2220.010759
 31
0.0
  0
LINE
  5
31F
102
{ACAD_REACTORS
330
612
102
}
330
1F
100
AcDbEntity
  8
LC-002-002-----0
 62
     7
370
    25
100
AcDbLine
 10
728.09908
 20
2221.727635
 30
0.0
 11
726.96162
 21
2222.319759
 31
0.0
  0
LINE
  5
320
102
{ACAD_REACTORS
330
612
102
}
330
1F
100
AcDbEntity
  8
LC-002-002-----0
 62
     7
370
    25
100
AcDbLine
 10
728.09908
 20
2224.036635
 30
0.0
 11
726.96162
 21
2224.628759
 31
0.0
  0
LINE
  5
321
102
{ACAD_REACTORS
330
612
102
}
330
1F
100
AcDbEntity
  8
LC-002-002-----0
 62
     7
370
    25
100
AcDbLine
 10
774.376966
 20
2218.264575
 30
0.0
 11
773.239506
 21
2218.856699
 31
0.0
  0
LINE
  5
322
102
{ACAD_REACTORS
330
612
102
}
330
1F
100
AcDbEntity
  8
LC-002-002-----0
 62
     7
370
    25
100
AcDbLine
 10
774.376966
 20
2220.573575
 30
0.0
 11
773.239506
 21
2221.165699
 31
0.0
  0
LINE
  5
323
102
{ACAD_REACTORS
330
612
102
}
330
1F
100
AcDbEntity
  8
LC-002-002-----0
 62
     7
370
    25
100
AcDbLine
 10
774.376966
 20
2222.882575
 30
0.0
 11
773.239506
 21
2223.474699
 31
0.0
  0
LINE
  5
324
102
{ACAD_REACTORS
330
612
102
}
330
1F
100
AcDbEntity
  8
LC-002-002-----0
 62
     7
370
    25
100
AcDbLine
 10
774.376966
 20
2225.191575
 30
0.0
 11
773.239506
 21
2225.783699
 31
0.0
  0
LINE
  5
325
102
{ACAD_REACTORS
330
612
102
}
330
1F
100
AcDbEntity
  8
LC-002-002-----0
 62
     7
370
    25
100
AcDbLine
 10
728.269293
 20
2247.328667
 30
0.0
 11
728.269293
 21
2226.064667
 31
0.0
  0
LINE
  5
326
102
{ACAD_REACTORS
330
612
102
}
330
1F
100
AcDbEntity
  8
LC-002-002-----0
 62
     7
370
    25
100
AcDbLine
 10
728.269293
 20
2216.828667
 30
0.0
 11
728.269293
 21
2216.328667
 31
0.0
  0
LINE
  5
327
102
{ACAD_REACTORS
330
612
102
}
330
1F
100
AcDbEntity
  8
LC-002-002-----0
 62
     7
370
    25
100
AcDbLine
 10
773.069293
 20
2216.328667
 30
0.0
 11
728.269293
 21
2216.328667
 31
0.0
  0
LINE
  5
328
102
{ACAD_REACTORS
330
612
102
}
330
1F
100
AcDbEntity
  8
LC-002-002-----0
 62
     7
370
    25
100
AcDbLine
 10
773.046809
 20
2247.328667
 30
0.0
 11
773.046809
 21
2243.328667
 31
0.0
  0
LINE
  5
329
102
{ACAD_REACTORS
330
612
102
}
330
1F
100
AcDbEntity
  8
LC-002-002-----0
 62
     7
370
    25
100
AcDbLine
 10
773.069293
 20
2243.328667
 30
0.0
 11
773.069293
 21
2226.064667
 31
0.0
  0
LINE
  5
32A
102
{ACAD_REACTORS
330
612
102
}
330
1F
100
AcDbEntity
  8
LC-002-002-----0
 62
     7
370
    25
100
AcDbLine
 10
773.069293
 20
2216.828667
 30
0.0
 11
773.069293
 21
2216.328667
 31
0.0
  0
LINE
  5
32B
102
{ACAD_REACTORS
330
60F
102
}
330
1F
100
AcDbEntity
  8
LC-002-002-----0
 62
     7
370
    25
100
AcDbLine
 10
988.169293
 20
2239.623874
 30
0.0
 11
990.669293
 21
2239.623874
 31
0.0
  0
LINE
  5
32C
102
{ACAD_REACTORS
330
60F
102
}
330
1F
100
AcDbEntity
  8
LC-002-002-----0
 62
     7
370
    25
100
AcDbLine
 10
987.169293
 20
2240.373874
 30
0.0
 11
987.419293
 21
2240.373874
 31
0.0
  0
LINE
  5
32D
102
{ACAD_REACTORS
330
60F
102
}
330
1F
100
AcDbEntity
  8
LC-002-002-----0
 62
     7
370
    25
100
AcDbLine
 10
987.169293
 20
2241.528667
 30
0.0
 11
973.669293
 21
2241.528667
 31
0.0
  0
LINE
  5
32E
102
{ACAD_REACTORS
330
60F
102
}
330
1F
100
AcDbEntity
  8
LC-002-002-----0
 62
     7
370
    25
100
AcDbLine
 10
1019.169293
 20
2244.928667
 30
0.0
 11
994.825641
 21
2244.928667
 31
0.0
  0
LINE
  5
32F
102
{ACAD_REACTORS
330
60F
102
}
330
1F
100
AcDbEntity
  8
LC-002-002-----0
 62
     7
370
    25
100
AcDbLine
 10
1045.669293
 20
2245.328667
 30
0.0
 11
1019.569293
 21
2245.328667
 31
0.0
  0
LINE
  5
330
102
{ACAD_REACTORS
330
612
102
}
330
1F
100
AcDbEntity
  8
LC-002-002-----0
 62
     7
370
    25
100
AcDbLine
 10
777.069293
 20
2247.354308
 30
0.0
 11
773.02192
 21
2247.354308
 31
0.0
  0
LINE
  5
331
102
{ACAD_REACTORS
330
612
102
}
330
1F
100
AcDbEntity
  8
LC-002-002-----0
 62
     7
370
    25
100
AcDbLine
 10
971.669293
 20
2287.328667
 30
0.0
 11
768.668293
 21
2287.328667
 31
0.0
  0
LINE
  5
332
102
{ACAD_REACTORS
330
60F
102
}
330
1F
100
AcDbEntity
  8
LC-002-002-----0
 62
     7
370
    25
100
AcDbLine
 10
1017.216144
 20
2289.728667
 30
0.0
 11
994.825641
 21
2289.728667
 31
0.0
  0
LINE
  5
333
102
{ACAD_REACTORS
330
60F
102
}
330
1F
100
AcDbEntity
  8
LC-002-002-----0
 62
     7
370
    25
100
AcDbLine
 10
987.169293
 20
2293.128667
 30
0.0
 11
973.669293
 21
2293.128667
 31
0.0
  0
LINE
  5
334
102
{ACAD_REACTORS
330
60F
102
}
330
1F
100
AcDbEntity
  8
LC-002-002-----0
 62
     7
370
    25
100
AcDbLine
 10
987.169293
 20
2294.28346
 30
0.0
 11
987.419293
 21
2294.28346
 31
0.0
  0
LINE
  5
335
102
{ACAD_REACTORS
330
60F
102
}
330
1F
100
AcDbEntity
  8
LC-002-002-----0
 62
     7
370
    25
100
AcDbLine
 10
988.169293
 20
2295.03346
 30
0.0
 11
990.669293
 21
2295.03346
 31
0.0
  0
LINE
  5
336
102
{ACAD_REACTORS
330
60F
102
}
330
1F
100
AcDbEntity
  8
LC-002-002-----0
 62
     7
370
    25
100
AcDbLine
 10
1083.169293
 20
2299.288214
 30
0.0
 11
1081.16743
 21
2299.288214
 31
0.0
  0
LINE
  5
337
102
{ACAD_REACTORS
330
60F
102
}
330
1F
100
AcDbEntity
  8
LC-002-002-----0
 62
     7
370
    25
100
AcDbLine
 10
980.669293
 20
2299.680896
 30
0.0
 11
978.669293
 21
2299.680896
 31
0.0
  0
LINE
  5
338
102
{ACAD_REACTORS
330
60F
102
}
330
1F
100
AcDbEntity
  8
LC-002-002-----0
 62
     7
370
    25
100
AcDbLine
 10
977.919293
 20
2301.729177
 30
0.0
 11
966.18006
 21
2301.729177
 31
0.0
  0
LINE
  5
339
102
{ACAD_REACTORS
330
60F
102
}
330
1F
100
AcDbEntity
  8
LC-002-002-----0
 62
     7
370
    25
100
AcDbLine
 10
1085.174257
 20
2301.788214
 30
0.0
 11
1083.169293
 21
2301.788214
 31
0.0
  0
LINE
  5
33A
102
{ACAD_REACTORS
330
60F
102
}
330
1F
100
AcDbEntity
  8
LC-002-002-----0
 62
     7
370
    25
100
AcDbLine
 10
985.414564
 20
2304.535896
 30
0.0
 11
985.669293
 21
2304.535896
 31
0.0
  0
LINE
  5
33B
102
{ACAD_REACTORS
330
60F
102
}
330
1F
100
AcDbEntity
  8
LC-002-002-----0
 62
     7
370
    25
100
AcDbLine
 10
985.669293
 20
2304.580896
 30
0.0
 11
1004.566693
 21
2304.580896
 31
0.0
  0
LINE
  5
33C
102
{ACAD_REACTORS
330
614
102
}
330
1F
100
AcDbEntity
  8
LC-002-002-----0
 62
     7
370
    25
100
AcDbLine
 10
966.169293
 20
2307.180896
 30
0.0
 11
923.272599
 21
2307.180896
 31
0.0
  0
LINE
  5
33D
102
{ACAD_REACTORS
330
614
102
}
330
1F
100
AcDbEntity
  8
LC-002-002-----0
 62
     7
370
    25
100
AcDbLine
 10
910.075614
 20
2339.653336
 30
0.0
 11
910.773067
 21
2319.680886
 31
0.0
  0
LINE
  5
33E
102
{ACAD_REACTORS
330
614
102
}
330
1F
100
AcDbEntity
  8
LC-002-002-----0
 62
     7
370
    25
100
AcDbLine
 10
903.273067
 20
2354.680896
 30
0.0
 11
903.273067
 21
2360.680896
 31
0.0
  0
LINE
  5
33F
102
{ACAD_REACTORS
330
613
102
}
330
1F
100
AcDbEntity
  8
LC-002-002-----0
 62
     7
370
    25
100
AcDbLine
 10
910.773067
 20
2425.180896
 30
0.0
 11
910.773067
 21
2368.330006
 31
0.0
  0
LINE
  5
340
102
{ACAD_REACTORS
330
611
102
}
330
1F
100
AcDbEntity
  8
LC-002-002-----0
 62
     7
370
    25
100
AcDbLine
 10
912.073067
 20
2452.680896
 30
0.0
 11
913.273067
 21
2460.680896
 31
0.0
  0
LINE
  5
341
102
{ACAD_REACTORS
330
612
102
}
330
1F
100
AcDbEntity
  8
LC-002-002-----0
 62
     7
370
    25
100
AcDbLine
 10
730.671421
 20
2249.730795
 30
0.0
 11
728.269553
 21
2247.328927
 31
0.0
  0
LINE
  5
342
102
{ACAD_REACTORS
330
614
102
}
330
1F
100
AcDbEntity
  8
LC-002-002-----0
 62
     7
370
    25
100
AcDbLine
 10
966.169293
 20
2332.180896
 30
0.0
 11
936.209577
 21
2332.180896
 31
0.0
  0
LINE
  5
343
102
{ACAD_REACTORS
330
60F
102
}
330
1F
100
AcDbEntity
  8
LC-002-002-----0
 62
     7
370
    25
100
AcDbLine
 10
985.669293
 20
2334.780896
 30
0.0
 11
990.686706
 21
2334.780896
 31
0.0
  0
LINE
  5
344
102
{ACAD_REACTORS
330
60F
102
}
330
1F
100
AcDbEntity
  8
LC-002-002-----0
 62
     7
370
    25
100
AcDbLine
 10
985.414564
 20
2334.825896
 30
0.0
 11
985.669293
 21
2334.825896
 31
0.0
  0
LINE
  5
345
102
{ACAD_REACTORS
330
60F
102
}
330
1F
100
AcDbEntity
  8
LC-002-002-----0
 62
     7
370
    25
100
AcDbLine
 10
977.919293
 20
2337.632614
 30
0.0
 11
966.18006
 21
2337.632614
 31
0.0
  0
LINE
  5
346
102
{ACAD_REACTORS
330
60F
102
}
330
1F
100
AcDbEntity
  8
LC-002-002-----0
 62
     7
370
    25
100
AcDbLine
 10
1100.669293
 20
2337.930896
 30
0.0
 11
990.669293
 21
2337.930896
 31
0.0
  0
LINE
  5
347
102
{ACAD_REACTORS
330
60F
102
}
330
1F
100
AcDbEntity
  8
LC-002-002-----0
 62
     7
370
    25
100
AcDbLine
 10
980.669293
 20
2339.680896
 30
0.0
 11
978.669293
 21
2339.680896
 31
0.0
  0
LINE
  5
348
102
{ACAD_REACTORS
330
60F
102
}
330
1F
100
AcDbEntity
  8
LC-002-002-----0
 62
     7
370
    25
100
AcDbLine
 10
987.419292
 20
2240.373875
 30
0.0
 11
988.169292
 21
2239.623875
 31
0.0
  0
LINE
  5
349
102
{ACAD_REACTORS
330
611
102
}
330
1F
100
AcDbEntity
  8
LC-002-002-----0
 62
     7
370
    25
100
AcDbLine
 10
912.073067
 20
2425.680896
 30
0.0
 11
912.073067
 21
2452.680896
 31
0.0
  0
LINE
  5
34A
102
{ACAD_REACTORS
330
611
102
}
330
1F
100
AcDbEntity
  8
LC-002-002-----0
 62
     7
370
    25
100
AcDbLine
 10
913.273067
 20
2490.280166
 30
0.0
 11
913.273067
 21
2460.680896
 31
0.0
  0
LINE
  5
34B
102
{ACAD_REACTORS
330
614
102
}
330
1F
100
AcDbEntity
  8
LC-002-002-----0
 62
     7
370
    25
100
AcDbLine
 10
903.273067
 20
2360.680895
 30
0.0
 11
943.273067
 21
2360.680896
 31
0.0
  0
LINE
  5
34C
102
{ACAD_REACTORS
330
611
102
}
330
1F
100
AcDbEntity
  8
LC-002-002-----0
 62
     7
370
    25
100
AcDbLine
 10
934.473061
 20
2452.680896
 30
0.0
 11
934.473061
 21
2460.680896
 31
0.0
  0
LINE
  5
34D
102
{ACAD_REACTORS
330
611
102
}
330
1F
100
AcDbEntity
  8
LC-002-002-----0
 62
     7
370
    25
100
AcDbLine
 10
934.473067
 20
2425.680896
 30
0.0
 11
934.473067
 21
2452.680896
 31
0.0
  0
LINE
  5
34E
102
{ACAD_REACTORS
330
611
102
}
330
1F
100
AcDbEntity
  8
LC-002-002-----0
 62
     7
370
    25
100
AcDbLine
 10
934.473067
 20
2460.680896
 30
0.0
 11
934.473067
 21
2490.280447
 31
0.0
  0
LINE
  5
34F
102
{ACAD_REACTORS
330
613
102
}
330
1F
100
AcDbEntity
  8
LC-002-002-----0
 62
     7
370
    25
100
AcDbLine
 10
935.773067
 20
2425.180896
 30
0.0
 11
935.773067
 21
2368.330006
 31
0.0
  0
LINE
  5
350
102
{ACAD_REACTORS
330
614
102
}
330
1F
100
AcDbEntity
  8
LC-002-002-----0
 62
     7
370
    25
100
AcDbLine
 10
943.273067
 20
2354.680896
 30
0.0
 11
943.273067
 21
2360.680896
 31
0.0
  0
LINE
  5
351
102
{ACAD_REACTORS
330
614
102
}
330
1F
100
AcDbEntity
  8
LC-002-002-----0
 62
     7
370
    25
100
AcDbLine
 10
936.47052
 20
2339.653336
 30
0.0
 11
936.209485
 21
2332.178267
 31
0.0
  0
LINE
  5
352
102
{ACAD_REACTORS
330
613
102
}
330
1F
100
AcDbEntity
  8
LC-002-002-----0
 62
     7
370
    25
100
AcDbLine
 10
935.773067
 20
2368.330006
 30
0.0
 11
910.773067
 21
2368.330006
 31
0.0
  0
LINE
  5
353
102
{ACAD_REACTORS
330
60F
102
}
330
1F
100
AcDbEntity
  8
LC-002-002-----0
 62
     7
370
    25
100
AcDbLine
 10
978.669196
 20
2299.680992
 30
0.0
 11
977.919305
 21
2300.430883
 31
0.0
  0
LINE
  5
354
102
{ACAD_REACTORS
330
60F
102
}
330
1F
100
AcDbEntity
  8
LC-002-002-----0
 62
     7
370
    25
100
AcDbLine
 10
992.227512
 20
2242.877177
 30
0.0
 11
991.36149
 21
2244.377171
 31
0.0
  0
LINE
  5
355
102
{ACAD_REACTORS
330
60F
102
}
330
1F
100
AcDbEntity
  8
LC-002-002-----0
 62
     7
370
    25
100
AcDbLine
 10
993.959563
 20
2242.877177
 30
0.0
 11
993.093541
 21
2244.377171
 31
0.0
  0
LINE
  5
356
102
{ACAD_REACTORS
330
60F
102
}
330
1F
100
AcDbEntity
  8
LC-002-002-----0
 62
     7
370
    25
100
AcDbLine
 10
991.361588
 20
2289.912221
 30
0.0
 11
990.669293
 21
2291.111312
 31
0.0
  0
LINE
  5
357
102
{ACAD_REACTORS
330
60F
102
}
330
1F
100
AcDbEntity
  8
LC-002-002-----0
 62
     7
370
    25
100
AcDbLine
 10
993.093639
 20
2289.912221
 30
0.0
 11
992.227617
 21
2291.412216
 31
0.0
  0
LINE
  5
358
102
{ACAD_REACTORS
330
60F
102
}
330
1F
100
AcDbEntity
  8
LC-002-002-----0
 62
     7
370
    25
100
AcDbLine
 10
994.82569
 20
2289.912221
 30
0.0
 11
993.959667
 21
2291.412216
 31
0.0
  0
LINE
  5
359
102
{ACAD_REACTORS
330
60F
102
}
330
1F
100
AcDbEntity
  8
LC-002-002-----0
 62
     7
370
    25
100
AcDbLine
 10
980.791928
 20
2304.535896
 30
0.0
 11
981.562341
 21
2303.055947
 31
0.0
  0
LINE
  5
35A
102
{ACAD_REACTORS
330
60F
102
}
330
1F
100
AcDbEntity
  8
LC-002-002-----0
 62
     7
370
    25
100
AcDbLine
 10
982.332807
 20
2304.535896
 30
0.0
 11
983.103219
 21
2303.055947
 31
0.0
  0
LINE
  5
35B
102
{ACAD_REACTORS
330
60F
102
}
330
1F
100
AcDbEntity
  8
LC-002-002-----0
 62
     7
370
    25
100
AcDbLine
 10
983.873685
 20
2304.535896
 30
0.0
 11
984.644098
 21
2303.055947
 31
0.0
  0
LINE
  5
35C
102
{ACAD_REACTORS
330
60F
102
}
330
1F
100
AcDbEntity
  8
LC-002-002-----0
 62
     7
370
    25
100
AcDbLine
 10
966.169293
 20
2301.931086
 30
0.0
 11
966.169293
 21
2337.430705
 31
0.0
  0
LINE
  5
35D
102
{ACAD_REACTORS
330
612
102
}
330
1F
100
AcDbEntity
  8
LC-002-002-----0
 62
     7
370
    25
100
AcDbLine
 10
726.96162
 20
2225.191575
 30
0.0
 11
728.09908
 21
2225.783699
 31
0.0
  0
LINE
  5
35E
102
{ACAD_REACTORS
330
613
102
}
330
1F
100
AcDbEntity
  8
LC-002-002-----0
 62
     7
370
    25
100
AcDbLine
 10
935.273067
 20
2425.680896
 30
0.0
 11
911.273067
 21
2425.680896
 31
0.0
  0
LINE
  5
35F
102
{ACAD_REACTORS
330
60F
102
}
330
1F
100
AcDbEntity
  8
LC-002-002-----0
 62
     7
370
    25
100
AcDbLine
 10
980.669293
 20
2335.061476
 30
0.0
 11
980.791928
 21
2334.825896
 31
0.0
  0
LINE
  5
360
102
{ACAD_REACTORS
330
60F
102
}
330
1F
100
AcDbEntity
  8
LC-002-002-----0
 62
     7
370
    25
100
AcDbLine
 10
981.562394
 20
2336.305844
 30
0.0
 11
982.332807
 21
2334.825896
 31
0.0
  0
LINE
  5
361
102
{ACAD_REACTORS
330
60F
102
}
330
1F
100
AcDbEntity
  8
LC-002-002-----0
 62
     7
370
    25
100
AcDbLine
 10
983.103273
 20
2336.305844
 30
0.0
 11
983.873685
 21
2334.825896
 31
0.0
  0
LINE
  5
362
102
{ACAD_REACTORS
330
60F
102
}
330
1F
100
AcDbEntity
  8
LC-002-002-----0
 62
     7
370
    25
100
AcDbLine
 10
984.644151
 20
2336.305844
 30
0.0
 11
985.414564
 21
2334.825896
 31
0.0
  0
LINE
  5
363
102
{ACAD_REACTORS
330
60F
102
}
330
1F
100
AcDbEntity
  8
LC-002-002-----0
 62
     7
370
    25
100
AcDbLine
 10
971.669293
 20
2291.128667
 30
0.0
 11
971.669293
 21
2243.528667
 31
0.0
  0
LINE
  5
364
102
{ACAD_REACTORS
330
60F
102
}
330
1F
100
AcDbEntity
  8
LC-002-002-----0
 62
     7
370
    25
100
AcDbLine
 10
977.91903
 20
2300.430883
 30
0.0
 11
977.91904
 21
2301.729177
 31
0.0
  0
LINE
  5
365
102
{ACAD_REACTORS
330
60F
102
}
330
1F
100
AcDbEntity
  8
LC-002-002-----0
 62
     7
370
    25
100
AcDbLine
 10
980.669293
 20
2299.680896
 30
0.0
 11
980.669293
 21
2339.680896
 31
0.0
  0
LINE
  5
366
102
{ACAD_REACTORS
330
612
102
}
330
1F
100
AcDbEntity
  8
LC-002-002-----0
 62
     7
370
    25
100
AcDbLine
 10
726.96162
 20
2222.882575
 30
0.0
 11
728.09908
 21
2223.474699
 31
0.0
  0
LINE
  5
367
102
{ACAD_REACTORS
330
612
102
}
330
1F
100
AcDbEntity
  8
LC-002-002-----0
 62
     7
370
    25
100
AcDbLine
 10
726.96162
 20
2220.573575
 30
0.0
 11
728.09908
 21
2221.165699
 31
0.0
  0
LINE
  5
368
102
{ACAD_REACTORS
330
612
102
}
330
1F
100
AcDbEntity
  8
LC-002-002-----0
 62
     7
370
    25
100
AcDbLine
 10
726.96162
 20
2218.264575
 30
0.0
 11
728.09908
 21
2218.856699
 31
0.0
  0
LINE
  5
369
102
{ACAD_REACTORS
330
60F
102
}
330
1F
100
AcDbEntity
  8
LC-002-002-----0
 62
     7
370
    25
100
AcDbLine
 10
987.169293
 20
2294.283443
 30
0.0
 11
987.169293
 21
2293.128667
 31
0.0
  0
LINE
  5
36A
102
{ACAD_REACTORS
330
60F
102
}
330
1F
100
AcDbEntity
  8
LC-002-002-----0
 62
     7
370
    25
100
AcDbLine
 10
990.669293
 20
2295.03346
 30
0.0
 11
990.669293
 21
2239.623874
 31
0.0
  0
LINE
  5
36B
102
{ACAD_REACTORS
330
60F
102
}
330
1F
100
AcDbEntity
  8
LC-002-002-----0
 62
     7
370
    25
100
AcDbLine
 10
990.669293
 20
2334.717728
 30
0.0
 11
990.669293
 21
2337.930896
 31
0.0
  0
LINE
  5
36C
102
{ACAD_REACTORS
330
60F
102
}
330
1F
100
AcDbEntity
  8
LC-002-002-----0
 62
     7
370
    25
100
AcDbLine
 10
980.791928
 20
2334.825896
 30
0.0
 11
981.562341
 21
2336.305844
 31
0.0
  0
LINE
  5
36D
102
{ACAD_REACTORS
330
60F
102
}
330
1F
100
AcDbEntity
  8
LC-002-002-----0
 62
     7
370
    25
100
AcDbLine
 10
982.332807
 20
2334.825896
 30
0.0
 11
983.103219
 21
2336.305844
 31
0.0
  0
LINE
  5
36E
102
{ACAD_REACTORS
330
60F
102
}
330
1F
100
AcDbEntity
  8
LC-002-002-----0
 62
     7
370
    25
100
AcDbLine
 10
983.873685
 20
2334.825896
 30
0.0
 11
984.644098
 21
2336.305844
 31
0.0
  0
LINE
  5
36F
102
{ACAD_REACTORS
330
60F
102
}
330
1F
100
AcDbEntity
  8
LC-002-002-----0
 62
     7
370
    25
100
AcDbLine
 10
978.669196
 20
2339.680799
 30
0.0
 11
977.919305
 21
2338.930908
 31
0.0
  0
LINE
  5
370
102
{ACAD_REACTORS
330
612
102
}
330
1F
100
AcDbEntity
  8
LC-002-002-----0
 62
     7
370
    25
100
AcDbLine
 10
773.239506
 20
2224.036635
 30
0.0
 11
774.376966
 21
2224.628759
 31
0.0
  0
LINE
  5
371
102
{ACAD_REACTORS
330
612
102
}
330
1F
100
AcDbEntity
  8
LC-002-002-----0
 62
     7
370
    25
100
AcDbLine
 10
773.239506
 20
2221.727635
 30
0.0
 11
774.376966
 21
2222.319759
 31
0.0
  0
LINE
  5
372
102
{ACAD_REACTORS
330
612
102
}
330
1F
100
AcDbEntity
  8
LC-002-002-----0
 62
     7
370
    25
100
AcDbLine
 10
773.239506
 20
2219.418635
 30
0.0
 11
774.376966
 21
2220.010759
 31
0.0
  0
LINE
  5
373
102
{ACAD_REACTORS
330
612
102
}
330
1F
100
AcDbEntity
  8
LC-002-002-----0
 62
     7
370
    25
100
AcDbLine
 10
773.239506
 20
2217.109635
 30
0.0
 11
774.376966
 21
2217.701759
 31
0.0
  0
LINE
  5
374
102
{ACAD_REACTORS
330
611
102
}
330
1F
100
AcDbEntity
  8
LC-002-002-----0
 62
     7
370
    25
100
AcDbLine
 10
912.073067
 20
2452.680896
 30
0.0
 11
934.473067
 21
2452.68104
 31
0.0
  0
LINE
  5
375
102
{ACAD_REACTORS
330
611
102
}
330
1F
100
AcDbEntity
  8
LC-002-002-----0
 62
     7
370
    25
100
AcDbLine
 10
934.473067
 20
2460.680896
 30
0.0
 11
913.273067
 21
2460.680896
 31
0.0
  0
LINE
  5
376
102
{ACAD_REACTORS
330
60F
102
}
330
1F
100
AcDbEntity
  8
LC-002-002-----0
 62
     7
370
    25
100
AcDbLine
 10
1017.216144
 20
2289.728667
 30
0.0
 11
1016.901908
 21
2291.448698
 31
0.0
  0
LINE
  5
377
102
{ACAD_REACTORS
330
60F
102
}
330
1F
100
AcDbEntity
  8
LC-002-002-----0
 62
     7
370
    25
100
AcDbLine
 10
1008.169293
 20
2301.788214
 30
0.0
 11
1008.169293
 21
2299.288214
 31
0.0
  0
LINE
  5
378
102
{ACAD_REACTORS
330
60F
102
}
330
1F
100
AcDbEntity
  8
LC-002-002-----0
 62
     7
370
    25
100
AcDbLine
 10
1010.171156
 20
2298.58497
 30
0.0
 11
1010.171156
 21
2299.288214
 31
0.0
  0
LINE
  5
379
102
{ACAD_REACTORS
330
60F
102
}
330
1F
100
AcDbEntity
  8
LC-002-002-----0
 62
     7
370
    25
100
AcDbLine
 10
980.669293
 20
2304.300315
 30
0.0
 11
980.791928
 21
2304.535896
 31
0.0
  0
LINE
  5
37A
102
{ACAD_REACTORS
330
60F
102
}
330
1F
100
AcDbEntity
  8
LC-002-002-----0
 62
     7
370
    25
100
AcDbLine
 10
981.562394
 20
2303.055947
 30
0.0
 11
982.332807
 21
2304.535896
 31
0.0
  0
LINE
  5
37B
102
{ACAD_REACTORS
330
60F
102
}
330
1F
100
AcDbEntity
  8
LC-002-002-----0
 62
     7
370
    25
100
AcDbLine
 10
983.103273
 20
2303.055947
 30
0.0
 11
983.873685
 21
2304.535896
 31
0.0
  0
LINE
  5
37C
102
{ACAD_REACTORS
330
60F
102
}
330
1F
100
AcDbEntity
  8
LC-002-002-----0
 62
     7
370
    25
100
AcDbLine
 10
984.644151
 20
2303.055947
 30
0.0
 11
985.414564
 21
2304.535896
 31
0.0
  0
LINE
  5
37D
102
{ACAD_REACTORS
330
60F
102
}
330
1F
100
AcDbEntity
  8
LC-002-002-----0
 62
     7
370
    25
100
AcDbLine
 10
992.227512
 20
2291.412216
 30
0.0
 11
991.36149
 21
2289.912221
 31
0.0
  0
LINE
  5
37E
102
{ACAD_REACTORS
330
60F
102
}
330
1F
100
AcDbEntity
  8
LC-002-002-----0
 62
     7
370
    25
100
AcDbLine
 10
993.959563
 20
2291.412216
 30
0.0
 11
993.093541
 21
2289.912221
 31
0.0
  0
LINE
  5
37F
102
{ACAD_REACTORS
330
60F
102
}
330
1F
100
AcDbEntity
  8
LC-002-002-----0
 62
     7
370
    25
100
AcDbLine
 10
987.419292
 20
2294.283459
 30
0.0
 11
988.169292
 21
2295.033459
 31
0.0
  0
LINE
  5
380
102
{ACAD_REACTORS
330
611
102
}
330
1F
100
AcDbEntity
  8
LC-002-002-----0
 62
     7
370
    25
100
AcDbLine
 10
934.873059
 20
2490.680896
 30
0.0
 11
912.873059
 21
2490.680896
 31
0.0
  0
LINE
  5
381
102
{ACAD_REACTORS
330
60F
102
}
330
1F
100
AcDbEntity
  8
LC-002-002-----0
 62
     7
370
    25
100
AcDbLine
 10
991.361588
 20
2244.377171
 30
0.0
 11
990.669293
 21
2243.178081
 31
0.0
  0
LINE
  5
382
102
{ACAD_REACTORS
330
60F
102
}
330
1F
100
AcDbEntity
  8
LC-002-002-----0
 62
     7
370
    25
100
AcDbLine
 10
993.093639
 20
2244.377171
 30
0.0
 11
992.227617
 21
2242.877177
 31
0.0
  0
LINE
  5
383
102
{ACAD_REACTORS
330
60F
102
}
330
1F
100
AcDbEntity
  8
LC-002-002-----0
 62
     7
370
    25
100
AcDbLine
 10
994.82569
 20
2244.377171
 30
0.0
 11
993.959667
 21
2242.877177
 31
0.0
  0
LINE
  5
384
102
{ACAD_REACTORS
330
60F
102
}
330
1F
100
AcDbEntity
  8
LC-002-002-----0
 62
     7
370
    25
100
AcDbLine
 10
1088.418683
 20
2306.117989
 30
0.0
 11
1090.168658
 21
2307.128338
 31
0.0
  0
LINE
  5
385
102
{ACAD_REACTORS
330
60F
102
}
330
1F
100
AcDbEntity
  8
LC-002-002-----0
 62
     7
370
    25
100
AcDbLine
 10
1067.669293
 20
2267.499852
 30
0.0
 11
1067.669293
 21
2281.019852
 31
0.0
  0
LINE
  5
386
102
{ACAD_REACTORS
330
60F
102
}
330
1F
100
AcDbEntity
  8
LC-002-002-----0
 62
     7
370
    25
100
AcDbLine
 10
1081.16743
 20
2298.58497
 30
0.0
 11
1081.16743
 21
2299.288214
 31
0.0
  0
LINE
  5
387
102
{ACAD_REACTORS
330
60F
102
}
330
1F
100
AcDbEntity
  8
LC-002-002-----0
 62
     7
370
    25
100
AcDbLine
 10
1083.169293
 20
2301.788214
 30
0.0
 11
1083.169293
 21
2299.288214
 31
0.0
  0
LINE
  5
388
102
{ACAD_REACTORS
330
60F
102
}
330
1F
100
AcDbEntity
  8
LC-002-002-----0
 62
     7
370
    25
100
AcDbLine
 10
1093.169293
 20
2312.324857
 30
0.0
 11
1093.169293
 21
2327.788214
 31
0.0
  0
LINE
  5
389
102
{ACAD_REACTORS
330
60F
102
}
330
1F
100
AcDbEntity
  8
LC-002-002-----0
 62
     7
370
    25
100
AcDbLine
 10
1073.958232
 20
2288.829834
 30
0.0
 11
1074.436678
 21
2291.448698
 31
0.0
  0
LINE
  5
38A
102
{ACAD_REACTORS
330
60F
102
}
330
1F
100
AcDbEntity
  8
LC-002-002-----0
 62
     7
370
    25
100
AcDbLine
 10
1019.16932
 20
2244.928694
 30
0.0
 11
1019.569401
 21
2245.328775
 31
0.0
  0
LINE
  5
38B
102
{ACAD_REACTORS
330
60F
102
}
330
1F
100
AcDbEntity
  8
LC-002-002-----0
 62
     7
370
    25
100
AcDbLine
 10
1100.669293
 20
2337.470673
 30
0.0
 11
1100.669293
 21
2337.930896
 31
0.0
  0
ARC
  5
38C
102
{ACAD_REACTORS
330
60F
102
}
330
1F
100
AcDbEntity
  8
LC-002-002-----0
 62
     7
370
    25
100
AcDbCircle
 10
1097.169293
 20
2327.788214
 30
0.0
 40
3.999999999999812
100
AcDbArc
 50
104.492147
 51
180.0
  0
ARC
  5
38D
102
{ACAD_REACTORS
330
60F
102
}
330
1F
100
AcDbEntity
  8
LC-002-002-----0
 62
     7
370
    25
100
AcDbCircle
 10
1094.669293
 20
2337.470673
 30
0.0
 40
6.000000000000098
100
AcDbArc
 50
284.469452
 51
0.0
  0
ARC
  5
38E
102
{ACAD_REACTORS
330
60F
102
}
330
1F
100
AcDbEntity
  8
LC-002-002-----0
 62
     7
370
    25
100
AcDbCircle
 10
1087.169293
 20
2312.324857
 30
0.0
 40
5.999999999999977
100
AcDbArc
 50
299.988476
 51
0.0
  0
ARC
  5
38F
102
{ACAD_REACTORS
330
60F
102
}
330
1F
100
AcDbEntity
  8
LC-002-002-----0
 62
     7
370
    25
100
AcDbCircle
 10
1090.919293
 20
2301.788214
 30
0.0
 40
5.0000000000003
100
AcDbArc
 50
120.016153
 51
172.072225
  0
ARC
  5
390
102
{ACAD_REACTORS
330
60F
102
}
330
1F
100
AcDbEntity
  8
LC-002-002-----0
 62
     7
370
    25
100
AcDbCircle
 10
1000.419293
 20
2301.788214
 30
0.0
 40
4.999999999999969
100
AcDbArc
 50
7.927775
 51
33.954632
  0
ARC
  5
391
102
{ACAD_REACTORS
330
60F
102
}
330
1F
100
AcDbEntity
  8
LC-002-002-----0
 62
     7
370
    25
100
AcDbCircle
 10
1085.17473
 20
2302.588214
 30
0.0
 40
0.8000000000001819
100
AcDbArc
 50
270.0
 51
352.062606
  0
ARC
  5
392
102
{ACAD_REACTORS
330
60F
102
}
330
1F
100
AcDbEntity
  8
LC-002-002-----0
 62
     7
370
    25
100
AcDbCircle
 10
1006.163856
 20
2302.588214
 30
0.0
 40
0.8000000000000567
100
AcDbArc
 50
187.937394
 51
270.0
  0
ARC
  5
393
102
{ACAD_REACTORS
330
612
102
}
330
1F
100
AcDbEntity
  8
LC-002-002-----0
 62
     7
370
    25
100
AcDbCircle
 10
773.386293
 20
2226.064667
 30
0.0
 40
0.3170000000000073
100
AcDbArc
 50
180.0
 51
242.36046
  0
ARC
  5
394
102
{ACAD_REACTORS
330
612
102
}
330
1F
100
AcDbEntity
  8
LC-002-002-----0
 62
     7
370
    25
100
AcDbCircle
 10
727.952293
 20
2226.064667
 30
0.0
 40
0.3170000000001038
100
AcDbArc
 50
297.567177
 51
0.0
  0
ARC
  5
395
102
{ACAD_REACTORS
330
612
102
}
330
1F
100
AcDbEntity
  8
LC-002-002-----0
 62
     7
370
    25
100
AcDbCircle
 10
774.231025
 20
2224.910167
 30
0.0
 40
0.3169999999997976
100
AcDbArc
 50
297.317979
 51
62.682021
  0
ARC
  5
396
102
{ACAD_REACTORS
330
612
102
}
330
1F
100
AcDbEntity
  8
LC-002-002-----0
 62
     7
370
    25
100
AcDbCircle
 10
727.107561
 20
2224.910167
 30
0.0
 40
0.3169999999999512
100
AcDbArc
 50
117.394588
 51
242.605412
  0
ARC
  5
397
102
{ACAD_REACTORS
330
612
102
}
330
1F
100
AcDbEntity
  8
LC-002-002-----0
 62
     7
370
    25
100
AcDbCircle
 10
727.952293
 20
2223.755667
 30
0.0
 40
0.3169999999997007
100
AcDbArc
 50
297.567177
 51
62.432823
  0
ARC
  5
398
102
{ACAD_REACTORS
330
612
102
}
330
1F
100
AcDbEntity
  8
LC-002-002-----0
 62
     7
370
    25
100
AcDbCircle
 10
773.386293
 20
2223.755667
 30
0.0
 40
0.3170000000002856
100
AcDbArc
 50
117.63954
 51
242.36046
  0
ARC
  5
399
102
{ACAD_REACTORS
330
612
102
}
330
1F
100
AcDbEntity
  8
LC-002-002-----0
 62
     7
370
    25
100
AcDbCircle
 10
774.231025
 20
2222.601167
 30
0.0
 40
0.3170000000004103
100
AcDbArc
 50
297.317979
 51
62.682021
  0
ARC
  5
39A
102
{ACAD_REACTORS
330
612
102
}
330
1F
100
AcDbEntity
  8
LC-002-002-----0
 62
     7
370
    25
100
AcDbCircle
 10
727.107561
 20
2222.601167
 30
0.0
 40
0.3169999999999364
100
AcDbArc
 50
117.394588
 51
242.605412
  0
ARC
  5
39B
102
{ACAD_REACTORS
330
612
102
}
330
1F
100
AcDbEntity
  8
LC-002-002-----0
 62
     7
370
    25
100
AcDbCircle
 10
727.952293
 20
2221.446667
 30
0.0
 40
0.3170000000000861
100
AcDbArc
 50
297.567177
 51
62.432823
  0
ARC
  5
39C
102
{ACAD_REACTORS
330
612
102
}
330
1F
100
AcDbEntity
  8
LC-002-002-----0
 62
     7
370
    25
100
AcDbCircle
 10
773.386293
 20
2221.446667
 30
0.0
 40
0.3169999999998827
100
AcDbArc
 50
117.63954
 51
242.36046
  0
ARC
  5
39D
102
{ACAD_REACTORS
330
612
102
}
330
1F
100
AcDbEntity
  8
LC-002-002-----0
 62
     7
370
    25
100
AcDbCircle
 10
774.231025
 20
2220.292167
 30
0.0
 40
0.3170000000000063
100
AcDbArc
 50
297.317979
 51
62.682021
  0
ARC
  5
39E
102
{ACAD_REACTORS
330
612
102
}
330
1F
100
AcDbEntity
  8
LC-002-002-----0
 62
     7
370
    25
100
AcDbCircle
 10
727.107561
 20
2220.292167
 30
0.0
 40
0.3169999999999512
100
AcDbArc
 50
117.394588
 51
242.605412
  0
ARC
  5
39F
102
{ACAD_REACTORS
330
612
102
}
330
1F
100
AcDbEntity
  8
LC-002-002-----0
 62
     7
370
    25
100
AcDbCircle
 10
727.952293
 20
2219.137667
 30
0.0
 40
0.3170000000000861
100
AcDbArc
 50
297.567177
 51
62.432823
  0
ARC
  5
3A0
102
{ACAD_REACTORS
330
612
102
}
330
1F
100
AcDbEntity
  8
LC-002-002-----0
 62
     7
370
    25
100
AcDbCircle
 10
773.386293
 20
2219.137667
 30
0.0
 40
0.3169999999998827
100
AcDbArc
 50
117.63954
 51
242.36046
  0
ARC
  5
3A1
102
{ACAD_REACTORS
330
612
102
}
330
1F
100
AcDbEntity
  8
LC-002-002-----0
 62
     7
370
    25
100
AcDbCircle
 10
774.231025
 20
2217.983167
 30
0.0
 40
0.3169999999997976
100
AcDbArc
 50
297.317979
 51
62.682021
  0
ARC
  5
3A2
102
{ACAD_REACTORS
330
612
102
}
330
1F
100
AcDbEntity
  8
LC-002-002-----0
 62
     7
370
    25
100
AcDbCircle
 10
727.107561
 20
2217.983167
 30
0.0
 40
0.3169999999999512
100
AcDbArc
 50
117.394588
 51
242.605412
  0
ARC
  5
3A3
102
{ACAD_REACTORS
330
612
102
}
330
1F
100
AcDbEntity
  8
LC-002-002-----0
 62
     7
370
    25
100
AcDbCircle
 10
773.386293
 20
2216.828667
 30
0.0
 40
0.3169999999996908
100
AcDbArc
 50
117.63954
 51
180.0
  0
ARC
  5
3A4
102
{ACAD_REACTORS
330
612
102
}
330
1F
100
AcDbEntity
  8
LC-002-002-----0
 62
     7
370
    25
100
AcDbCircle
 10
727.952293
 20
2216.828667
 30
0.0
 40
0.3170000000000073
100
AcDbArc
 50
0.0
 51
62.432823
  0
ARC
  5
3A5
102
{ACAD_REACTORS
330
612
102
}
330
1F
100
AcDbEntity
  8
LC-002-002-----0
 62
     7
370
    25
100
AcDbCircle
 10
768.669293
 20
2249.328667
 30
0.0
 40
37.99999999999973
100
AcDbArc
 50
90.000006
 51
179.393653
  0
ARC
  5
3A6
102
{ACAD_REACTORS
330
613
102
}
330
1F
100
AcDbEntity
  8
LC-002-002-----0
 62
     7
370
    25
100
AcDbCircle
 10
935.273067
 20
2425.180896
 30
0.0
 40
0.5
100
AcDbArc
 50
0.0
 51
90.0
  0
ARC
  5
3A7
102
{ACAD_REACTORS
330
613
102
}
330
1F
100
AcDbEntity
  8
LC-002-002-----0
 62
     7
370
    25
100
AcDbCircle
 10
911.273067
 20
2425.180896
 30
0.0
 40
0.5
100
AcDbArc
 50
90.0
 51
180.0
  0
ARC
  5
3A8
102
{ACAD_REACTORS
330
613
102
}
330
1F
100
AcDbEntity
  8
LC-002-002-----0
 62
     7
370
    25
100
AcDbCircle
 10
936.773067
 20
2368.330006
 30
0.0
 40
1.0
100
AcDbArc
 50
180.0
 51
223.137678
  0
ARC
  5
3A9
102
{ACAD_REACTORS
330
613
102
}
330
1F
100
AcDbEntity
  8
LC-002-002-----0
 62
     7
370
    25
100
AcDbCircle
 10
909.773067
 20
2368.330006
 30
0.0
 40
0.9999999999998279
100
AcDbArc
 50
316.862322
 51
0.0
  0
ARC
  5
3AA
102
{ACAD_REACTORS
330
613
102
}
330
1F
100
AcDbEntity
  8
LC-002-002-----0
 62
     7
370
    25
100
AcDbCircle
 10
923.273067
 20
2355.680896
 30
0.0
 40
17.49999999999994
100
AcDbArc
 50
136.85835
 51
163.398452
  0
ARC
  5
3AB
102
{ACAD_REACTORS
330
613
102
}
330
1F
100
AcDbEntity
  8
LC-002-002-----0
 62
     7
370
    25
100
AcDbCircle
 10
923.273067
 20
2355.680896
 30
0.0
 40
17.49999999999992
100
AcDbArc
 50
16.601549
 51
43.141806
  0
ARC
  5
3AC
102
{ACAD_REACTORS
330
60F
102
}
330
1F
100
AcDbEntity
  8
LC-002-002-----0
 62
     7
370
    25
100
AcDbCircle
 10
1067.564068
 20
2289.998024
 30
0.0
 40
6.500000000000005
100
AcDbArc
 50
289.07704
 51
349.645823
  0
ARC
  5
3AD
102
{ACAD_REACTORS
330
60F
102
}
330
1F
100
AcDbEntity
  8
LC-002-002-----0
 62
     7
370
    25
100
AcDbCircle
 10
1070.669293
 20
2281.019852
 30
0.0
 40
2.999999999999865
100
AcDbArc
 50
109.055448
 51
180.0
  0
ARC
  5
3AE
102
{ACAD_REACTORS
330
60F
102
}
330
1F
100
AcDbEntity
  8
LC-002-002-----0
 62
     7
370
    25
100
AcDbCircle
 10
1045.669293
 20
2267.499852
 30
0.0
 40
22.0
100
AcDbArc
 50
270.0
 51
0.0
  0
ARC
  5
3AF
102
{ACAD_REACTORS
330
60F
102
}
330
1F
100
AcDbEntity
  8
LC-002-002-----0
 62
     7
370
    25
100
AcDbCircle
 10
1079.16743
 20
2298.58497
 30
0.0
 40
1.99999999999997
100
AcDbArc
 50
334.152631
 51
0.0
  0
ARC
  5
3B0
102
{ACAD_REACTORS
330
60F
102
}
330
1F
100
AcDbEntity
  8
LC-002-002-----0
 62
     7
370
    25
100
AcDbCircle
 10
1012.171156
 20
2298.58497
 30
0.0
 40
2.0
100
AcDbArc
 50
180.0
 51
205.847369
  0
ARC
  5
3B1
102
{ACAD_REACTORS
330
60F
102
}
330
1F
100
AcDbEntity
  8
LC-002-002-----0
 62
     7
370
    25
100
AcDbCircle
 10
1075.567497
 20
2300.328667
 30
0.0
 40
6.000000000000346
100
AcDbArc
 50
286.283517
 51
334.155028
  0
ARC
  5
3B2
102
{ACAD_REACTORS
330
60F
102
}
330
1F
100
AcDbEntity
  8
LC-002-002-----0
 62
     7
370
    25
100
AcDbCircle
 10
1015.771089
 20
2300.328667
 30
0.0
 40
6.000000000000001
100
AcDbArc
 50
205.844972
 51
253.716483
  0
ARC
  5
3B3
102
{ACAD_REACTORS
330
60F
102
}
330
1F
100
AcDbEntity
  8
LC-002-002-----0
 62
     7
370
    25
100
AcDbCircle
 10
1078.371556
 20
2290.729852
 30
0.0
 40
3.999999999999869
100
AcDbArc
 50
106.281751
 51
169.647048
  0
ARC
  5
3B4
102
{ACAD_REACTORS
330
60F
102
}
330
1F
100
AcDbEntity
  8
LC-002-002-----0
 62
     7
370
    25
100
AcDbCircle
 10
1012.96703
 20
2290.729852
 30
0.0
 40
4.00000000000002
100
AcDbArc
 50
10.352952
 51
73.718249
  0
ARC
  5
3B5
102
{ACAD_REACTORS
330
614
102
}
330
1F
100
AcDbEntity
  8
LC-002-002-----0
 62
     7
370
    25
100
AcDbCircle
 10
923.273067
 20
2354.680896
 30
0.0
 40
20.00000000000002
100
AcDbArc
 50
311.290426
 51
0.0
  0
ARC
  5
3B6
102
{ACAD_REACTORS
330
614
102
}
330
1F
100
AcDbEntity
  8
LC-002-002-----0
 62
     7
370
    25
100
AcDbCircle
 10
923.273067
 20
2354.680896
 30
0.0
 40
20.0
100
AcDbArc
 50
180.0
 51
228.709438
  0
ARC
  5
3B7
102
{ACAD_REACTORS
330
614
102
}
330
1F
100
AcDbEntity
  8
LC-002-002-----0
 62
     7
370
    25
100
AcDbCircle
 10
923.273067
 20
2319.680896
 30
0.0
 40
12.5
100
AcDbArc
 50
180.0
 51
270.0
  0
ARC
  5
3B8
102
{ACAD_REACTORS
330
60F
102
}
330
1F
100
AcDbEntity
  8
LC-002-002-----0
 62
     7
370
    25
100
AcDbCircle
 10
968.169293
 20
2337.430896
 30
0.0
 40
1.999999999999995
100
AcDbArc
 50
174.05239
 51
180.0
  0
ARC
  5
3B9
102
{ACAD_REACTORS
330
60F
102
}
330
1F
100
AcDbEntity
  8
LC-002-002-----0
 62
     7
370
    25
100
AcDbCircle
 10
968.169293
 20
2301.930896
 30
0.0
 40
2.0
100
AcDbArc
 50
180.0
 51
185.94761
  0
ARC
  5
3BA
102
{ACAD_REACTORS
330
60F
102
}
330
1F
100
AcDbEntity
  8
LC-002-002-----0
 62
     7
370
    25
100
AcDbCircle
 10
973.669293
 20
2291.128667
 30
0.0
 40
2.0
100
AcDbArc
 50
90.0
 51
180.0
  0
ARC
  5
3BB
102
{ACAD_REACTORS
330
60F
102
}
330
1F
100
AcDbEntity
  8
LC-002-002-----0
 62
     7
370
    25
100
AcDbCircle
 10
973.669293
 20
2243.528667
 30
0.0
 40
2.0
100
AcDbArc
 50
180.0
 51
270.0
  0
INSERT
  5
3C5
102
{ACAD_REACTORS
330
60F
102
}
330
1F
100
AcDbEntity
  8
LC-002-002-----0
 62
     7
370
    25
100
AcDbBlockReference
  2
POLY1
 10
0.0
 20
0.0
 30
0.0
  0
INSERT
  5
3CF
102
{ACAD_REACTORS
330
60F
102
}
330
1F
100
AcDbEntity
  8
LC-002-002-----0
 62
     7
370
    25
100
AcDbBlockReference
  2
POLY2
 10
0.0
 20
0.0
 30
0.0
  0
INSERT
  5
3DD
102
{ACAD_REACTORS
330
60F
102
}
330
1F
100
AcDbEntity
  8
LC-002-002-----0
 62
     7
370
    25
100
AcDbBlockReference
  2
POLY3
 10
0.0
 20
0.0
 30
0.0
  0
INSERT
  5
3EB
102
{ACAD_REACTORS
330
60F
102
}
330
1F
100
AcDbEntity
  8
LC-002-002-----0
 62
     7
370
    25
100
AcDbBlockReference
  2
POLY4
 10
0.0
 20
0.0
 30
0.0
  0
INSERT
  5
3F0
102
{ACAD_REACTORS
330
612
102
}
330
1F
100
AcDbEntity
  8
LC-002-002-----0
 62
     7
370
    25
100
AcDbBlockReference
  2
POLY5
 10
0.0
 20
0.0
 30
0.0
  0
INSERT
  5
41A
102
{ACAD_REACTORS
330
614
102
}
330
1F
100
AcDbEntity
  8
LC-002-002-----0
 62
     7
370
    25
100
AcDbBlockReference
  2
POLY6
 10
0.0
 20
0.0
 30
0.0
  0
LINE
  5
41B
102
{ACAD_REACTORS
330
612
102
}
330
1F
100
AcDbEntity
  8
LC-002-002-----0
 62
     7
370
    25
100
AcDbLine
 10
777.069293
 20
2247.328667
 30
0.0
 11
971.669293
 21
2247.328667
 31
0.0
  0
LINE
  5
41C
102
{ACAD_REACTORS
330
611
102
}
330
1F
100
AcDbEntity
  8
LC-002-002-----0
 62
     7
370
    25
100
AcDbLine
 10
934.473067
 20
2490.280447
 30
0.0
 11
934.352543
 21
2490.506233
 31
0.0
  0
LINE
  5
41D
102
{ACAD_REACTORS
330
611
102
}
330
1F
100
AcDbEntity
  8
LC-002-002-----0
 62
     7
370
    25
100
AcDbLine
 10
934.352543
 20
2490.506233
 30
0.0
 11
934.179465
 21
2490.636227
 31
0.0
  0
LINE
  5
41E
102
{ACAD_REACTORS
330
611
102
}
330
1F
100
AcDbEntity
  8
LC-002-002-----0
 62
     7
370
    25
100
AcDbLine
 10
934.179465
 20
2490.636227
 30
0.0
 11
933.972972
 21
2490.680896
 31
0.0
  0
LINE
  5
41F
102
{ACAD_REACTORS
330
611
102
}
330
1F
100
AcDbEntity
  8
LC-002-002-----0
 62
     7
370
    25
100
AcDbLine
 10
913.773145
 20
2490.680896
 30
0.0
 11
913.56642
 21
2490.636122
 31
0.0
  0
LINE
  5
420
102
{ACAD_REACTORS
330
611
102
}
330
1F
100
AcDbEntity
  8
LC-002-002-----0
 62
     7
370
    25
100
AcDbLine
 10
913.56642
 20
2490.636122
 30
0.0
 11
913.393289
 21
2490.505899
 31
0.0
  0
LINE
  5
421
102
{ACAD_REACTORS
330
611
102
}
330
1F
100
AcDbEntity
  8
LC-002-002-----0
 62
     7
370
    25
100
AcDbLine
 10
913.393289
 20
2490.505899
 30
0.0
 11
913.273067
 21
2490.280166
 31
0.0
  0
LINE
  5
422
102
{ACAD_REACTORS
330
60F
102
}
330
1F
100
AcDbEntity
  8
LC-002-002-----0
 62
     7
370
    25
100
AcDbLine
 10
1000.481949
 20
2331.660746
 30
0.0
 11
1093.167546
 21
2331.660746
 31
0.0
  0
INSERT
  5
432
102
{ACAD_REACTORS
330
60F
102
}
330
1F
100
AcDbEntity
  8
LC-002-002-----0
 62
     7
370
    25
100
AcDbBlockReference
  2
POLY7
 10
0.0
 20
0.0
 30
0.0
  0
INSERT
  5
440
102
{ACAD_REACTORS
330
60F
102
}
330
1F
100
AcDbEntity
  8
LC-002-002-----0
 62
     7
370
    25
100
AcDbBlockReference
  2
POLY8
 10
0.0
 20
0.0
 30
0.0
  0
LINE
  5
441
102
{ACAD_REACTORS
330
60F
102
}
330
1F
100
AcDbEntity
  8
LC-002-002-----0
 62
     7
370
    25
100
AcDbLine
 10
1000.633681
 20
2327.788214
 30
0.0
 11
1000.633681
 21
2319.680896
 31
0.0
  0
LINE
  5
442
102
{ACAD_REACTORS
330
60F
102
}
330
1F
100
AcDbEntity
  8
LC-002-002-----0
 62
     7
370
    25
100
AcDbLine
 10
1008.169293
 20
2301.788214
 30
0.0
 11
1006.164329
 21
2301.788214
 31
0.0
  0
LINE
  5
443
102
{ACAD_REACTORS
330
60F
102
}
330
1F
100
AcDbEntity
  8
LC-002-002-----0
 62
     7
370
    25
100
AcDbLine
 10
1010.171156
 20
2299.288214
 30
0.0
 11
1008.169293
 21
2299.288214
 31
0.0
  0
LINE
  5
444
102
{ACAD_REACTORS
330
605
102
}
330
1F
100
AcDbEntity
  8
LC-002-002-----0
 62
     7
370
    50
100
AcDbLine
 10
865.669293
 20
2496.930896
 30
0.0
 11
865.669293
 21
2404.439488
 31
0.0
  0
LINE
  5
445
102
{ACAD_REACTORS
330
605
102
}
330
1F
100
AcDbEntity
  8
LC-002-002-----0
 62
     7
370
    50
100
AcDbLine
 10
846.669293
 20
2496.930896
 30
0.0
 11
846.669293
 21
2404.439488
 31
0.0
  0
LINE
  5
446
102
{ACAD_REACTORS
330
605
102
}
330
1F
100
AcDbEntity
  8
LC-002-002-----0
 62
     7
370
    50
100
AcDbLine
 10
846.669293
 20
2496.930896
 30
0.0
 11
865.669293
 21
2496.930896
 31
0.0
  0
LINE
  5
447
102
{ACAD_REACTORS
330
605
102
}
330
1F
100
AcDbEntity
  8
LC-002-002-----0
 62
     7
370
    25
100
AcDbLine
 10
846.669293
 20
2404.439488
 30
0.0
 11
860.384912
 21
2401.596564
 31
0.0
  0
LINE
  5
448
102
{ACAD_REACTORS
330
605
102
}
330
1F
100
AcDbEntity
  8
LC-002-002-----0
 62
     7
370
    25
100
AcDbLine
 10
860.384912
 20
2401.596564
 30
0.0
 11
865.669293
 21
2404.439488
 31
0.0
  0
INSERT
  5
462
102
{ACAD_REACTORS
330
605
102
}
330
1F
100
AcDbEntity
  8
LC-008-003-----0
 62
     7
370
    25
100
AcDbBlockReference
  2
LCDIM9
 10
0.0
 20
0.0
 30
0.0
  0
INSERT
  5
46A
102
{ACAD_REACTORS
330
605
102
}
330
1F
100
AcDbEntity
  8
LC-015-005-----0
 62
     7
370
    25
100
AcDbBlockReference
  2
*X329
 10
0.0
 20
0.0
 30
0.0
  0
INSERT
  5
484
102
{ACAD_REACTORS
330
60C
102
}
330
1F
100
AcDbEntity
  8
LC-008-003-----0
 62
     7
370
    25
100
AcDbBlockReference
  2
LCDIM10
 10
0.0
 20
0.0
 30
0.0
  0
LINE
  5
485
102
{ACAD_REACTORS
330
616
102
}
330
1F
100
AcDbEntity
  8
LC-002-002-----0
 62
     7
370
    25
100
AcDbLine
 10
1551.225036
 20
1771.690813
 30
0.0
 11
1629.561207
 21
1786.331185
 31
0.0
  0
LINE
  5
486
102
{ACAD_REACTORS
330
616
102
}
330
1F
100
AcDbEntity
  8
LC-002-002-----0
 62
     7
370
    25
100
AcDbLine
 10
1554.314363
 20
1755.160766
 30
0.0
 11
1632.650534
 21
1769.801138
 31
0.0
  0
LINE
  5
487
102
{ACAD_REACTORS
330
616
102
}
330
1F
100
AcDbEntity
  8
LC-002-002-----0
 62
     7
370
    25
100
AcDbLine
 10
1539.041327
 20
1869.247744
 30
0.0
 11
1539.633451
 21
1870.385204
 31
0.0
  0
LINE
  5
488
102
{ACAD_REACTORS
330
616
102
}
330
1F
100
AcDbEntity
  8
LC-002-002-----0
 62
     7
370
    25
100
AcDbLine
 10
1541.350327
 20
1869.247744
 30
0.0
 11
1541.942451
 21
1870.385204
 31
0.0
  0
LINE
  5
489
102
{ACAD_REACTORS
330
616
102
}
330
1F
100
AcDbEntity
  8
LC-002-002-----0
 62
     7
370
    25
100
AcDbLine
 10
1543.659327
 20
1869.247744
 30
0.0
 11
1544.251451
 21
1870.385204
 31
0.0
  0
LINE
  5
48A
102
{ACAD_REACTORS
330
616
102
}
330
1F
100
AcDbEntity
  8
LC-002-002-----0
 62
     7
370
    25
100
AcDbLine
 10
1545.968327
 20
1869.247744
 30
0.0
 11
1546.560451
 21
1870.385204
 31
0.0
  0
LINE
  5
48B
102
{ACAD_REACTORS
330
616
102
}
330
1F
100
AcDbEntity
  8
LC-002-002-----0
 62
     7
370
    25
100
AcDbLine
 10
1540.196267
 20
1822.969857
 30
0.0
 11
1540.788392
 21
1824.107317
 31
0.0
  0
LINE
  5
48C
102
{ACAD_REACTORS
330
616
102
}
330
1F
100
AcDbEntity
  8
LC-002-002-----0
 62
     7
370
    25
100
AcDbLine
 10
1542.505267
 20
1822.969857
 30
0.0
 11
1543.097392
 21
1824.107317
 31
0.0
  0
LINE
  5
48D
102
{ACAD_REACTORS
330
616
102
}
330
1F
100
AcDbEntity
  8
LC-002-002-----0
 62
     7
370
    25
100
AcDbLine
 10
1544.814267
 20
1822.969857
 30
0.0
 11
1545.406392
 21
1824.107317
 31
0.0
  0
LINE
  5
48E
102
{ACAD_REACTORS
330
616
102
}
330
1F
100
AcDbEntity
  8
LC-002-002-----0
 62
     7
370
    25
100
AcDbLine
 10
1547.123267
 20
1822.969857
 30
0.0
 11
1547.715392
 21
1824.107317
 31
0.0
  0
LINE
  5
48F
102
{ACAD_REACTORS
330
616
102
}
330
1F
100
AcDbEntity
  8
LC-002-002-----0
 62
     7
370
    25
100
AcDbLine
 10
1569.260359
 20
1869.077531
 30
0.0
 11
1547.996359
 21
1869.077531
 31
0.0
  0
LINE
  5
490
102
{ACAD_REACTORS
330
616
102
}
330
1F
100
AcDbEntity
  8
LC-002-002-----0
 62
     7
370
    25
100
AcDbLine
 10
1538.760359
 20
1869.077531
 30
0.0
 11
1538.260359
 21
1869.077531
 31
0.0
  0
LINE
  5
491
102
{ACAD_REACTORS
330
616
102
}
330
1F
100
AcDbEntity
  8
LC-002-002-----0
 62
     7
370
    25
100
AcDbLine
 10
1538.260359
 20
1824.277531
 30
0.0
 11
1538.260359
 21
1869.077531
 31
0.0
  0
LINE
  5
492
102
{ACAD_REACTORS
330
616
102
}
330
1F
100
AcDbEntity
  8
LC-002-002-----0
 62
     7
370
    25
100
AcDbLine
 10
1569.260359
 20
1824.300014
 30
0.0
 11
1565.260359
 21
1824.300014
 31
0.0
  0
LINE
  5
493
102
{ACAD_REACTORS
330
616
102
}
330
1F
100
AcDbEntity
  8
LC-002-002-----0
 62
     7
370
    25
100
AcDbLine
 10
1565.260359
 20
1824.277531
 30
0.0
 11
1547.996359
 21
1824.277531
 31
0.0
  0
LINE
  5
494
102
{ACAD_REACTORS
330
616
102
}
330
1F
100
AcDbEntity
  8
LC-002-002-----0
 62
     7
370
    25
100
AcDbLine
 10
1538.760359
 20
1824.277531
 30
0.0
 11
1538.260359
 21
1824.277531
 31
0.0
  0
LINE
  5
495
102
{ACAD_REACTORS
330
615
102
}
330
1F
100
AcDbEntity
  8
LC-002-002-----0
 62
     7
370
    25
100
AcDbLine
 10
1663.862588
 20
1676.96075
 30
0.0
 11
1663.862588
 21
1566.96075
 31
0.0
  0
LINE
  5
496
102
{ACAD_REACTORS
330
615
102
}
330
1F
100
AcDbEntity
  8
LC-002-002-----0
 62
     7
370
    25
100
AcDbLine
 10
1659.862588
 20
1566.96075
 30
0.0
 11
1663.862588
 21
1566.96075
 31
0.0
  0
LINE
  5
497
102
{ACAD_REACTORS
330
617
102
}
330
1F
100
AcDbEntity
  8
LC-002-002-----0
 62
     7
370
    25
100
AcDbLine
 10
1611.843914
 20
1672.804353
 30
0.0
 11
1611.660359
 21
1672.804353
 31
0.0
  0
LINE
  5
498
102
{ACAD_REACTORS
330
617
102
}
330
1F
100
AcDbEntity
  8
LC-002-002-----0
 62
     7
370
    25
100
AcDbLine
 10
1566.860359
 20
1648.46075
 30
0.0
 11
1566.860359
 21
1672.804403
 31
0.0
  0
LINE
  5
499
102
{ACAD_REACTORS
330
617
102
}
330
1F
100
AcDbEntity
  8
LC-002-002-----0
 62
     7
370
    25
100
AcDbLine
 10
1567.260359
 20
1621.96075
 30
0.0
 11
1567.260359
 21
1648.06075
 31
0.0
  0
LINE
  5
49A
102
{ACAD_REACTORS
330
616
102
}
330
1F
100
AcDbEntity
  8
LC-002-002-----0
 62
     7
370
    25
100
AcDbLine
 10
1569.286
 20
1820.277531
 30
0.0
 11
1569.286
 21
1824.324904
 31
0.0
  0
ARC
  5
49B
102
{ACAD_REACTORS
330
617
102
}
330
1F
100
AcDbEntity
  8
LC-013-002-RND-0
 62
     7
370
    25
100
AcDbCircle
 10
1589.260359
 20
1621.96075
 30
0.0
 40
22.0
100
AcDbArc
 50
180.0
 51
270.0
  0
LINE
  5
49C
102
{ACAD_REACTORS
330
616
102
}
330
1F
100
AcDbEntity
  8
LC-002-002-----0
 62
     7
370
    25
100
AcDbLine
 10
1609.260359
 20
1695.96075
 30
0.0
 11
1609.260359
 21
1765.429711
 31
0.0
  0
LINE
  5
49D
102
{ACAD_REACTORS
330
617
102
}
330
1F
100
AcDbEntity
  8
LC-002-002-----0
 62
     7
370
    25
100
AcDbLine
 10
1611.660359
 20
1650.377867
 30
0.0
 11
1611.660359
 21
1672.804403
 31
0.0
  0
LINE
  5
49E
102
{ACAD_REACTORS
330
615
102
}
330
1F
100
AcDbEntity
  8
LC-002-002-----0
 62
     7
370
    25
100
AcDbLine
 10
1621.219906
 20
1584.46075
 30
0.0
 11
1621.219906
 21
1659.46075
 31
0.0
  0
LINE
  5
49F
102
{ACAD_REACTORS
330
615
102
}
330
1F
100
AcDbEntity
  8
LC-002-002-----0
 62
     7
370
    25
100
AcDbLine
 10
1623.719907
 20
1582.455787
 30
0.0
 11
1623.719907
 21
1584.46075
 31
0.0
  0
LINE
  5
4A0
102
{ACAD_REACTORS
330
616
102
}
330
1F
100
AcDbEntity
  8
LC-002-002-----0
 62
     7
370
    25
100
AcDbLine
 10
1571.662487
 20
1866.675403
 30
0.0
 11
1569.26062
 21
1869.07727
 31
0.0
  0
LINE
  5
4A1
102
{ACAD_REACTORS
330
617
102
}
330
1F
100
AcDbEntity
  8
LC-002-002-----0
 62
     7
370
    25
100
AcDbLine
 10
1564.808869
 20
1675.402531
 30
0.0
 11
1566.308864
 21
1676.268553
 31
0.0
  0
LINE
  5
4A2
102
{ACAD_REACTORS
330
617
102
}
330
1F
100
AcDbEntity
  8
LC-002-002-----0
 62
     7
370
    25
100
AcDbLine
 10
1564.808869
 20
1673.67048
 30
0.0
 11
1566.308864
 21
1674.536502
 31
0.0
  0
LINE
  5
4A3
102
{ACAD_REACTORS
330
617
102
}
330
1F
100
AcDbEntity
  8
LC-002-002-----0
 62
     7
370
    25
100
AcDbLine
 10
1611.843914
 20
1676.268455
 30
0.0
 11
1613.043004
 21
1676.96075
 31
0.0
  0
LINE
  5
4A4
102
{ACAD_REACTORS
330
617
102
}
330
1F
100
AcDbEntity
  8
LC-002-002-----0
 62
     7
370
    25
100
AcDbLine
 10
1611.843914
 20
1674.536404
 30
0.0
 11
1613.343908
 21
1675.402426
 31
0.0
  0
LINE
  5
4A5
102
{ACAD_REACTORS
330
617
102
}
330
1F
100
AcDbEntity
  8
LC-002-002-----0
 62
     7
370
    25
100
AcDbLine
 10
1611.843914
 20
1672.804353
 30
0.0
 11
1613.343908
 21
1673.670376
 31
0.0
  0
LINE
  5
4A6
102
{ACAD_REACTORS
330
616
102
}
330
1F
100
AcDbEntity
  8
LC-002-002-----0
 62
     7
370
    25
100
AcDbLine
 10
1547.123267
 20
1870.385204
 30
0.0
 11
1547.715392
 21
1869.247744
 31
0.0
  0
LINE
  5
4A7
102
{ACAD_REACTORS
330
616
102
}
330
1F
100
AcDbEntity
  8
LC-002-002-----0
 62
     7
370
    25
100
AcDbLine
 10
1544.814267
 20
1870.385204
 30
0.0
 11
1545.406392
 21
1869.247744
 31
0.0
  0
LINE
  5
4A8
102
{ACAD_REACTORS
330
616
102
}
330
1F
100
AcDbEntity
  8
LC-002-002-----0
 62
     7
370
    25
100
AcDbLine
 10
1542.505267
 20
1870.385204
 30
0.0
 11
1543.097392
 21
1869.247744
 31
0.0
  0
LINE
  5
4A9
102
{ACAD_REACTORS
330
616
102
}
330
1F
100
AcDbEntity
  8
LC-002-002-----0
 62
     7
370
    25
100
AcDbLine
 10
1540.196267
 20
1870.385204
 30
0.0
 11
1540.788392
 21
1869.247744
 31
0.0
  0
LINE
  5
4AA
102
{ACAD_REACTORS
330
616
102
}
330
1F
100
AcDbEntity
  8
LC-002-002-----0
 62
     7
370
    25
100
AcDbLine
 10
1545.968327
 20
1824.107317
 30
0.0
 11
1546.560451
 21
1822.969857
 31
0.0
  0
LINE
  5
4AB
102
{ACAD_REACTORS
330
616
102
}
330
1F
100
AcDbEntity
  8
LC-002-002-----0
 62
     7
370
    25
100
AcDbLine
 10
1543.659327
 20
1824.107317
 30
0.0
 11
1544.251451
 21
1822.969857
 31
0.0
  0
LINE
  5
4AC
102
{ACAD_REACTORS
330
616
102
}
330
1F
100
AcDbEntity
  8
LC-002-002-----0
 62
     7
370
    25
100
AcDbLine
 10
1541.350327
 20
1824.107317
 30
0.0
 11
1541.942451
 21
1822.969857
 31
0.0
  0
LINE
  5
4AD
102
{ACAD_REACTORS
330
616
102
}
330
1F
100
AcDbEntity
  8
LC-002-002-----0
 62
     7
370
    25
100
AcDbLine
 10
1539.041327
 20
1824.107317
 30
0.0
 11
1539.633451
 21
1822.969857
 31
0.0
  0
LINE
  5
4AE
102
{ACAD_REACTORS
330
617
102
}
330
1F
100
AcDbEntity
  8
LC-002-002-----0
 62
     7
370
    25
100
AcDbLine
 10
1611.623203
 20
1650.407111
 30
0.0
 11
1613.38039
 21
1650.728135
 31
0.0
  0
LINE
  5
4AF
102
{ACAD_REACTORS
330
615
102
}
330
1F
100
AcDbEntity
  8
LC-002-002-----0
 62
     7
370
    25
100
AcDbLine
 10
1623.719907
 20
1659.46075
 30
0.0
 11
1621.219906
 21
1659.46075
 31
0.0
  0
LINE
  5
4B0
102
{ACAD_REACTORS
330
617
102
}
330
1F
100
AcDbEntity
  8
LC-002-002-----0
 62
     7
370
    25
100
AcDbLine
 10
1620.516662
 20
1657.458888
 30
0.0
 11
1621.219906
 21
1657.458888
 31
0.0
  0
LINE
  5
4B1
102
{ACAD_REACTORS
330
617
102
}
330
1F
100
AcDbEntity
  8
LC-002-002-----0
 62
     7
370
    25
100
AcDbLine
 10
1613.343908
 20
1675.402531
 30
0.0
 11
1611.843914
 21
1676.268553
 31
0.0
  0
LINE
  5
4B2
102
{ACAD_REACTORS
330
617
102
}
330
1F
100
AcDbEntity
  8
LC-002-002-----0
 62
     7
370
    25
100
AcDbLine
 10
1613.343908
 20
1673.67048
 30
0.0
 11
1611.843914
 21
1674.536502
 31
0.0
  0
LINE
  5
4B3
102
{ACAD_REACTORS
330
617
102
}
330
1F
100
AcDbEntity
  8
LC-002-002-----0
 62
     7
370
    25
100
AcDbLine
 10
1566.308864
 20
1676.268455
 30
0.0
 11
1565.109773
 21
1676.96075
 31
0.0
  0
LINE
  5
4B4
102
{ACAD_REACTORS
330
617
102
}
330
1F
100
AcDbEntity
  8
LC-002-002-----0
 62
     7
370
    25
100
AcDbLine
 10
1566.308864
 20
1674.536404
 30
0.0
 11
1564.808869
 21
1675.402426
 31
0.0
  0
LINE
  5
4B5
102
{ACAD_REACTORS
330
617
102
}
330
1F
100
AcDbEntity
  8
LC-002-002-----0
 62
     7
370
    25
100
AcDbLine
 10
1566.308864
 20
1672.804353
 30
0.0
 11
1564.808869
 21
1673.670376
 31
0.0
  0
LINE
  5
4B6
102
{ACAD_REACTORS
330
615
102
}
330
1F
100
AcDbEntity
  8
LC-002-002-----0
 62
     7
370
    25
100
AcDbLine
 10
1628.049681
 20
1579.21136
 30
0.0
 11
1629.06003
 21
1577.461385
 31
0.0
  0
LINE
  5
4B7
102
{ACAD_REACTORS
330
617
102
}
330
1F
100
AcDbEntity
  8
LC-002-002-----0
 62
     7
370
    25
100
AcDbLine
 10
1589.260359
 20
1599.96075
 30
0.0
 11
1602.951544
 21
1599.96075
 31
0.0
  0
LINE
  5
4B8
102
{ACAD_REACTORS
330
617
102
}
330
1F
100
AcDbEntity
  8
LC-002-002-----0
 62
     7
370
    25
100
AcDbLine
 10
1620.516662
 20
1586.462613
 30
0.0
 11
1621.219906
 21
1586.462613
 31
0.0
  0
LINE
  5
4B9
102
{ACAD_REACTORS
330
615
102
}
330
1F
100
AcDbEntity
  8
LC-002-002-----0
 62
     7
370
    25
100
AcDbLine
 10
1623.719907
 20
1584.46075
 30
0.0
 11
1621.219906
 21
1584.46075
 31
0.0
  0
LINE
  5
4BA
102
{ACAD_REACTORS
330
615
102
}
330
1F
100
AcDbEntity
  8
LC-002-002-----0
 62
     7
370
    25
100
AcDbLine
 10
1634.256549
 20
1574.46075
 30
0.0
 11
1649.719906
 21
1574.46075
 31
0.0
  0
LINE
  5
4BB
102
{ACAD_REACTORS
330
617
102
}
330
1F
100
AcDbEntity
  8
LC-002-002-----0
 62
     7
370
    25
100
AcDbLine
 10
1610.761526
 20
1593.671811
 30
0.0
 11
1613.38039
 21
1593.193365
 31
0.0
  0
LINE
  5
4BC
102
{ACAD_REACTORS
330
617
102
}
330
1F
100
AcDbEntity
  8
LC-002-002-----0
 62
     7
370
    25
100
AcDbLine
 10
1566.860387
 20
1648.460723
 30
0.0
 11
1567.260467
 21
1648.060642
 31
0.0
  0
LINE
  5
4BD
102
{ACAD_REACTORS
330
615
102
}
330
1F
100
AcDbEntity
  8
LC-002-002-----0
 62
     7
370
    25
100
AcDbLine
 10
1659.402365
 20
1566.96075
 30
0.0
 11
1659.862588
 21
1566.96075
 31
0.0
  0
ARC
  5
4BE
102
{ACAD_REACTORS
330
615
102
}
330
1F
100
AcDbEntity
  8
LC-002-002-----0
 62
     7
370
    25
100
AcDbCircle
 10
1649.719906
 20
1570.46075
 30
0.0
 40
3.999999999999812
100
AcDbArc
 50
14.492147
 51
90.0
  0
ARC
  5
4BF
102
{ACAD_REACTORS
330
615
102
}
330
1F
100
AcDbEntity
  8
LC-002-002-----0
 62
     7
370
    25
100
AcDbCircle
 10
1659.402365
 20
1572.96075
 30
0.0
 40
6.000000000000098
100
AcDbArc
 50
194.469452
 51
270.0
  0
ARC
  5
4C0
102
{ACAD_REACTORS
330
615
102
}
330
1F
100
AcDbEntity
  8
LC-002-002-----0
 62
     7
370
    25
100
AcDbCircle
 10
1634.256549
 20
1580.46075
 30
0.0
 40
5.999999999999977
100
AcDbArc
 50
209.988476
 51
270.0
  0
ARC
  5
4C1
102
{ACAD_REACTORS
330
615
102
}
330
1F
100
AcDbEntity
  8
LC-002-002-----0
 62
     7
370
    25
100
AcDbCircle
 10
1623.719906
 20
1576.71075
 30
0.0
 40
5.000000000000103
100
AcDbArc
 50
30.016153
 51
82.072225
  0
ARC
  5
4C2
102
{ACAD_REACTORS
330
615
102
}
330
1F
100
AcDbEntity
  8
LC-002-002-----0
 62
     7
370
    25
100
AcDbCircle
 10
1624.519906
 20
1582.455313
 30
0.0
 40
0.7999999999999545
100
AcDbArc
 50
180.0
 51
262.062606
  0
ARC
  5
4C3
102
{ACAD_REACTORS
330
616
102
}
330
1F
100
AcDbEntity
  8
LC-002-002-----0
 62
     7
370
    25
100
AcDbCircle
 10
1547.996359
 20
1823.960531
 30
0.0
 40
0.3170000000000073
100
AcDbArc
 50
90.0
 51
152.36046
  0
ARC
  5
4C4
102
{ACAD_REACTORS
330
616
102
}
330
1F
100
AcDbEntity
  8
LC-002-002-----0
 62
     7
370
    25
100
AcDbCircle
 10
1547.996359
 20
1869.394531
 30
0.0
 40
0.3169999999997534
100
AcDbArc
 50
207.567177
 51
270.0
  0
ARC
  5
4C5
102
{ACAD_REACTORS
330
616
102
}
330
1F
100
AcDbEntity
  8
LC-002-002-----0
 62
     7
370
    25
100
AcDbCircle
 10
1546.841859
 20
1823.115798
 30
0.0
 40
0.3169999999999474
100
AcDbArc
 50
207.317979
 51
332.682021
  0
ARC
  5
4C6
102
{ACAD_REACTORS
330
616
102
}
330
1F
100
AcDbEntity
  8
LC-002-002-----0
 62
     7
370
    25
100
AcDbCircle
 10
1546.841859
 20
1870.239263
 30
0.0
 40
0.3170000000002053
100
AcDbArc
 50
27.394588
 51
152.605412
  0
ARC
  5
4C7
102
{ACAD_REACTORS
330
616
102
}
330
1F
100
AcDbEntity
  8
LC-002-002-----0
 62
     7
370
    25
100
AcDbCircle
 10
1545.687359
 20
1869.394531
 30
0.0
 40
0.3170000000001564
100
AcDbArc
 50
207.567177
 51
332.432823
  0
ARC
  5
4C8
102
{ACAD_REACTORS
330
616
102
}
330
1F
100
AcDbEntity
  8
LC-002-002-----0
 62
     7
370
    25
100
AcDbCircle
 10
1545.687359
 20
1823.960531
 30
0.0
 40
0.3169999999998827
100
AcDbArc
 50
27.63954
 51
152.36046
  0
ARC
  5
4C9
102
{ACAD_REACTORS
330
616
102
}
330
1F
100
AcDbEntity
  8
LC-002-002-----0
 62
     7
370
    25
100
AcDbCircle
 10
1544.532859
 20
1823.115798
 30
0.0
 40
0.3169999999999542
100
AcDbArc
 50
207.317979
 51
332.682021
  0
ARC
  5
4CA
102
{ACAD_REACTORS
330
616
102
}
330
1F
100
AcDbEntity
  8
LC-002-002-----0
 62
     7
370
    25
100
AcDbCircle
 10
1544.532859
 20
1870.239263
 30
0.0
 40
0.3169999999999887
100
AcDbArc
 50
27.394588
 51
152.605412
  0
ARC
  5
4CB
102
{ACAD_REACTORS
330
616
102
}
330
1F
100
AcDbEntity
  8
LC-002-002-----0
 62
     7
370
    25
100
AcDbCircle
 10
1543.378359
 20
1869.394531
 30
0.0
 40
0.3170000000001386
100
AcDbArc
 50
207.567177
 51
332.432823
  0
ARC
  5
4CC
102
{ACAD_REACTORS
330
616
102
}
330
1F
100
AcDbEntity
  8
LC-002-002-----0
 62
     7
370
    25
100
AcDbCircle
 10
1543.378359
 20
1823.960531
 30
0.0
 40
0.3169999999998827
100
AcDbArc
 50
27.63954
 51
152.36046
  0
ARC
  5
4CD
102
{ACAD_REACTORS
330
616
102
}
330
1F
100
AcDbEntity
  8
LC-002-002-----0
 62
     7
370
    25
100
AcDbCircle
 10
1542.223859
 20
1823.115798
 30
0.0
 40
0.3169999999999542
100
AcDbArc
 50
207.317979
 51
332.682021
  0
ARC
  5
4CE
102
{ACAD_REACTORS
330
616
102
}
330
1F
100
AcDbEntity
  8
LC-002-002-----0
 62
     7
370
    25
100
AcDbCircle
 10
1542.223859
 20
1870.239263
 30
0.0
 40
0.3170000000000035
100
AcDbArc
 50
27.394588
 51
152.605412
  0
ARC
  5
4CF
102
{ACAD_REACTORS
330
616
102
}
330
1F
100
AcDbEntity
  8
LC-002-002-----0
 62
     7
370
    25
100
AcDbCircle
 10
1541.069359
 20
1869.394531
 30
0.0
 40
0.3169999999999371
100
AcDbArc
 50
207.567177
 51
332.432823
  0
ARC
  5
4D0
102
{ACAD_REACTORS
330
616
102
}
330
1F
100
AcDbEntity
  8
LC-002-002-----0
 62
     7
370
    25
100
AcDbCircle
 10
1541.069359
 20
1823.960531
 30
0.0
 40
0.3170000000000842
100
AcDbArc
 50
27.63954
 51
152.36046
  0
ARC
  5
4D1
102
{ACAD_REACTORS
330
616
102
}
330
1F
100
AcDbEntity
  8
LC-002-002-----0
 62
     7
370
    25
100
AcDbCircle
 10
1539.914859
 20
1823.115798
 30
0.0
 40
0.3170000000001494
100
AcDbArc
 50
207.317979
 51
332.682021
  0
ARC
  5
4D2
102
{ACAD_REACTORS
330
616
102
}
330
1F
100
AcDbEntity
  8
LC-002-002-----0
 62
     7
370
    25
100
AcDbCircle
 10
1539.914859
 20
1870.239263
 30
0.0
 40
0.3170000000000035
100
AcDbArc
 50
27.394588
 51
152.605412
  0
ARC
  5
4D3
102
{ACAD_REACTORS
330
616
102
}
330
1F
100
AcDbEntity
  8
LC-002-002-----0
 62
     7
370
    25
100
AcDbCircle
 10
1538.760359
 20
1823.960531
 30
0.0
 40
0.3170000000000937
100
AcDbArc
 50
27.63954
 51
90.0
  0
ARC
  5
4D4
102
{ACAD_REACTORS
330
616
102
}
330
1F
100
AcDbEntity
  8
LC-002-002-----0
 62
     7
370
    25
100
AcDbCircle
 10
1538.760359
 20
1869.394531
 30
0.0
 40
0.3170000000000073
100
AcDbArc
 50
270.0
 51
332.432823
  0
ARC
  5
4D5
102
{ACAD_REACTORS
330
616
102
}
330
1F
100
AcDbEntity
  8
LC-002-002-----0
 62
     7
370
    25
100
AcDbCircle
 10
1571.260359
 20
1828.677531
 30
0.0
 40
38.00000000000019
100
AcDbArc
 50
0.000006
 51
89.393653
  0
ARC
  5
4D6
102
{ACAD_REACTORS
330
617
102
}
330
1F
100
AcDbEntity
  8
LC-002-002-----0
 62
     7
370
    25
100
AcDbCircle
 10
1611.929716
 20
1600.065975
 30
0.0
 40
6.500000000000005
100
AcDbArc
 50
199.07704
 51
259.645823
  0
ARC
  5
4D7
102
{ACAD_REACTORS
330
617
102
}
330
1F
100
AcDbEntity
  8
LC-002-002-----0
 62
     7
370
    25
100
AcDbCircle
 10
1602.951544
 20
1596.96075
 30
0.0
 40
3.000000000000295
100
AcDbArc
 50
19.055448
 51
90.0
  0
ARC
  5
4D8
102
{ACAD_REACTORS
330
617
102
}
330
1F
100
AcDbEntity
  8
LC-002-002-----0
 62
     7
370
    25
100
AcDbCircle
 10
1620.516662
 20
1588.462613
 30
0.0
 40
1.99999999999997
100
AcDbArc
 50
244.152631
 51
270.0
  0
ARC
  5
4D9
102
{ACAD_REACTORS
330
617
102
}
330
1F
100
AcDbEntity
  8
LC-002-002-----0
 62
     7
370
    25
100
AcDbCircle
 10
1620.516662
 20
1655.458888
 30
0.0
 40
2.0
100
AcDbArc
 50
90.0
 51
115.847369
  0
ARC
  5
4DA
102
{ACAD_REACTORS
330
617
102
}
330
1F
100
AcDbEntity
  8
LC-002-002-----0
 62
     7
370
    25
100
AcDbCircle
 10
1622.260359
 20
1592.062546
 30
0.0
 40
5.999999999999909
100
AcDbArc
 50
196.283517
 51
244.155028
  0
ARC
  5
4DB
102
{ACAD_REACTORS
330
617
102
}
330
1F
100
AcDbEntity
  8
LC-002-002-----0
 62
     7
370
    25
100
AcDbCircle
 10
1622.260359
 20
1651.858954
 30
0.0
 40
6.000000000000001
100
AcDbArc
 50
115.844972
 51
163.716483
  0
ARC
  5
4DC
102
{ACAD_REACTORS
330
617
102
}
330
1F
100
AcDbEntity
  8
LC-002-002-----0
 62
     7
370
    25
100
AcDbCircle
 10
1612.661544
 20
1589.258487
 30
0.0
 40
3.999999999999869
100
AcDbArc
 50
16.281751
 51
79.647048
  0
ARC
  5
4DD
102
{ACAD_REACTORS
330
617
102
}
330
1F
100
AcDbEntity
  8
LC-002-002-----0
 62
     7
370
    25
100
AcDbCircle
 10
1612.661544
 20
1654.663013
 30
0.0
 40
4.00000000000002
100
AcDbArc
 50
280.352952
 51
343.718249
  0
INSERT
  5
4E2
102
{ACAD_REACTORS
330
616
102
}
330
1F
100
AcDbEntity
  8
LC-002-002-----0
 62
     7
370
    25
100
AcDbBlockReference
  2
POLY9
 10
0.0
 20
0.0
 30
0.0
  0
LINE
  5
4E3
102
{ACAD_REACTORS
330
616
102
}
330
1F
100
AcDbEntity
  8
LC-002-002-----0
 62
     7
370
    25
100
AcDbLine
 10
1569.260359
 20
1820.277531
 30
0.0
 11
1569.260359
 21
1775.061464
 31
0.0
  0
LINE
  5
4E4
102
{ACAD_REACTORS
330
617
102
}
330
1F
100
AcDbEntity
  8
LC-002-002-----0
 62
     7
370
    25
100
AcDbLine
 10
1561.555566
 20
1679.46075
 30
0.0
 11
1561.555566
 21
1676.96075
 31
0.0
  0
LINE
  5
4E5
102
{ACAD_REACTORS
330
617
102
}
330
1F
100
AcDbEntity
  8
LC-002-002-----0
 62
     7
370
    25
100
AcDbLine
 10
1562.305566
 20
1680.46075
 30
0.0
 11
1562.305566
 21
1680.21075
 31
0.0
  0
LINE
  5
4E6
102
{ACAD_REACTORS
330
617
102
}
330
1F
100
AcDbEntity
  8
LC-002-002-----0
 62
     7
370
    25
100
AcDbLine
 10
1563.460359
 20
1680.46075
 30
0.0
 11
1563.460359
 21
1693.96075
 31
0.0
  0
LINE
  5
4E7
102
{ACAD_REACTORS
330
617
102
}
330
1F
100
AcDbEntity
  8
LC-002-002-----0
 62
     7
370
    25
100
AcDbLine
 10
1615.060359
 20
1680.46075
 30
0.0
 11
1615.060359
 21
1693.96075
 31
0.0
  0
LINE
  5
4E8
102
{ACAD_REACTORS
330
617
102
}
330
1F
100
AcDbEntity
  8
LC-002-002-----0
 62
     7
370
    25
100
AcDbLine
 10
1616.215153
 20
1680.46075
 30
0.0
 11
1616.215153
 21
1680.21075
 31
0.0
  0
LINE
  5
4E9
102
{ACAD_REACTORS
330
617
102
}
330
1F
100
AcDbEntity
  8
LC-002-002-----0
 62
     7
370
    25
100
AcDbLine
 10
1616.965153
 20
1679.46075
 30
0.0
 11
1616.965153
 21
1676.96075
 31
0.0
  0
LINE
  5
4EA
102
{ACAD_REACTORS
330
617
102
}
330
1F
100
AcDbEntity
  8
LC-002-002-----0
 62
     7
370
    25
100
AcDbLine
 10
1562.305567
 20
1680.210751
 30
0.0
 11
1561.555567
 21
1679.460751
 31
0.0
  0
LINE
  5
4EB
102
{ACAD_REACTORS
330
617
102
}
330
1F
100
AcDbEntity
  8
LC-002-002-----0
 62
     7
370
    25
100
AcDbLine
 10
1613.060359
 20
1695.96075
 30
0.0
 11
1565.460359
 21
1695.96075
 31
0.0
  0
LINE
  5
4EC
102
{ACAD_REACTORS
330
617
102
}
330
1F
100
AcDbEntity
  8
LC-002-002-----0
 62
     7
370
    25
100
AcDbLine
 10
1616.215135
 20
1680.46075
 30
0.0
 11
1615.060359
 21
1680.46075
 31
0.0
  0
LINE
  5
4ED
102
{ACAD_REACTORS
330
617
102
}
330
1F
100
AcDbEntity
  8
LC-002-002-----0
 62
     7
370
    25
100
AcDbLine
 10
1616.965153
 20
1676.96075
 30
0.0
 11
1561.555566
 21
1676.96075
 31
0.0
  0
LINE
  5
4EE
102
{ACAD_REACTORS
330
617
102
}
330
1F
100
AcDbEntity
  8
LC-002-002-----0
 62
     7
370
    25
100
AcDbLine
 10
1616.215151
 20
1680.210751
 30
0.0
 11
1616.965152
 21
1679.460751
 31
0.0
  0
ARC
  5
4EF
102
{ACAD_REACTORS
330
617
102
}
330
1F
100
AcDbEntity
  8
LC-002-002-----0
 62
     7
370
    25
100
AcDbCircle
 10
1613.060359
 20
1693.96075
 30
0.0
 40
2.0
100
AcDbArc
 50
0.0
 51
90.0
  0
ARC
  5
4F0
102
{ACAD_REACTORS
330
617
102
}
330
1F
100
AcDbEntity
  8
LC-002-002-----0
 62
     7
370
    25
100
AcDbCircle
 10
1565.460359
 20
1693.96075
 30
0.0
 40
2.0
100
AcDbArc
 50
90.0
 51
180.0
  0
LINE
  5
4F1
102
{ACAD_REACTORS
330
617
102
}
330
1F
100
AcDbEntity
  8
LC-002-002-----0
 62
     7
370
    25
100
AcDbLine
 10
1589.258907
 20
1680.46075
 30
0.0
 11
1589.258907
 21
1693.96075
 31
0.0
  0
INSERT
  5
501
102
{ACAD_REACTORS
330
617
102
}
330
1F
100
AcDbEntity
  8
LC-002-002-----0
 62
     7
370
    25
100
AcDbBlockReference
  2
POLY10
 10
0.0
 20
0.0
 30
0.0
  0
LINE
  5
502
102
{ACAD_REACTORS
330
616
102
}
330
1F
100
AcDbEntity
  8
LC-002-002-----0
 62
     7
370
    25
100
AcDbLine
 10
1569.260359
 20
1757.954047
 30
0.0
 11
1569.260359
 21
1695.96075
 31
0.0
  0
LINE
  5
503
102
{ACAD_REACTORS
330
616
102
}
330
1F
100
AcDbEntity
  8
LC-002-002-----0
 62
     7
370
    25
100
AcDbLine
 10
1609.260359
 20
1782.537127
 30
0.0
 11
1609.260359
 21
1828.678531
 31
0.0
  0
LINE
  5
504
102
{ACAD_REACTORS
330
617
102
}
330
1F
100
AcDbEntity
  8
LC-002-002-----0
 62
     7
370
    25
100
AcDbLine
 10
1566.860359
 20
1672.804353
 30
0.0
 11
1566.308864
 21
1672.804353
 31
0.0
  0
LINE
  5
505
102
{ACAD_REACTORS
330
615
102
}
330
1F
100
AcDbEntity
  8
LC-002-002-----0
 62
     7
370
    25
100
AcDbLine
 10
1623.719907
 20
1659.46075
 30
0.0
 11
1623.719907
 21
1661.465714
 31
0.0
  0
LINE
  5
506
102
{ACAD_REACTORS
330
617
102
}
330
1F
100
AcDbEntity
  8
LC-002-002-----0
 62
     7
370
    25
100
AcDbLine
 10
1563.460359
 20
1680.46075
 30
0.0
 11
1562.305584
 21
1680.46075
 31
0.0
  0
LINE
  5
507
102
{ACAD_REACTORS
330
615
102
}
330
1F
100
AcDbEntity
  8
LC-002-002-----0
 62
     7
370
    25
100
AcDbLine
 10
1659.862588
 20
1676.96075
 30
0.0
 11
1663.862588
 21
1676.96075
 31
0.0
  0
LINE
  5
508
102
{ACAD_REACTORS
330
615
102
}
330
1F
100
AcDbEntity
  8
LC-002-002-----0
 62
     7
370
    25
100
AcDbLine
 10
1628.049681
 20
1664.71014
 30
0.0
 11
1629.06003
 21
1666.460115
 31
0.0
  0
LINE
  5
509
102
{ACAD_REACTORS
330
615
102
}
330
1F
100
AcDbEntity
  8
LC-002-002-----0
 62
     7
370
    25
100
AcDbLine
 10
1634.256549
 20
1669.46075
 30
0.0
 11
1649.719906
 21
1669.46075
 31
0.0
  0
LINE
  5
50A
102
{ACAD_REACTORS
330
615
102
}
330
1F
100
AcDbEntity
  8
LC-002-002-----0
 62
     7
370
    25
100
AcDbLine
 10
1659.402365
 20
1676.96075
 30
0.0
 11
1659.862588
 21
1676.96075
 31
0.0
  0
ARC
  5
50B
102
{ACAD_REACTORS
330
615
102
}
330
1F
100
AcDbEntity
  8
LC-002-002-----0
 62
     7
370
    25
100
AcDbCircle
 10
1649.719906
 20
1673.46075
 30
0.0
 40
3.999999999999773
100
AcDbArc
 50
270.0
 51
345.507853
  0
ARC
  5
50C
102
{ACAD_REACTORS
330
615
102
}
330
1F
100
AcDbEntity
  8
LC-002-002-----0
 62
     7
370
    25
100
AcDbCircle
 10
1659.402365
 20
1670.96075
 30
0.0
 40
6.0
100
AcDbArc
 50
90.0
 51
165.530548
  0
ARC
  5
50D
102
{ACAD_REACTORS
330
615
102
}
330
1F
100
AcDbEntity
  8
LC-002-002-----0
 62
     7
370
    25
100
AcDbCircle
 10
1634.256549
 20
1663.46075
 30
0.0
 40
6.0
100
AcDbArc
 50
90.0
 51
150.011524
  0
ARC
  5
50E
102
{ACAD_REACTORS
330
615
102
}
330
1F
100
AcDbEntity
  8
LC-002-002-----0
 62
     7
370
    25
100
AcDbCircle
 10
1623.719906
 20
1667.21075
 30
0.0
 40
5.000000000000194
100
AcDbArc
 50
277.927775
 51
329.983847
  0
ARC
  5
50F
102
{ACAD_REACTORS
330
615
102
}
330
1F
100
AcDbEntity
  8
LC-002-002-----0
 62
     7
370
    25
100
AcDbCircle
 10
1624.519906
 20
1661.466188
 30
0.0
 40
0.7999999999999126
100
AcDbArc
 50
97.937394
 51
180.0
  0
LINE
  5
510
102
{ACAD_REACTORS
330
608
102
}
330
1F
100
AcDbEntity
  8
LC-002-002-----0
 62
     7
370
    25
100
AcDbLine
 10
1747.112588
 20
1634.46075
 30
0.0
 11
1690.261698
 21
1634.46075
 31
0.0
  0
LINE
  5
511
102
{ACAD_REACTORS
330
608
102
}
330
1F
100
AcDbEntity
  8
LC-002-002-----0
 62
     7
370
    25
100
AcDbLine
 10
1747.112588
 20
1609.46075
 30
0.0
 11
1690.261698
 21
1609.46075
 31
0.0
  0
LINE
  5
512
102
{ACAD_REACTORS
330
608
102
}
330
1F
100
AcDbEntity
  8
LC-002-002-----0
 62
     7
370
    25
100
AcDbLine
 10
1690.261698
 20
1609.46075
 30
0.0
 11
1690.261698
 21
1634.46075
 31
0.0
  0
LINE
  5
513
102
{ACAD_REACTORS
330
608
102
}
330
1F
100
AcDbEntity
  8
LC-002-002-----0
 62
     7
370
    25
100
AcDbLine
 10
1747.612588
 20
1609.96075
 30
0.0
 11
1747.612588
 21
1633.96075
 31
0.0
  0
ARC
  5
514
102
{ACAD_REACTORS
330
608
102
}
330
1F
100
AcDbEntity
  8
LC-002-002-----0
 62
     7
370
    25
100
AcDbCircle
 10
1747.112588
 20
1609.96075
 30
0.0
 40
0.5
100
AcDbArc
 50
270.0
 51
0.0
  0
ARC
  5
515
102
{ACAD_REACTORS
330
608
102
}
330
1F
100
AcDbEntity
  8
LC-002-002-----0
 62
     7
370
    25
100
AcDbCircle
 10
1747.112588
 20
1633.96075
 30
0.0
 40
0.5
100
AcDbArc
 50
0.0
 51
90.0
  0
ARC
  5
516
102
{ACAD_REACTORS
330
608
102
}
330
1F
100
AcDbEntity
  8
LC-002-002-----0
 62
     7
370
    25
100
AcDbCircle
 10
1677.612588
 20
1621.96075
 30
0.0
 40
17.49999999999994
100
AcDbArc
 50
46.85835
 51
73.398452
  0
ARC
  5
517
102
{ACAD_REACTORS
330
608
102
}
330
1F
100
AcDbEntity
  8
LC-002-002-----0
 62
     7
370
    25
100
AcDbCircle
 10
1677.612588
 20
1621.96075
 30
0.0
 40
17.49999999999992
100
AcDbArc
 50
286.601549
 51
313.141806
  0
LINE
  5
518
102
{ACAD_REACTORS
330
607
102
}
330
1F
100
AcDbEntity
  8
LC-002-002-----0
 62
     7
370
    25
100
AcDbLine
 10
1782.612588
 20
1635.260749
 30
0.0
 11
1812.112588
 21
1635.260749
 31
0.0
  0
LINE
  5
519
102
{ACAD_REACTORS
330
607
102
}
330
1F
100
AcDbEntity
  8
LC-002-002-----0
 62
     7
370
    25
100
AcDbLine
 10
1747.612588
 20
1633.160749
 30
0.0
 11
1774.612588
 21
1633.160749
 31
0.0
  0
LINE
  5
51A
102
{ACAD_REACTORS
330
607
102
}
330
1F
100
AcDbEntity
  8
LC-002-002-----0
 62
     7
370
    25
100
AcDbLine
 10
1774.612584
 20
1610.760749
 30
0.0
 11
1782.612588
 21
1608.660749
 31
0.0
  0
LINE
  5
51B
102
{ACAD_REACTORS
330
607
102
}
330
1F
100
AcDbEntity
  8
LC-002-002-----0
 62
     7
370
    25
100
AcDbLine
 10
1747.612588
 20
1610.760749
 30
0.0
 11
1774.612588
 21
1610.760749
 31
0.0
  0
LINE
  5
51C
102
{ACAD_REACTORS
330
607
102
}
330
1F
100
AcDbEntity
  8
LC-002-002-----0
 62
     7
370
    25
100
AcDbLine
 10
1782.612588
 20
1635.260749
 30
0.0
 11
1774.612588
 21
1633.160749
 31
0.0
  0
LINE
  5
51D
102
{ACAD_REACTORS
330
607
102
}
330
1F
100
AcDbEntity
  8
LC-002-002-----0
 62
     7
370
    25
100
AcDbLine
 10
1812.112588
 20
1608.660749
 30
0.0
 11
1782.612588
 21
1608.660749
 31
0.0
  0
LINE
  5
51E
102
{ACAD_REACTORS
330
607
102
}
330
1F
100
AcDbEntity
  8
LC-002-002-----0
 62
     7
370
    25
100
AcDbLine
 10
1812.612588
 20
1609.160751
 30
0.0
 11
1812.612588
 21
1634.760749
 31
0.0
  0
INSERT
  5
52E
102
{ACAD_REACTORS
330
607
102
}
330
1F
100
AcDbEntity
  8
LC-002-002-----0
 62
     7
370
    25
100
AcDbBlockReference
  2
POLY11
 10
0.0
 20
0.0
 30
0.0
  0
INSERT
  5
53A
102
{ACAD_REACTORS
330
607
102
}
330
1F
100
AcDbEntity
  8
LC-002-002-----0
 62
     7
370
    25
100
AcDbBlockReference
  2
POLY12
 10
0.0
 20
0.0
 30
0.0
  0
ARC
  5
53B
102
{ACAD_REACTORS
330
608
102
}
330
1F
100
AcDbEntity
  8
LC-002-002-----0
 62
     7
370
    25
100
AcDbCircle
 10
1676.612588
 20
1621.96075
 30
0.0
 40
20.0
100
AcDbArc
 50
90.0
 51
138.709438
  0
LINE
  5
53C
102
{ACAD_REACTORS
330
608
102
}
330
1F
100
AcDbEntity
  8
LC-002-002-----0
 62
     7
370
    25
100
AcDbLine
 10
1676.612588
 20
1641.96075
 30
0.0
 11
1682.612588
 21
1641.96075
 31
0.0
  0
LINE
  5
53D
102
{ACAD_REACTORS
330
608
102
}
330
1F
100
AcDbEntity
  8
LC-002-002-----0
 62
     7
370
    25
100
AcDbLine
 10
1682.612587
 20
1641.96075
 30
0.0
 11
1682.612588
 21
1601.96075
 31
0.0
  0
LINE
  5
53E
102
{ACAD_REACTORS
330
608
102
}
330
1F
100
AcDbEntity
  8
LC-002-002-----0
 62
     7
370
    25
100
AcDbLine
 10
1676.612588
 20
1601.96075
 30
0.0
 11
1682.612588
 21
1601.96075
 31
0.0
  0
ARC
  5
53F
102
{ACAD_REACTORS
330
608
102
}
330
1F
100
AcDbEntity
  8
LC-002-002-----0
 62
     7
370
    25
100
AcDbCircle
 10
1676.612588
 20
1621.96075
 30
0.0
 40
19.99999999999994
100
AcDbArc
 50
221.290426
 51
270.0
  0
LINE
  5
540
102
{ACAD_REACTORS
330
608
102
}
330
1F
100
AcDbEntity
  8
LC-002-002-----0
 62
     7
370
    25
100
AcDbLine
 10
1641.180941
 20
1634.453295
 30
0.0
 11
1661.585131
 21
1635.158308
 31
0.0
  0
LINE
  5
541
102
{ACAD_REACTORS
330
608
102
}
330
1F
100
AcDbEntity
  8
LC-002-002-----0
 62
     7
370
    25
100
AcDbLine
 10
1641.180962
 20
1609.468204
 30
0.0
 11
1661.5851
 21
1608.763228
 31
0.0
  0
ARC
  5
542
102
{ACAD_REACTORS
330
608
102
}
330
1F
100
AcDbEntity
  8
LC-002-002-----0
 62
     7
370
    25
100
AcDbCircle
 10
1641.612588
 20
1621.96075
 30
0.0
 40
12.49999999999991
100
AcDbArc
 50
91.978918
 51
268.021179
  0
LINE
  5
543
102
{ACAD_REACTORS
330
609
102
}
330
1F
100
AcDbEntity
  8
LC-004-100-D01-0
 62
     7
370
    25
100
AcDbLine
 10
1846.353544
 20
1642.46075
 30
0.0
 11
1846.353544
 21
1601.46075
 31
0.0
  0
LINE
  5
544
102
{ACAD_REACTORS
330
609
102
}
330
1F
100
AcDbEntity
  8
LC-004-100-D01-0
 62
     7
370
    25
100
AcDbLine
 10
1841.353544
 20
1601.46075
 30
0.0
 11
1846.353544
 21
1601.46075
 31
0.0
  0
LINE
  5
545
102
{ACAD_REACTORS
330
609
102
}
330
1F
100
AcDbEntity
  8
LC-004-100-D01-0
 62
     7
370
    25
100
AcDbLine
 10
1841.353544
 20
1642.46075
 30
0.0
 11
1846.353544
 21
1642.46075
 31
0.0
  0
LINE
  5
546
102
{ACAD_REACTORS
330
609
102
}
330
1F
100
AcDbEntity
  8
LC-004-100-D01-0
 62
     7
370
    25
100
AcDbLine
 10
1841.353544
 20
1642.46075
 30
0.0
 11
1841.353544
 21
1601.46075
 31
0.0
  0
LINE
  5
547
102
{ACAD_REACTORS
330
609
102
}
330
1F
100
AcDbEntity
  8
LC-004-100-D01-0
 62
     7
370
    25
100
AcDbLine
 10
1841.353544
 20
1639.46075
 30
0.0
 11
1840.353544
 21
1639.46075
 31
0.0
  0
LINE
  5
548
102
{ACAD_REACTORS
330
609
102
}
330
1F
100
AcDbEntity
  8
LC-004-100-D01-0
 62
     7
370
    25
100
AcDbLine
 10
1826.353544
 20
1631.684271
 30
0.0
 11
1826.353544
 21
1612.237229
 31
0.0
  0
ARC
  5
549
102
{ACAD_REACTORS
330
609
102
}
330
1F
100
AcDbEntity
  8
LC-010-100-D00-0
 62
     7
370
    25
100
AcDbCircle
 10
1828.353544
 20
1631.684271
 30
0.0
 40
1.999999999999664
100
AcDbArc
 50
114.904769
 51
180.0
  0
LINE
  5
54A
102
{ACAD_REACTORS
330
609
102
}
330
1F
100
AcDbEntity
  8
LC-004-100-D01-0
 62
     7
370
    25
100
AcDbLine
 10
1840.353544
 20
1639.46075
 30
0.0
 11
1827.511321
 21
1633.498289
 31
0.0
  0
LINE
  5
54B
102
{ACAD_REACTORS
330
609
102
}
330
1F
100
AcDbEntity
  8
LC-004-100-D01-0
 62
     7
370
    25
100
AcDbLine
 10
1826.813868
 20
1610.96075
 30
0.0
 11
1812.612588
 21
1610.96075
 31
0.0
  0
LINE
  5
54C
102
{ACAD_REACTORS
330
609
102
}
330
1F
100
AcDbEntity
  8
LC-004-100-D01-0
 62
     7
370
    25
100
AcDbLine
 10
1826.813868
 20
1632.96075
 30
0.0
 11
1812.612588
 21
1632.96075
 31
0.0
  0
ARC
  5
54D
102
{ACAD_REACTORS
330
609
102
}
330
1F
100
AcDbEntity
  8
LC-010-100-D00-0
 62
     7
370
    25
100
AcDbCircle
 10
1828.353544
 20
1612.237229
 30
0.0
 40
2.0
100
AcDbArc
 50
180.0
 51
245.095231
  0
LINE
  5
54E
102
{ACAD_REACTORS
330
609
102
}
330
1F
100
AcDbEntity
  8
LC-004-100-D01-0
 62
     7
370
    25
100
AcDbLine
 10
1840.353544
 20
1604.46075
 30
0.0
 11
1827.511321
 21
1610.423211
 31
0.0
  0
LINE
  5
54F
102
{ACAD_REACTORS
330
609
102
}
330
1F
100
AcDbEntity
  8
LC-004-100-D01-0
 62
     7
370
    25
100
AcDbLine
 10
1841.353544
 20
1604.46075
 30
0.0
 11
1840.353544
 21
1604.46075
 31
0.0
  0
TEXT
  5
550
330
1F
100
AcDbEntity
  8
LC-014-004-----0
 62
     7
370
    25
100
AcDbText
 10
1229.922602
 20
476.458397
 30
0.0
 40
25.0
  1
Art. Nr. 480
 41
0.8
  7
LCTX0-400-0-0pDIN-Schrift
100
AcDbText
  0
INSERT
  5
56A
102
{ACAD_REACTORS
330
60C
102
}
330
1F
100
AcDbEntity
  8
LC-008-003-----0
 62
     7
370
    25
100
AcDbBlockReference
  2
LCDIM11
 10
0.0
 20
0.0
 30
0.0
  0
LINE
  5
56B
102
{ACAD_REACTORS
330
60F
102
}
330
1F
100
AcDbEntity
  8
LC-002-002-----0
 62
     7
370
    25
100
AcDbLine
 10
987.169293
 20
2241.528667
 30
0.0
 11
987.169293
 21
2240.373891
 31
0.0
  0
LINE
  5
56C
102
{ACAD_REACTORS
330
60F
102
}
330
1F
100
AcDbEntity
  8
LC-002-002-----0
 62
     7
370
    25
100
AcDbLine
 10
977.919296
 20
2337.632614
 30
0.0
 11
977.919305
 21
2338.930908
 31
0.0
  0
INSERT
  5
586
102
{ACAD_REACTORS
330
610
102
}
330
1F
100
AcDbEntity
  8
LC-008-003-----0
 62
     7
370
    25
100
AcDbBlockReference
  2
LCDIM12
 10
0.0
 20
0.0
 30
0.0
  0
INSERT
  5
5A0
102
{ACAD_REACTORS
330
610
102
}
330
1F
100
AcDbEntity
  8
LC-008-003-----0
 62
     7
370
    25
100
AcDbBlockReference
  2
LCDIM13
 10
0.0
 20
0.0
 30
0.0
  0
ARC
  5
5A1
102
{ACAD_REACTORS
330
60A
102
}
330
1F
100
AcDbEntity
  8
LC-013-002-RND-0
 62
     7
370
    50
100
AcDbCircle
 10
1352.444489
 20
1044.033154
 30
0.0
 40
5.0
100
AcDbArc
 50
90.0
 51
173.277536
  0
ARC
  5
5A2
102
{ACAD_REACTORS
330
60A
102
}
330
1F
100
AcDbEntity
  8
LC-013-002-RND-0
 62
     7
370
    50
100
AcDbCircle
 10
1352.442938
 20
812.033154
 30
0.0
 40
4.999999999999817
100
AcDbArc
 50
186.721698
 51
270.0
  0
ARC
  5
5A3
102
{ACAD_REACTORS
330
60A
102
}
330
1F
100
AcDbEntity
  8
LC-013-002-RND-0
 62
     7
370
    50
100
AcDbCircle
 10
1760.819454
 20
812.033154
 30
0.0
 40
5.0
100
AcDbArc
 50
270.0
 51
353.278302
  0
ARC
  5
5A4
102
{ACAD_REACTORS
330
60A
102
}
330
1F
100
AcDbEntity
  8
LC-013-002-RND-0
 62
     7
370
    50
100
AcDbCircle
 10
1760.817902
 20
1044.033154
 30
0.0
 40
4.999999999999995
100
AcDbArc
 50
6.722464
 51
90.0
  0
LINE
  5
5A5
102
{ACAD_REACTORS
330
606
102
}
330
1F
100
AcDbEntity
  8
LC-005-006-MLN-0
 62
     7
370
    25
100
AcDbLine
 10
1337.631196
 20
928.033154
 30
0.0
 11
1775.631196
 21
928.033154
 31
0.0
  0
LINE
  5
5A6
102
{ACAD_REACTORS
330
606
102
}
330
1F
100
AcDbEntity
  8
LC-005-006-MLN-0
 62
     7
370
    25
100
AcDbLine
 10
1556.631196
 20
804.033154
 30
0.0
 11
1556.631196
 21
1052.033154
 31
0.0
  0
LINE
  5
5A7
102
{ACAD_REACTORS
330
60A
102
}
330
1F
100
AcDbEntity
  8
LC-002-002-----0
 62
     7
370
    50
100
AcDbLine
 10
1760.817902
 20
1049.033154
 30
0.0
 11
1352.444489
 21
1049.033154
 31
0.0
  0
ARC
  5
5A8
102
{ACAD_REACTORS
330
60A
102
}
330
1F
100
AcDbEntity
  8
LC-002-002-----0
 62
     7
370
    50
100
AcDbCircle
 10
2336.631196
 20
928.026573
 30
0.0
 40
996.0000000607272
100
AcDbArc
 50
173.277536
 51
186.721698
  0
LINE
  5
5A9
102
{ACAD_REACTORS
330
60A
102
}
330
1F
100
AcDbEntity
  8
LC-002-002-----0
 62
     7
370
    50
100
AcDbLine
 10
1352.442938
 20
807.033154
 30
0.0
 11
1760.819454
 21
807.033154
 31
0.0
  0
ARC
  5
5AA
102
{ACAD_REACTORS
330
60A
102
}
330
1F
100
AcDbEntity
  8
LC-002-002-----0
 62
     7
370
    50
100
AcDbCircle
 10
776.631196
 20
928.026573
 30
0.0
 40
996.0000000000006
100
AcDbArc
 50
353.278302
 51
6.722464
  0
INSERT
  5
5C4
102
{ACAD_REACTORS
330
606
102
}
330
1F
100
AcDbEntity
  8
LC-008-003-----0
 62
     7
370
    25
100
AcDbBlockReference
  2
LCDIM14
 10
0.0
 20
0.0
 30
0.0
  0
INSERT
  5
5DE
102
{ACAD_REACTORS
330
606
102
}
330
1F
100
AcDbEntity
  8
LC-008-003-----0
 62
     7
370
    25
100
AcDbBlockReference
  2
LCDIM15
 10
0.0
 20
0.0
 30
0.0
  0
INSERT
  5
5ED
102
{ACAD_REACTORS
330
606
102
}
330
1F
100
AcDbEntity
  8
LC-008-003-----0
 62
     7
370
    25
100
AcDbBlockReference
  2
LCDIM16
 10
0.0
 20
0.0
 30
0.0
  0
INSERT
  5
5FC
102
{ACAD_REACTORS
330
606
102
}
330
1F
100
AcDbEntity
  8
LC-008-003-----0
 62
     7
370
    25
100
AcDbBlockReference
  2
LCDIM17
 10
0.0
 20
0.0
 30
0.0
  0
TEXT
  5
5FD
102
{ACAD_REACTORS
330
606
102
}
330
1F
100
AcDbEntity
  8
LC-014-004-----0
 62
     7
370
    35
100
AcDbText
 10
1256.846437
 20
1150.739851
 30
0.0
 40
35.0
  1
Ausschnitt Unterbau M 1:20
 41
0.8
  7
LCTX0-400-0-0pDIN-Schrift
100
AcDbText
  0
INSERT
  5
604
102
{ACAD_REACTORS
330
605
102
}
330
1F
100
AcDbEntity
  8
LC-015-005-----0
 62
     7
370
    25
100
AcDbBlockReference
  2
*X442
 10
0.0
 20
0.0
 30
0.0
  0
ENDSEC
  0
SECTION
  2
OBJECTS
  0
DICTIONARY
  5
C
330
0
100
AcDbDictionary
281
     1
  3
ACAD_GROUP
350
D
  3
ACAD_LAYOUT
350
1A
  3
ACAD_MLINESTYLE
350
17
  3
ACAD_PLOTSETTINGS
350
19
  3
ACAD_PLOTSTYLENAME
350
E
  0
DICTIONARY
  5
D
102
{ACAD_REACTORS
330
C
102
}
330
C
100
AcDbDictionary
281
     1
  3
LCGROUP1018
350
60E
  3
LCGROUP1047
350
610
  3
LCGROUP1055
350
60F
  3
LCGROUP1056
350
612
  3
LCGROUP1058
350
614
  3
LCGROUP1059
350
613
  3
LCGROUP1064
350
611
  3
LCGROUP1345
350
616
  3
LCGROUP1348
350
615
  3
LCGROUP1349
350
617
  3
LCGROUP1469
350
608
  3
LCGROUP1470
350
607
  3
LCGROUP1496
350
609
  3
LCGROUP1516
350
60A
  3
LCGROUP28
350
605
  3
LCGROUP43
350
606
  3
LCGROUP971
350
60D
  3
LCGROUP972
350
60B
  3
LCGROUP973
350
60C
  0
DICTIONARY
  5
1A
102
{ACAD_REACTORS
330
C
102
}
330
C
100
AcDbDictionary
281
     1
  3
Layout1
350
1E
  3
Layout2
350
26
  3
Model
350
22
  0
DICTIONARY
  5
17
102
{ACAD_REACTORS
330
C
102
}
330
C
100
AcDbDictionary
281
     1
  3
Standard
350
18
  0
DICTIONARY
  5
19
102
{ACAD_REACTORS
330
C
102
}
330
C
100
AcDbDictionary
281
     1
  0
ACDBDICTIONARYWDFLT
  5
E
102
{ACAD_REACTORS
330
C
102
}
330
C
100
AcDbDictionary
281
     1
  3
Normal
350
F
100
AcDbDictionaryWithDefault
340
F
  0
GROUP
  5
60E
102
{ACAD_REACTORS
330
D
102
}
330
D
100
AcDbGroup
300
GRP1018-LCMaster-LCGROUP971
 70
     1
 71
     1
340
2EF
340
2F0
340
2F1
340
2F2
340
2F3
340
2F4
340
2F5
340
2F6
340
2F7
340
2F8
340
2F9
340
2FA
340
2FB
340
2FC
340
2FD
340
2FE
340
2FF
340
300
  0
GROUP
  5
610
102
{ACAD_REACTORS
330
D
102
}
330
D
100
AcDbGroup
300
GRP1047
 70
     1
 71
     1
340
107
340
10B
340
10C
340
111
340
255
340
256
340
257
340
258
340
25A
340
25B
340
25C
340
25D
340
277
340
286
340
30A
340
30B
340
586
340
5A0
  0
GROUP
  5
60F
102
{ACAD_REACTORS
330
D
102
}
330
D
100
AcDbGroup
300
GRP1055
 70
     1
 71
     1
340
32B
340
32C
340
32D
340
32E
340
32F
340
332
340
333
340
334
340
335
340
336
340
337
340
338
340
339
340
33A
340
33B
340
343
340
344
340
345
340
346
340
347
340
348
340
353
340
354
340
355
340
356
340
357
340
358
340
359
340
35A
340
35B
340
35C
340
35F
340
360
340
361
340
362
340
363
340
364
340
365
340
369
340
36A
340
36B
340
36C
340
36D
340
36E
340
36F
340
376
340
377
340
378
340
379
340
37A
340
37B
340
37C
340
37D
340
37E
340
37F
340
381
340
382
340
383
340
384
340
385
340
386
340
387
340
388
340
389
340
38A
340
38B
340
38C
340
38D
340
38E
340
38F
340
390
340
391
340
392
340
3AC
340
3AD
340
3AE
340
3AF
340
3B0
340
3B1
340
3B2
340
3B3
340
3B4
340
3B8
340
3B9
340
3BA
340
3BB
340
3C5
340
3CF
340
3DD
340
3EB
340
422
340
432
340
440
340
441
340
442
340
443
340
56B
340
56C
  0
GROUP
  5
612
102
{ACAD_REACTORS
330
D
102
}
330
D
100
AcDbGroup
300
GRP1056-LCMaster-LCGROUP1055
 70
     1
 71
     1
340
31D
340
31E
340
31F
340
320
340
321
340
322
340
323
340
324
340
325
340
326
340
327
340
328
340
329
340
32A
340
330
340
331
340
341
340
35D
340
366
340
367
340
368
340
370
340
371
340
372
340
373
340
393
340
394
340
395
340
396
340
397
340
398
340
399
340
39A
340
39B
340
39C
340
39D
340
39E
340
39F
340
3A0
340
3A1
340
3A2
340
3A3
340
3A4
340
3A5
340
3F0
340
41B
  0
GROUP
  5
614
102
{ACAD_REACTORS
330
D
102
}
330
D
100
AcDbGroup
300
GRP1058-LCMaster-LCGROUP1055
 70
     1
 71
     1
340
33C
340
33D
340
33E
340
342
340
34B
340
350
340
351
340
3B5
340
3B6
340
3B7
340
41A
  0
GROUP
  5
613
102
{ACAD_REACTORS
330
D
102
}
330
D
100
AcDbGroup
300
GRP1059-LCMaster-LCGROUP1058
 70
     1
 71
     1
340
33F
340
34F
340
352
340
35E
340
3A6
340
3A7
340
3A8
340
3A9
340
3AA
340
3AB
  0
GROUP
  5
611
102
{ACAD_REACTORS
330
D
102
}
330
D
100
AcDbGroup
300
GRP1064-LCMaster-LCGROUP1059
 70
     1
 71
     1
340
340
340
349
340
34A
340
34C
340
34D
340
34E
340
374
340
375
340
380
340
41C
340
41D
340
41E
340
41F
340
420
340
421
  0
GROUP
  5
616
102
{ACAD_REACTORS
330
D
102
}
330
D
100
AcDbGroup
300
GRP1345-LCMaster-LCGROUP1349
 70
     1
 71
     1
340
485
340
486
340
487
340
488
340
489
340
48A
340
48B
340
48C
340
48D
340
48E
340
48F
340
490
340
491
340
492
340
493
340
494
340
49A
340
49C
340
4A0
340
4A6
340
4A7
340
4A8
340
4A9
340
4AA
340
4AB
340
4AC
340
4AD
340
4C3
340
4C4
340
4C5
340
4C6
340
4C7
340
4C8
340
4C9
340
4CA
340
4CB
340
4CC
340
4CD
340
4CE
340
4CF
340
4D0
340
4D1
340
4D2
340
4D3
340
4D4
340
4D5
340
4E2
340
4E3
340
502
340
503
  0
GROUP
  5
615
102
{ACAD_REACTORS
330
D
102
}
330
D
100
AcDbGroup
300
GRP1348
 70
     1
 71
     1
340
495
340
496
340
49E
340
49F
340
4AF
340
4B6
340
4B9
340
4BA
340
4BD
340
4BE
340
4BF
340
4C0
340
4C1
340
4C2
340
505
340
507
340
508
340
509
340
50A
340
50B
340
50C
340
50D
340
50E
340
50F
  0
GROUP
  5
617
102
{ACAD_REACTORS
330
D
102
}
330
D
100
AcDbGroup
300
GRP1349-LCMaster-LCGROUP1348
 70
     1
 71
     1
340
497
340
498
340
499
340
49B
340
49D
340
4A1
340
4A2
340
4A3
340
4A4
340
4A5
340
4AE
340
4B0
340
4B1
340
4B2
340
4B3
340
4B4
340
4B5
340
4B7
340
4B8
340
4BB
340
4BC
340
4D6
340
4D7
340
4D8
340
4D9
340
4DA
340
4DB
340
4DC
340
4DD
340
4E4
340
4E5
340
4E6
340
4E7
340
4E8
340
4E9
340
4EA
340
4EB
340
4EC
340
4ED
340
4EE
340
4EF
340
4F0
340
4F1
340
501
340
504
340
506
  0
GROUP
  5
608
102
{ACAD_REACTORS
330
D
102
}
330
D
100
AcDbGroup
300
GRP1469
 70
     1
 71
     1
340
510
340
511
340
512
340
513
340
514
340
515
340
516
340
517
340
53B
340
53C
340
53D
340
53E
340
53F
340
540
340
541
340
542
  0
GROUP
  5
607
102
{ACAD_REACTORS
330
D
102
}
330
D
100
AcDbGroup
300
GRP1470-LCMaster-LCGROUP1469
 70
     1
 71
     1
340
518
340
519
340
51A
340
51B
340
51C
340
51D
340
51E
340
52E
340
53A
  0
GROUP
  5
609
102
{ACAD_REACTORS
330
D
102
}
330
D
100
AcDbGroup
300
GRP1496
 70
     1
 71
     1
340
543
340
544
340
545
340
546
340
547
340
548
340
549
340
54A
340
54B
340
54C
340
54D
340
54E
340
54F
  0
GROUP
  5
60A
102
{ACAD_REACTORS
330
D
102
}
330
D
100
AcDbGroup
300
GRP1516-LCMaster-LCGROUP43
 70
     1
 71
     1
340
5A1
340
5A2
340
5A3
340
5A4
340
5A7
340
5A8
340
5A9
340
5AA
  0
GROUP
  5
605
102
{ACAD_REACTORS
330
D
102
}
330
D
100
AcDbGroup
300
GRP28
 70
     1
 71
     1
340
155
340
156
340
157
340
158
340
159
340
15A
340
15B
340
301
340
302
340
303
340
304
340
305
340
306
340
307
340
308
340
314
340
31C
340
444
340
445
340
446
340
447
340
448
340
462
340
46A
340
604
  0
GROUP
  5
606
102
{ACAD_REACTORS
330
D
102
}
330
D
100
AcDbGroup
300
GRP43
 70
     1
 71
     1
340
5A5
340
5A6
340
5C4
340
5DE
340
5ED
340
5FC
340
5FD
  0
GROUP
  5
60D
102
{ACAD_REACTORS
330
D
102
}
330
D
100
AcDbGroup
300
GRP971
 70
     1
 71
     1
340
103
340
104
340
105
340
108
340
109
340
10A
340
10D
340
10E
340
10F
340
110
340
115
340
116
340
117
340
118
340
119
340
11A
340
11B
340
11C
340
11D
340
154
340
15C
340
166
340
16C
340
172
340
178
340
17E
340
185
340
1B0
340
1B1
340
1B2
340
1B3
340
1B4
340
1B5
340
1B6
340
1B7
340
1B8
340
1B9
340
1BA
340
1BB
340
1BC
340
1BD
340
1BE
340
1BF
340
1C0
340
1C1
340
1C2
340
1C3
340
1C4
340
1C5
340
1C6
340
1C7
340
1C8
340
1C9
340
1CA
340
1CB
340
1CC
340
1CD
340
1CE
340
1CF
340
1D0
340
1D1
340
1D2
340
1D3
340
1D4
340
1D5
340
1D6
340
1D7
340
1D8
340
1D9
340
1DA
340
1DB
340
1DC
340
1DD
340
1DE
340
1DF
340
1E0
340
1E1
340
1E2
340
1E3
340
1E4
340
1E5
340
1E6
340
1E7
340
1E8
340
1E9
340
1EA
340
1EB
340
1EC
340
1ED
340
1EE
340
1EF
340
1F0
340
1F1
340
1F6
340
2EE
  0
GROUP
  5
60B
102
{ACAD_REACTORS
330
D
102
}
330
D
100
AcDbGroup
300
GRP972
 70
     1
 71
     1
340
13A
340
186
340
188
340
189
340
18A
340
18B
340
18C
340
18D
340
18E
340
18F
340
190
340
191
340
192
340
193
340
194
340
195
340
196
340
197
340
198
340
199
340
19A
340
19B
340
19C
340
19D
340
19E
340
19F
340
1A0
340
1A1
340
1A2
340
1A3
340
1A4
340
1A5
340
1A6
340
1A7
340
1A8
340
1A9
340
1AA
340
1AB
340
1AC
340
1AD
340
1AE
340
1AF
340
1F2
340
1F3
340
1F4
340
1F5
340
2A0
340
2BA
340
2D4
  0
GROUP
  5
60C
102
{ACAD_REACTORS
330
D
102
}
330
D
100
AcDbGroup
300
GRP973
 70
     1
 71
     1
340
114
340
1FD
340
1FE
340
1FF
340
201
340
202
340
203
340
204
340
205
340
206
340
207
340
208
340
209
340
20A
340
20B
340
20C
340
20D
340
20E
340
20F
340
210
340
211
340
212
340
213
340
214
340
215
340
216
340
217
340
218
340
219
340
21A
340
21B
340
21C
340
21D
340
21E
340
21F
340
220
340
221
340
222
340
223
340
224
340
225
340
226
340
227
340
22D
340
22E
340
22F
340
230
340
231
340
232
340
233
340
234
340
235
340
236
340
237
340
238
340
239
340
23A
340
23B
340
23C
340
23D
340
23E
340
23F
340
240
340
241
340
242
340
243
340
244
340
245
340
246
340
247
340
248
340
249
340
24A
340
24B
340
24C
340
24D
340
24E
340
24F
340
250
340
251
340
252
340
253
340
254
340
484
340
56A
  0
LAYOUT
  5
1E
102
{ACAD_REACTORS
330
1A
102
}
330
1A
100
AcDbPlotSettings
  1

  2

  4

  6

 40
0.0
 41
0.0
 42
0.0
 43
0.0
 44
0.0
 45
0.0
 46
0.0
 47
0.0
 48
0.0
 49
0.0
140
0.0
141
0.0
142
1.0
143
1.0
 70
   688
 72
     0
 73
     0
 74
     5
  7

 75
    16
147
1.0
148
0.0
149
0.0
100
AcDbLayout
  1
Layout1
 70
     1
 71
     1
 10
0.0
 20
0.0
 11
2100.0
 21
2970.0
 12
0.0
 22
0.0
 32
0.0
 14
0.0
 24
0.0
 34
0.0
 15
2100.0
 25
2970.0
 35
0.0
146
0.0
 13
0.0
 23
0.0
 33
0.0
 16
1.0
 26
0.0
 36
0.0
 17
0.0
 27
1.0
 37
0.0
 76
     0
330
1B
  0
LAYOUT
  5
26
102
{ACAD_REACTORS
330
1A
102
}
330
1A
100
AcDbPlotSettings
  1

  2

  4

  6

 40
0.0
 41
0.0
 42
0.0
 43
0.0
 44
0.0
 45
0.0
 46
0.0
 47
0.0
 48
0.0
 49
0.0
140
0.0
141
0.0
142
1.0
143
1.0
 70
   688
 72
     0
 73
     0
 74
     5
  7

 75
    16
147
1.0
148
0.0
149
0.0
100
AcDbLayout
  1
Layout2
 70
     1
 71
     2
 10
0.0
 20
0.0
 11
0.0
 21
0.0
 12
0.0
 22
0.0
 32
0.0
 14
0.0
 24
0.0
 34
0.0
 15
0.0
 25
0.0
 35
0.0
146
0.0
 13
0.0
 23
0.0
 33
0.0
 16
1.0
 26
0.0
 36
0.0
 17
0.0
 27
1.0
 37
0.0
 76
     0
330
23
  0
LAYOUT
  5
22
102
{ACAD_REACTORS
330
1A
102
}
330
1A
100
AcDbPlotSettings
  1

  2

  4

  6

 40
0.0
 41
0.0
 42
0.0
 43
0.0
 44
0.0
 45
0.0
 46
0.0
 47
0.0
 48
0.0
 49
0.0
140
0.0
141
0.0
142
1.0
143
1.0
 70
  1776
 72
     0
 73
     0
 74
     0
  7

 75
     0
147
1.0
148
0.0
149
0.0
100
AcDbLayout
  1
Model
 70
     1
 71
     0
 10
0.0
 20
0.0
 11
2100.0
 21
2970.0
 12
0.0
 22
0.0
 32
0.0
 14
0.0
 24
0.0
 34
0.0
 15
2100.0
 25
2970.0
 35
0.0
146
0.0
 13
0.0
 23
0.0
 33
0.0
 16
1.0
 26
0.0
 36
0.0
 17
0.0
 27
1.0
 37
0.0
 76
     0
330
1F
  0
MLINESTYLE
  5
18
102
{ACAD_REACTORS
330
17
102
}
330
17
100
AcDbMlineStyle
  2
Standard
 70
     0
  3

 62
   256
 51
90.0
 52
90.0
 71
     2
 49
0.5
 62
   256
  6
BYLAYER
 49
-0.5
 62
   256
  6
BYLAYER
  0
ACDBPLACEHOLDER
  5
F
102
{ACAD_REACTORS
330
E
102
}
330
E
  0
ENDSEC
  0
EOF
