  0
SECTION
  2
HEADER
  9
$ACADVER
  1
AC1018
  9
$ACADMAINTVER
 70
     0
  9
$DWGCODEPAGE
  3
ANSI_1252
  9
$INSBASE
 10
0.0
 20
0.0
 30
0.0
  9
$EXTMIN
 10
0.0
 20
0.0
 30
0.0
  9
$EXTMAX
 10
2100.0
 20
2970.0
 30
0.0
  9
$LIMMIN
 10
0.0
 20
0.0
  9
$LIMMAX
 10
2100.0
 20
2970.0
  9
$ORTHOMODE
 70
     0
  9
$REGENMODE
 70
     1
  9
$FILLMODE
 70
     1
  9
$QTEXTMODE
 70
     0
  9
$MIRRTEXT
 70
     1
  9
$LTSCALE
 40
10.0
  9
$ATTMODE
 70
     1
  9
$TEXTSIZE
 40
2.5
  9
$TRACEWID
 40
1.0
  9
$TEXTSTYLE
  7
Standard
  9
$CLAYER
  8
0
  9
$CELTYPE
  6
ByLayer
  9
$CECOLOR
 62
     7
  9
$CELTSCALE
 40
1.0
  9
$DISPSILH
 70
     0
  9
$DIMSCALE
 40
10.0
  9
$DIMASZ
 40
3.5
  9
$DIMEXO
 40
0.625
  9
$DIMDLI
 40
3.75
  9
$DIMRND
 40
0.0
  9
$DIMDLE
 40
0.0
  9
$DIMEXE
 40
1.25
  9
$DIMTP
 40
0.0
  9
$DIMTM
 40
0.0
  9
$DIMTXT
 40
3.5
  9
$DIMCEN
 40
2.5
  9
$DIMTSZ
 40
0.0
  9
$DIMTOL
 70
     0
  9
$DIMLIM
 70
     0
  9
$DIMTIH
 70
     0
  9
$DIMTOH
 70
     0
  9
$DIMSE1
 70
     0
  9
$DIMSE2
 70
     0
  9
$DIMTAD
 70
     1
  9
$DIMZIN
 70
     8
  9
$DIMBLK
  1

  9
$DIMASO
 70
     1
  9
$DIMSHO
 70
     1
  9
$DIMPOST
  1

  9
$DIMAPOST
  1

  9
$DIMALT
 70
     0
  9
$DIMALTD
 70
     3
  9
$DIMALTF
 40
0.03937
  9
$DIMLFAC
 40
1.0
  9
$DIMTOFL
 70
     1
  9
$DIMTVP
 40
0.0
  9
$DIMTIX
 70
     0
  9
$DIMSOXD
 70
     0
  9
$DIMSAH
 70
     0
  9
$DIMBLK1
  1

  9
$DIMBLK2
  1

  9
$DIMSTYLE
  2
ISO-25
  9
$DIMCLRD
 70
     0
  9
$DIMCLRE
 70
     0
  9
$DIMCLRT
 70
     0
  9
$DIMTFAC
 40
1.0
  9
$DIMGAP
 40
0.625
  9
$DIMJUST
 70
     0
  9
$DIMSD1
 70
     0
  9
$DIMSD2
 70
     0
  9
$DIMTOLJ
 70
     0
  9
$DIMTZIN
 70
     8
  9
$DIMALTZ
 70
     0
  9
$DIMALTTZ
 70
     0
  9
$DIMUPT
 70
     0
  9
$DIMDEC
 70
     2
  9
$DIMTDEC
 70
     2
  9
$DIMALTU
 70
     2
  9
$DIMALTTD
 70
     3
  9
$DIMTXSTY
  7
Standard
  9
$DIMAUNIT
 70
     0
  9
$DIMADEC
 70
     0
  9
$DIMALTRND
 40
0.0
  9
$DIMAZIN
 70
     0
  9
$DIMDSEP
 70
    44
  9
$DIMATFIT
 70
     3
  9
$DIMFRAC
 70
     0
  9
$DIMLDRBLK
  1

  9
$DIMLUNIT
 70
     2
  9
$DIMLWD
 70
    -2
  9
$DIMLWE
 70
    -2
  9
$DIMTMOVE
 70
     0
  9
$LUNITS
 70
     2
  9
$LUPREC
 70
     4
  9
$SKETCHINC
 40
1.0
  9
$FILLETRAD
 40
10.0
  9
$AUNITS
 70
     0
  9
$AUPREC
 70
     0
  9
$MENU
  1
.
  9
$ELEVATION
 40
0.0
  9
$PELEVATION
 40
0.0
  9
$THICKNESS
 40
0.0
  9
$LIMCHECK
 70
     0
  9
$CHAMFERA
 40
10.0
  9
$CHAMFERB
 40
10.0
  9
$CHAMFERC
 40
20.0
  9
$CHAMFERD
 40
0.0
  9
$SKPOLY
 70
     0
  9
$TDCREATE
 40
2455587.630390301
  9
$TDUCREATE
 40
2455587.588723634
  9
$TDUPDATE
 40
2455587.630390313
  9
$TDUUPDATE
 40
2455587.588723646
  9
$TDINDWG
 40
0.0000000116
  9
$TDUSRTIMER
 40
0.0000000116
  9
$USRTIMER
 70
     1
  9
$ANGBASE
 50
0.0
  9
$ANGDIR
 70
     0
  9
$PDMODE
 70
     0
  9
$PDSIZE
 40
0.0
  9
$PLINEWID
 40
0.0
  9
$SPLFRAME
 70
     0
  9
$SPLINETYPE
 70
     6
  9
$SPLINESEGS
 70
     8
  9
$HANDSEED
  5
703
  9
$SURFTAB1
 70
     6
  9
$SURFTAB2
 70
     6
  9
$SURFTYPE
 70
     6
  9
$SURFU
 70
     6
  9
$SURFV
 70
     6
  9
$UCSBASE
  2

  9
$UCSNAME
  2

  9
$UCSORG
 10
0.0
 20
0.0
 30
0.0
  9
$UCSXDIR
 10
1.0
 20
0.0
 30
0.0
  9
$UCSYDIR
 10
0.0
 20
1.0
 30
0.0
  9
$UCSORTHOREF
  2

  9
$UCSORTHOVIEW
 70
     0
  9
$UCSORGTOP
 10
0.0
 20
0.0
 30
0.0
  9
$UCSORGBOTTOM
 10
0.0
 20
0.0
 30
0.0
  9
$UCSORGLEFT
 10
0.0
 20
0.0
 30
0.0
  9
$UCSORGRIGHT
 10
0.0
 20
0.0
 30
0.0
  9
$UCSORGFRONT
 10
0.0
 20
0.0
 30
0.0
  9
$UCSORGBACK
 10
0.0
 20
0.0
 30
0.0
  9
$PUCSBASE
  2

  9
$PUCSNAME
  2

  9
$PUCSORG
 10
0.0
 20
0.0
 30
0.0
  9
$PUCSXDIR
 10
1.0
 20
0.0
 30
0.0
  9
$PUCSYDIR
 10
0.0
 20
1.0
 30
0.0
  9
$PUCSORTHOREF
  2

  9
$PUCSORTHOVIEW
 70
     0
  9
$PUCSORGTOP
 10
0.0
 20
0.0
 30
0.0
  9
$PUCSORGBOTTOM
 10
0.0
 20
0.0
 30
0.0
  9
$PUCSORGLEFT
 10
0.0
 20
0.0
 30
0.0
  9
$PUCSORGRIGHT
 10
0.0
 20
0.0
 30
0.0
  9
$PUCSORGFRONT
 10
0.0
 20
0.0
 30
0.0
  9
$PUCSORGBACK
 10
0.0
 20
0.0
 30
0.0
  9
$USERI1
 70
     0
  9
$USERI2
 70
     0
  9
$USERI3
 70
     0
  9
$USERI4
 70
     0
  9
$USERI5
 70
     0
  9
$USERR1
 40
0.0
  9
$USERR2
 40
0.0
  9
$USERR3
 40
0.0
  9
$USERR4
 40
0.0
  9
$USERR5
 40
0.0
  9
$WORLDVIEW
 70
     1
  9
$SHADEDGE
 70
     3
  9
$SHADEDIF
 70
    70
  9
$TILEMODE
 70
     1
  9
$MAXACTVP
 70
    64
  9
$PINSBASE
 10
0.0
 20
0.0
 30
0.0
  9
$PLIMCHECK
 70
     0
  9
$PEXTMIN
 10
0.0
 20
0.0
 30
0.0
  9
$PEXTMAX
 10
2100.0
 20
2970.0
 30
0.0
  9
$PLIMMIN
 10
0.0
 20
0.0
  9
$PLIMMAX
 10
2100.0
 20
2970.0
  9
$UNITMODE
 70
     0
  9
$VISRETAIN
 70
     1
  9
$PLINEGEN
 70
     0
  9
$PSLTSCALE
 70
     1
  9
$TREEDEPTH
 70
  3020
  9
$CMLSTYLE
  2
Standard
  9
$CMLJUST
 70
     0
  9
$CMLSCALE
 40
20.0
  9
$PROXYGRAPHICS
 70
     1
  9
$MEASUREMENT
 70
     1
  9
$CELWEIGHT
370
    -1
  9
$ENDCAPS
280
     0
  9
$JOINSTYLE
280
     0
  9
$LWDISPLAY
290
     0
  9
$INSUNITS
 70
     4
  9
$HYPERLINKBASE
  1

  9
$STYLESHEET
  1

  9
$XEDIT
290
     1
  9
$CEPSNTYPE
380
     0
  9
$PSTYLEMODE
290
     1
  9
$FINGERPRINTGUID
  2
{FAEB1C30-E019-11D5-929B-00C0DF256EC4}
  9
$VERSIONGUID
  2
{FAEB1C32-E019-11D5-929B-00C0DF256EC4}
  9
$EXTNAMES
290
     1
  9
$PSVPSCALE
 40
0.0
  9
$OLESTARTUP
290
     0
  9
$SORTENTS
280
   127
  9
$INDEXCTL
280
     0
  9
$HIDETEXT
280
     1
  9
$XCLIPFRAME
290
     0
  9
$HALOGAP
280
     0
  9
$OBSCOLOR
 70
   257
  9
$OBSLTYPE
280
     0
  9
$INTERSECTIONDISPLAY
280
     0
  9
$INTERSECTIONCOLOR
 70
   257
  9
$DIMASSOC
280
     2
  9
$PROJECTNAME
  1

  0
ENDSEC
  0
SECTION
  2
CLASSES
  0
CLASS
  1
ACDBDICTIONARYWDFLT
  2
AcDbDictionaryWithDefault
  3
ObjectDBX Classes
 90
        0
 91
        1
280
     0
281
     0
  0
ENDSEC
  0
SECTION
  2
TABLES
  0
TABLE
  2
VPORT
  5
8
330
0
100
AcDbSymbolTable
 70
     2
  0
VPORT
  5
29
330
8
100
AcDbSymbolTableRecord
100
AcDbViewportTableRecord
  2
*ACTIVE
 70
     0
 10
0.0
 20
0.0
 11
1.0
 21
1.0
 12
1050.0
 22
1485.0
 13
0.0
 23
0.0
 14
1.0
 24
1.0
 15
0.0
 25
0.0
 16
0.0
 26
0.0
 36
1.0
 17
0.0
 27
0.0
 37
0.0
 40
2970.0
 41
0.707071
 42
50.0
 43
0.0
 44
0.0
 50
0.0
 51
0.0
 71
    16
 72
   100
 73
     1
 74
     0
 75
     0
 76
     0
 77
     0
 78
     0
281
     0
 65
     0
110
0.0
120
0.0
130
0.0
111
1.0
121
0.0
131
0.0
112
0.0
122
1.0
132
0.0
 79
     0
146
0.0
  0
ENDTAB
  0
TABLE
  2
LTYPE
  5
5
330
0
100
AcDbSymbolTable
 70
     4
  0
LTYPE
  5
14
330
5
100
AcDbSymbolTableRecord
100
AcDbLinetypeTableRecord
  2
ByBlock
 70
     0
  3

 72
    65
 73
     0
 40
0.0
  0
LTYPE
  5
15
330
5
100
AcDbSymbolTableRecord
100
AcDbLinetypeTableRecord
  2
ByLayer
 70
     0
  3

 72
    65
 73
     0
 40
0.0
  0
LTYPE
  5
16
330
5
100
AcDbSymbolTableRecord
100
AcDbLinetypeTableRecord
  2
Continuous
 70
     0
  3
Solid line
 72
    65
 73
     0
 40
0.0
  0
LTYPE
  5
2A
330
5
100
AcDbSymbolTableRecord
100
AcDbLinetypeTableRecord
  2
DASHED
 70
     0
  3
__ __ __ __ __
 72
    65
 73
     2
 40
6.25
 49
5.0
 74
     4
 75
     0
340
0
 46
1.0
 50
0.0
 44
0.0
 45
0.0
 49
-1.25
 74
     4
 75
     0
340
0
 46
1.0
 50
0.0
 44
0.0
 45
0.0
  0
LTYPE
  5
127
330
5
100
AcDbSymbolTableRecord
100
AcDbLinetypeTableRecord
  2
CENTER
 70
     0
  3
__ . __ . __ . __ . __
 72
    65
 73
     4
 40
7.5
 49
5.0
 74
     4
 75
     0
340
0
 46
1.0
 50
0.0
 44
0.0
 45
0.0
 49
-1.25
 74
     4
 75
     0
340
0
 46
1.0
 50
0.0
 44
0.0
 45
0.0
 49
0.0
 74
     4
 75
     0
340
0
 46
1.0
 50
0.0
 44
0.0
 45
0.0
 49
-1.25
 74
     4
 75
     0
340
0
 46
1.0
 50
0.0
 44
0.0
 45
0.0
  0
LTYPE
  5
132
330
5
100
AcDbSymbolTableRecord
100
AcDbLinetypeTableRecord
  2
DASHDOT
 70
     0
  3
__ . __ . __ . __ . __
 72
    65
 73
     4
 40
7.5
 49
5.0
 74
     4
 75
     0
340
0
 46
1.0
 50
0.0
 44
0.0
 45
0.0
 49
-1.25
 74
     4
 75
     0
340
0
 46
1.0
 50
0.0
 44
0.0
 45
0.0
 49
0.0
 74
     4
 75
     0
340
0
 46
1.0
 50
0.0
 44
0.0
 45
0.0
 49
-1.25
 74
     4
 75
     0
340
0
 46
1.0
 50
0.0
 44
0.0
 45
0.0
  0
ENDTAB
  0
TABLE
  2
LAYER
  5
2
330
0
100
AcDbSymbolTable
 70
    17
  0
LAYER
  5
10
330
2
100
AcDbSymbolTableRecord
100
AcDbLayerTableRecord
  2
0
 70
     0
 62
     7
  6
Continuous
370
    -3
390
F
  0
LAYER
  5
2B
330
2
100
AcDbSymbolTableRecord
100
AcDbLayerTableRecord
  2
LC-INFO-1-10-mm-A4H-0
 70
     1
 62
     7
  6
ByBlock
370
    -3
390
F
  0
LAYER
  5
2C
330
2
100
AcDbSymbolTableRecord
100
AcDbLayerTableRecord
  2
LC-CUT-HIDDEN
 70
     0
 62
     7
  6
DASHED
370
    -3
390
F
  0
LAYER
  5
2D
330
2
100
AcDbSymbolTableRecord
100
AcDbLayerTableRecord
  2
LC-VIEWPORT
 70
     0
 62
     7
  6
ByBlock
370
    -3
390
F
  0
LAYER
  5
2E
330
2
100
AcDbSymbolTableRecord
100
AcDbLayerTableRecord
  2
LC-3D-HIDDEN
 70
     0
 62
     9
  6
DASHED
370
    -3
390
F
  0
LAYER
  5
33
330
2
100
AcDbSymbolTableRecord
100
AcDbLayerTableRecord
  2
LC-001-111-----0
 70
     0
 62
   253
  6
ByBlock
370
    -3
390
F
  0
LAYER
  5
A0
330
2
100
AcDbSymbolTableRecord
100
AcDbLayerTableRecord
  2
LC-002-002-----0
 70
     0
 62
     1
  6
ByBlock
370
    -3
390
F
  0
LAYER
  5
101
330
2
100
AcDbSymbolTableRecord
100
AcDbLayerTableRecord
  2
LC-003-230-ZVN-0
 70
     0
 62
     7
  6
ByBlock
370
    -3
390
F
  0
LAYER
  5
103
330
2
100
AcDbSymbolTableRecord
100
AcDbLayerTableRecord
  2
LC-004-002-RND-0
 70
     0
 62
     1
  6
ByBlock
370
    -3
390
F
  0
LAYER
  5
128
330
2
100
AcDbSymbolTableRecord
100
AcDbLayerTableRecord
  2
LC-005-006-MLN-0
 70
     0
 62
     2
  6
CENTER
370
    -3
390
F
  0
LAYER
  5
27B
330
2
100
AcDbSymbolTableRecord
100
AcDbLayerTableRecord
  2
LC-006-003-MTH-0
 70
     0
 62
     2
  6
ByBlock
370
    -3
390
F
  0
LAYER
  5
27E
330
2
100
AcDbSymbolTableRecord
100
AcDbLayerTableRecord
  2
LC-007-003-MTG-0
 70
     0
 62
     2
  6
ByBlock
370
    -3
390
F
  0
LAYER
  5
280
330
2
100
AcDbSymbolTableRecord
100
AcDbLayerTableRecord
  2
LC-008-003-----0
 70
     0
 62
     2
  6
ByBlock
370
    -3
390
F
  0
LAYER
  5
31F
330
2
100
AcDbSymbolTableRecord
100
AcDbLayerTableRecord
  2
LC-009-005-----0
 70
     0
 62
     2
  6
ByBlock
370
    -3
390
F
  0
LAYER
  5
3B4
330
2
100
AcDbSymbolTableRecord
100
AcDbLayerTableRecord
  2
LC-010-004-----0
 70
     0
 62
     7
  6
ByBlock
370
    -3
390
F
  0
LAYER
  5
686
330
2
100
AcDbSymbolTableRecord
100
AcDbLayerTableRecord
  2
LC-011-100-D01-0
 70
     0
 62
     2
  6
ByBlock
370
    -3
390
F
  0
LAYER
  5
68D
330
2
100
AcDbSymbolTableRecord
100
AcDbLayerTableRecord
  2
LC-012-100-D00-0
 70
     0
 62
     2
  6
ByBlock
370
    -3
390
F
  0
ENDTAB
  0
TABLE
  2
STYLE
  5
3
330
0
100
AcDbSymbolTable
 70
     2
  0
STYLE
  5
11
330
3
100
AcDbSymbolTableRecord
100
AcDbTextStyleTableRecord
  2
Standard
 70
     0
 40
0.0
 41
1.0
 50
0.0
 71
     0
 42
2.5
  3
txt
  4

  0
STYLE
  5
2F
330
3
100
AcDbSymbolTableRecord
100
AcDbTextStyleTableRecord
  2
LCTX0-400-0-0pDIN-Schrift
 70
     0
 40
0.0
 41
0.7
 50
0.0
 71
     0
 42
3.5
  3
TXT
  4

  0
ENDTAB
  0
TABLE
  2
VIEW
  5
6
330
0
100
AcDbSymbolTable
 70
     0
  0
ENDTAB
  0
TABLE
  2
UCS
  5
7
330
0
100
AcDbSymbolTable
 70
     0
  0
ENDTAB
  0
TABLE
  2
APPID
  5
9
330
0
100
AcDbSymbolTable
 70
     1
  0
APPID
  5
12
330
9
100
AcDbSymbolTableRecord
100
AcDbRegAppTableRecord
  2
ACAD
 70
     0
  0
ENDTAB
  0
TABLE
  2
DIMSTYLE
  5
A
330
0
100
AcDbSymbolTable
 70
     1
100
AcDbDimStyleTable
  0
DIMSTYLE
105
27
330
A
100
AcDbSymbolTableRecord
100
AcDbDimStyleTableRecord
  2
ISO-25
 70
     0
 41
2.5
 42
0.625
 43
3.75
 44
1.25
 73
     0
 74
     0
 77
     1
 78
     8
140
2.5
141
2.5
143
0.03937
147
0.625
171
     3
172
     1
271
     2
272
     2
274
     3
278
    44
283
     0
284
     8
340
11
  0
ENDTAB
  0
TABLE
  2
BLOCK_RECORD
  5
1
330
0
100
AcDbSymbolTable
 70
    41
  0
BLOCK_RECORD
  5
1F
330
1
100
AcDbSymbolTableRecord
100
AcDbBlockTableRecord
  2
*Model_Space
340
22
  0
BLOCK_RECORD
  5
1B
330
1
100
AcDbSymbolTableRecord
100
AcDbBlockTableRecord
  2
*Paper_Space
340
1E
  0
BLOCK_RECORD
  5
23
330
1
100
AcDbSymbolTableRecord
100
AcDbBlockTableRecord
  2
*Paper_Space0
340
26
  0
BLOCK_RECORD
  5
30
330
1
100
AcDbSymbolTableRecord
100
AcDbBlockTableRecord
  2
SYM1
340
0
102
{BLKREFS
331
102
102
}
  0
BLOCK_RECORD
  5
278
330
1
100
AcDbSymbolTableRecord
100
AcDbBlockTableRecord
  2
LCDIM1
340
0
102
{BLKREFS
331
294
102
}
  0
BLOCK_RECORD
  5
295
330
1
100
AcDbSymbolTableRecord
100
AcDbBlockTableRecord
  2
LCDIM2
340
0
102
{BLKREFS
331
2AE
102
}
  0
BLOCK_RECORD
  5
2AF
330
1
100
AcDbSymbolTableRecord
100
AcDbBlockTableRecord
  2
LCDIM3
340
0
102
{BLKREFS
331
2C8
102
}
  0
BLOCK_RECORD
  5
2CB
330
1
100
AcDbSymbolTableRecord
100
AcDbBlockTableRecord
  2
LCDIM4
340
0
102
{BLKREFS
331
2E4
102
}
  0
BLOCK_RECORD
  5
2E5
330
1
100
AcDbSymbolTableRecord
100
AcDbBlockTableRecord
  2
LCDIM5
340
0
102
{BLKREFS
331
2FE
102
}
  0
BLOCK_RECORD
  5
302
330
1
100
AcDbSymbolTableRecord
100
AcDbBlockTableRecord
  2
LCDIM6
340
0
102
{BLKREFS
331
31B
102
}
  0
BLOCK_RECORD
  5
31C
330
1
100
AcDbSymbolTableRecord
100
AcDbBlockTableRecord
  2
*X18
340
0
102
{BLKREFS
331
324
102
}
  0
BLOCK_RECORD
  5
325
330
1
100
AcDbSymbolTableRecord
100
AcDbBlockTableRecord
  2
*X29
340
0
102
{BLKREFS
331
32C
102
}
  0
BLOCK_RECORD
  5
32D
330
1
100
AcDbSymbolTableRecord
100
AcDbBlockTableRecord
  2
*X310
340
0
102
{BLKREFS
331
339
102
}
  0
BLOCK_RECORD
  5
340
330
1
100
AcDbSymbolTableRecord
100
AcDbBlockTableRecord
  2
LCDIM7
340
0
102
{BLKREFS
331
359
102
}
  0
BLOCK_RECORD
  5
363
330
1
100
AcDbSymbolTableRecord
100
AcDbBlockTableRecord
  2
LCDIM8
340
0
102
{BLKREFS
331
37C
102
}
  0
BLOCK_RECORD
  5
37D
330
1
100
AcDbSymbolTableRecord
100
AcDbBlockTableRecord
  2
LCDIM9
340
0
102
{BLKREFS
331
396
102
}
  0
BLOCK_RECORD
  5
39A
330
1
100
AcDbSymbolTableRecord
100
AcDbBlockTableRecord
  2
LCDIM10
340
0
102
{BLKREFS
331
3B3
102
}
  0
BLOCK_RECORD
  5
3C1
330
1
100
AcDbSymbolTableRecord
100
AcDbBlockTableRecord
  2
LCDIM11
340
0
102
{BLKREFS
331
3DA
102
}
  0
BLOCK_RECORD
  5
3DB
330
1
100
AcDbSymbolTableRecord
100
AcDbBlockTableRecord
  2
LCDIM12
340
0
102
{BLKREFS
331
3F4
102
}
  0
BLOCK_RECORD
  5
3F5
330
1
100
AcDbSymbolTableRecord
100
AcDbBlockTableRecord
  2
LCDIM13
340
0
102
{BLKREFS
331
403
102
}
  0
BLOCK_RECORD
  5
405
330
1
100
AcDbSymbolTableRecord
100
AcDbBlockTableRecord
  2
LCDIM14
340
0
102
{BLKREFS
331
413
102
}
  0
BLOCK_RECORD
  5
444
330
1
100
AcDbSymbolTableRecord
100
AcDbBlockTableRecord
  2
POLY1
340
0
102
{BLKREFS
331
44D
102
}
  0
BLOCK_RECORD
  5
44E
330
1
100
AcDbSymbolTableRecord
100
AcDbBlockTableRecord
  2
POLY2
340
0
102
{BLKREFS
331
457
102
}
  0
BLOCK_RECORD
  5
458
330
1
100
AcDbSymbolTableRecord
100
AcDbBlockTableRecord
  2
POLY3
340
0
102
{BLKREFS
331
465
102
}
  0
BLOCK_RECORD
  5
466
330
1
100
AcDbSymbolTableRecord
100
AcDbBlockTableRecord
  2
POLY4
340
0
102
{BLKREFS
331
473
102
}
  0
BLOCK_RECORD
  5
474
330
1
100
AcDbSymbolTableRecord
100
AcDbBlockTableRecord
  2
POLY5
340
0
102
{BLKREFS
331
49D
102
}
  0
BLOCK_RECORD
  5
49E
330
1
100
AcDbSymbolTableRecord
100
AcDbBlockTableRecord
  2
POLY6
340
0
102
{BLKREFS
331
4AB
102
}
  0
BLOCK_RECORD
  5
4C2
330
1
100
AcDbSymbolTableRecord
100
AcDbBlockTableRecord
  2
POLY7
340
0
102
{BLKREFS
331
4CB
102
}
  0
BLOCK_RECORD
  5
4CC
330
1
100
AcDbSymbolTableRecord
100
AcDbBlockTableRecord
  2
POLY8
340
0
102
{BLKREFS
331
4D5
102
}
  0
BLOCK_RECORD
  5
4D6
330
1
100
AcDbSymbolTableRecord
100
AcDbBlockTableRecord
  2
POLY9
340
0
102
{BLKREFS
331
4DF
102
}
  0
BLOCK_RECORD
  5
4E0
330
1
100
AcDbSymbolTableRecord
100
AcDbBlockTableRecord
  2
POLY10
340
0
102
{BLKREFS
331
52B
102
}
  0
BLOCK_RECORD
  5
52C
330
1
100
AcDbSymbolTableRecord
100
AcDbBlockTableRecord
  2
POLY11
340
0
102
{BLKREFS
331
535
102
}
  0
BLOCK_RECORD
  5
536
330
1
100
AcDbSymbolTableRecord
100
AcDbBlockTableRecord
  2
POLY12
340
0
102
{BLKREFS
331
53F
102
}
  0
BLOCK_RECORD
  5
540
330
1
100
AcDbSymbolTableRecord
100
AcDbBlockTableRecord
  2
POLY13
340
0
102
{BLKREFS
331
549
102
}
  0
BLOCK_RECORD
  5
54A
330
1
100
AcDbSymbolTableRecord
100
AcDbBlockTableRecord
  2
POLY14
340
0
102
{BLKREFS
331
595
102
}
  0
BLOCK_RECORD
  5
5A8
330
1
100
AcDbSymbolTableRecord
100
AcDbBlockTableRecord
  2
POLY15
340
0
102
{BLKREFS
331
5AC
102
}
  0
BLOCK_RECORD
  5
5FB
330
1
100
AcDbSymbolTableRecord
100
AcDbBlockTableRecord
  2
POLY16
340
0
102
{BLKREFS
331
5FF
102
}
  0
BLOCK_RECORD
  5
60F
330
1
100
AcDbSymbolTableRecord
100
AcDbBlockTableRecord
  2
POLY17
340
0
102
{BLKREFS
331
61E
102
}
  0
BLOCK_RECORD
  5
620
330
1
100
AcDbSymbolTableRecord
100
AcDbBlockTableRecord
  2
POLY18
340
0
102
{BLKREFS
331
62F
102
}
  0
BLOCK_RECORD
  5
631
330
1
100
AcDbSymbolTableRecord
100
AcDbBlockTableRecord
  2
POLY19
340
0
102
{BLKREFS
331
640
102
}
  0
BLOCK_RECORD
  5
6A1
330
1
100
AcDbSymbolTableRecord
100
AcDbBlockTableRecord
  2
POLY20
340
0
102
{BLKREFS
331
6B0
102
}
  0
BLOCK_RECORD
  5
6B1
330
1
100
AcDbSymbolTableRecord
100
AcDbBlockTableRecord
  2
POLY21
340
0
102
{BLKREFS
331
6BC
102
}
  0
BLOCK_RECORD
  5
6D6
330
1
100
AcDbSymbolTableRecord
100
AcDbBlockTableRecord
  2
LCDIM15
340
0
102
{BLKREFS
331
6EF
102
}
  0
ENDTAB
  0
ENDSEC
  0
SECTION
  2
BLOCKS
  0
BLOCK
  5
20
330
1F
100
AcDbEntity
  8
0
100
AcDbBlockBegin
  2
*Model_Space
 70
     0
 71
     0
 10
0.0
 20
0.0
 30
0.0
  3
*Model_Space
  1

  0
ENDBLK
  5
21
330
1F
100
AcDbEntity
  8
0
100
AcDbBlockEnd
  0
BLOCK
  5
1C
330
1B
100
AcDbEntity
 67
     1
  8
0
100
AcDbBlockBegin
  2
*Paper_Space
 70
     0
 71
     0
 10
0.0
 20
0.0
 30
0.0
  3
*Paper_Space
  1

  0
ENDBLK
  5
1D
330
1B
100
AcDbEntity
 67
     1
  8
0
100
AcDbBlockEnd
  0
BLOCK
  5
24
330
23
100
AcDbEntity
  8
0
100
AcDbBlockBegin
  2
*Paper_Space0
 70
     0
 71
     0
 10
0.0
 20
0.0
 30
0.0
  3
*Paper_Space0
  1

  0
ENDBLK
  5
25
330
23
100
AcDbEntity
  8
0
100
AcDbBlockEnd
  0
BLOCK
  5
31
330
30
100
AcDbEntity
  8
0
100
AcDbBlockBegin
  2
SYM1
 70
     0
 71
     0
 10
0.0
 20
0.0
 30
0.0
  3
SYM1
  1

  4
SYM1
  0
LINE
  5
34
330
30
100
AcDbEntity
  8
LC-001-111-----0
 62
   253
370
    50
100
AcDbLine
 10
2050.0
 20
50.0
 30
0.0
 11
2050.0
 21
2920.0
 31
0.0
  0
LINE
  5
35
330
30
100
AcDbEntity
  8
LC-001-111-----0
 62
   253
370
    25
100
AcDbLine
 10
178.0
 20
220.0
 30
0.0
 11
724.0
 21
220.0
 31
0.0
  0
LINE
  5
36
330
30
100
AcDbEntity
  8
LC-001-111-----0
 62
   253
370
    35
100
AcDbLine
 10
724.0
 20
220.0
 30
0.0
 11
2050.0
 21
220.0
 31
0.0
  0
LINE
  5
37
330
30
100
AcDbEntity
  8
LC-001-111-----0
 62
   253
370
    50
100
AcDbLine
 10
178.0
 20
602.5
 30
0.0
 11
2050.0
 21
602.5
 31
0.0
  0
LINE
  5
38
330
30
100
AcDbEntity
  8
LC-001-111-----0
 62
   253
370
    25
100
AcDbLine
 10
178.0
 20
92.5
 30
0.0
 11
2050.0
 21
92.5
 31
0.0
  0
LINE
  5
39
330
30
100
AcDbEntity
  8
LC-001-111-----0
 62
   253
370
    25
100
AcDbLine
 10
178.0
 20
135.0
 30
0.0
 11
724.0
 21
135.0
 31
0.0
  0
LINE
  5
3A
330
30
100
AcDbEntity
  8
LC-001-111-----0
 62
   253
370
    25
100
AcDbLine
 10
178.0
 20
177.5
 30
0.0
 11
724.0
 21
177.5
 31
0.0
  0
LINE
  5
3B
330
30
100
AcDbEntity
  8
LC-001-111-----0
 62
   253
370
    25
100
AcDbLine
 10
178.0
 20
262.5
 30
0.0
 11
1166.0
 21
262.5
 31
0.0
  0
LINE
  5
3C
330
30
100
AcDbEntity
  8
LC-001-111-----0
 62
   253
370
    25
100
AcDbLine
 10
178.0
 20
305.0
 30
0.0
 11
1166.0
 21
305.0
 31
0.0
  0
LINE
  5
3D
330
30
100
AcDbEntity
  8
LC-001-111-----0
 62
   253
370
    25
100
AcDbLine
 10
178.0
 20
347.5
 30
0.0
 11
1166.0
 21
347.5
 31
0.0
  0
LINE
  5
3E
330
30
100
AcDbEntity
  8
LC-001-111-----0
 62
   253
370
    25
100
AcDbLine
 10
178.0
 20
390.0
 30
0.0
 11
1166.0
 21
390.0
 31
0.0
  0
LINE
  5
3F
330
30
100
AcDbEntity
  8
LC-001-111-----0
 62
   253
370
    35
100
AcDbLine
 10
178.0
 20
432.5
 30
0.0
 11
2050.0
 21
432.5
 31
0.0
  0
LINE
  5
40
330
30
100
AcDbEntity
  8
LC-001-111-----0
 62
   253
370
    25
100
AcDbLine
 10
828.0
 20
262.5
 30
0.0
 11
828.0
 21
432.5
 31
0.0
  0
LINE
  5
41
330
30
100
AcDbEntity
  8
LC-001-111-----0
 62
   253
370
    35
100
AcDbLine
 10
1920.0
 20
92.5
 30
0.0
 11
1920.0
 21
220.0
 31
0.0
  0
LINE
  5
42
330
30
100
AcDbEntity
  8
LC-001-111-----0
 62
   253
370
    25
100
AcDbLine
 10
1166.0
 20
538.75
 30
0.0
 11
2050.0
 21
538.75
 31
0.0
  0
LINE
  5
43
330
30
100
AcDbEntity
  8
LC-001-111-----0
 62
   253
370
    25
100
AcDbLine
 10
256.0
 20
50.0
 30
0.0
 11
256.0
 21
432.5
 31
0.0
  0
LINE
  5
44
330
30
100
AcDbEntity
  8
LC-001-111-----0
 62
   253
370
    25
100
AcDbLine
 10
516.0
 20
50.0
 30
0.0
 11
516.0
 21
432.5
 31
0.0
  0
LINE
  5
45
330
30
100
AcDbEntity
  8
LC-001-111-----0
 62
   253
370
    25
100
AcDbLine
 10
646.0
 20
50.0
 30
0.0
 11
646.0
 21
432.5
 31
0.0
  0
LINE
  5
46
330
30
100
AcDbEntity
  8
LC-001-111-----0
 62
   253
370
    35
100
AcDbLine
 10
724.0
 20
50.0
 30
0.0
 11
724.0
 21
602.5
 31
0.0
  0
LINE
  5
47
330
30
100
AcDbEntity
  8
LC-001-111-----0
 62
   253
370
    35
100
AcDbLine
 10
1166.0
 20
50.0
 30
0.0
 11
1166.0
 21
602.5
 31
0.0
  0
LINE
  5
48
330
30
100
AcDbEntity
  8
LC-001-111-----0
 62
   253
370
    25
100
AcDbLine
 10
1920.0
 20
135.0
 30
0.0
 11
2050.0
 21
135.0
 31
0.0
  0
LINE
  5
49
330
30
100
AcDbEntity
  8
LC-001-111-----0
 62
   253
370
    25
100
AcDbLine
 10
984.0
 20
220.0
 30
0.0
 11
984.0
 21
602.5
 31
0.0
  0
LINE
  5
4A
330
30
100
AcDbEntity
  8
LC-001-111-----0
 62
   253
370
    25
100
AcDbLine
 10
1686.0
 20
538.75
 30
0.0
 11
1686.0
 21
602.5
 31
0.0
  0
LINE
  5
4B
330
30
100
AcDbEntity
  8
LC-001-111-----0
 62
   253
370
    25
100
AcDbLine
 10
1608.0
 20
50.0
 30
0.0
 11
1608.0
 21
92.5
 31
0.0
  0
LINE
  5
4C
330
30
100
AcDbEntity
  8
LC-001-111-----0
 62
   253
370
    50
100
AcDbLine
 10
178.0
 20
50.0
 30
0.0
 11
178.0
 21
2920.0
 31
0.0
  0
LINE
  5
4D
330
30
100
AcDbEntity
  8
LC-001-111-----0
 62
   253
370
    50
100
AcDbLine
 10
178.0
 20
2920.0
 30
0.0
 11
2050.0
 21
2920.0
 31
0.0
  0
TEXT
  5
4E
330
30
100
AcDbEntity
  8
LC-001-111-----0
 62
     7
370
    25
100
AcDbText
 10
1471.410714
 20
558.125
 30
0.0
 40
25.0
  1
1:10
 41
0.75
  7
LCTX0-400-0-0pDIN-Schrift
 72
     1
 11
1504.0
 21
558.125
 31
0.0
100
AcDbText
  0
TEXT
  5
4F
330
30
100
AcDbEntity
  8
LC-001-111-----0
 62
     7
370
    25
100
AcDbText
 10
740.285714
 20
398.75
 30
0.0
 40
25.0
  1
2010
 41
0.75
  7
LCTX0-400-0-0pDIN-Schrift
 72
     1
 11
776.0
 21
398.75
 31
0.0
100
AcDbText
  0
TEXT
  5
50
330
30
100
AcDbEntity
  8
LC-001-111-----0
 62
     7
370
    25
100
AcDbText
 10
860.464286
 20
356.25
 30
0.0
 40
25.0
  1
10.03.
 41
0.75
  7
LCTX0-400-0-0pDIN-Schrift
 72
     1
 11
906.0
 21
356.25
 31
0.0
100
AcDbText
  0
TEXT
  5
51
330
30
100
AcDbEntity
  8
LC-001-111-----0
 62
     7
370
    25
100
AcDbText
 10
1056.696429
 20
356.25
 30
0.0
 40
25.0
  1
HÄ
 41
0.75
  7
LCTX0-400-0-0pDIN-Schrift
 72
     1
 11
1075.0
 21
356.25
 31
0.0
100
AcDbText
  0
TEXT
  5
52
330
30
100
AcDbEntity
  8
LC-001-111-----0
 62
   253
370
    20
100
AcDbText
 10
1183.923077
 20
560.625
 30
0.0
 40
20.0
  1
Maßstab
 41
0.75
  7
LCTX0-400-0-0pDIN-Schrift
100
AcDbText
  0
TEXT
  5
53
330
30
100
AcDbEntity
  8
LC-001-111-----0
 62
   253
370
    20
100
AcDbText
 10
869.928571
 20
401.25
 30
0.0
 40
20.0
  1
Datum
 41
0.75
  7
LCTX0-400-0-0pDIN-Schrift
 72
     1
 11
906.0
 21
401.25
 31
0.0
100
AcDbText
  0
TEXT
  5
54
330
30
100
AcDbEntity
  8
LC-001-111-----0
 62
   253
370
    20
100
AcDbText
 10
1042.857143
 20
401.25
 30
0.0
 40
20.0
  1
Name
 41
0.75
  7
LCTX0-400-0-0pDIN-Schrift
 72
     1
 11
1075.0
 21
401.25
 31
0.0
100
AcDbText
  0
TEXT
  5
55
330
30
100
AcDbEntity
  8
LC-001-111-----0
 62
   253
370
    20
100
AcDbText
 10
741.923077
 20
358.75
 30
0.0
 40
20.0
  1
Bearb.
 41
0.75
  7
LCTX0-400-0-0pDIN-Schrift
100
AcDbText
  0
TEXT
  5
56
330
30
100
AcDbEntity
  8
LC-001-111-----0
 62
   253
370
    20
100
AcDbText
 10
741.923077
 20
316.25
 30
0.0
 40
20.0
  1
Gepr.
 41
0.75
  7
LCTX0-400-0-0pDIN-Schrift
100
AcDbText
  0
TEXT
  5
57
330
30
100
AcDbEntity
  8
LC-001-111-----0
 62
   253
370
    20
100
AcDbText
 10
741.923077
 20
273.75
 30
0.0
 40
20.0
  1
Norm
 41
0.75
  7
LCTX0-400-0-0pDIN-Schrift
100
AcDbText
  0
TEXT
  5
58
330
30
100
AcDbEntity
  8
LC-001-111-----0
 62
   253
370
    20
100
AcDbText
 10
1937.923077
 20
188.75
 30
0.0
 40
20.0
  1
Blatt
 41
0.75
  7
LCTX0-400-0-0pDIN-Schrift
100
AcDbText
  0
TEXT
  5
59
330
30
100
AcDbEntity
  8
LC-001-111-----0
 62
   253
370
    20
100
AcDbText
 10
2012.076923
 20
103.75
 30
0.0
 40
20.0
  1
Bl.
 41
0.75
  7
LCTX0-400-0-0pDIN-Schrift
 72
     2
 11
2037.076923
 21
103.75
 31
0.0
100
AcDbText
  0
TEXT
  5
5A
330
30
100
AcDbEntity
  8
LC-001-111-----0
 62
   253
370
    20
100
AcDbText
 10
200.0
 20
61.25
 30
0.0
 40
20.0
  1
Zust.
 41
0.6
  7
LCTX0-400-0-0pDIN-Schrift
 72
     1
 11
222.0
 21
61.25
 31
0.0
100
AcDbText
  0
TEXT
  5
5B
330
30
100
AcDbEntity
  8
LC-001-111-----0
 62
   253
370
    20
100
AcDbText
 10
334.928571
 20
61.25
 30
0.0
 40
20.0
  1
Änderung
 41
0.75
  7
LCTX0-400-0-0pDIN-Schrift
 72
     1
 11
386.0
 21
61.25
 31
0.0
100
AcDbText
  0
TEXT
  5
5C
330
30
100
AcDbEntity
  8
LC-001-111-----0
 62
   253
370
    20
100
AcDbText
 10
544.928571
 20
61.25
 30
0.0
 40
20.0
  1
Datum
 41
0.75
  7
LCTX0-400-0-0pDIN-Schrift
 72
     1
 11
581.0
 21
61.25
 31
0.0
100
AcDbText
  0
TEXT
  5
5D
330
30
100
AcDbEntity
  8
LC-001-111-----0
 62
   253
370
    20
100
AcDbText
 10
652.857143
 20
61.25
 30
0.0
 40
20.0
  1
Name
 41
0.75
  7
LCTX0-400-0-0pDIN-Schrift
 72
     1
 11
685.0
 21
61.25
 31
0.0
100
AcDbText
  0
TEXT
  5
5E
330
30
100
AcDbEntity
  8
LC-001-111-----0
 62
     7
370
    50
100
AcDbText
 10
1378.535714
 20
343.75
 30
0.0
 40
50.0
  1
City D100 large
 41
0.75
  7
LCTX0-400-0-0pDIN-Schrift
 72
     1
 11
1608.0
 21
343.75
 31
0.0
100
AcDbText
  0
TEXT
  5
5F
330
30
100
AcDbEntity
  8
LC-001-111-----0
 62
     7
370
    50
100
AcDbText
 10
1328.714286
 20
131.25
 30
0.0
 40
50.0
  1
4.10.757.04.00
 41
0.75
  7
LCTX0-400-0-0pDIN-Schrift
 72
     1
 11
1543.0
 21
131.25
 31
0.0
100
AcDbText
  0
ARC
  5
60
330
30
100
AcDbEntity
  8
LC-001-111-----0
 62
   253
370
    25
100
AcDbCircle
 10
758.903191
 20
174.567744
 30
0.0
 40
20.81533311668208
100
AcDbArc
 50
62.408264
 51
94.48185
  0
LINE
  5
61
330
30
100
AcDbEntity
  8
LC-001-111-----0
 62
   253
370
    50
100
AcDbLine
 10
178.0
 20
50.0
 30
0.0
 11
2050.0
 21
50.0
 31
0.0
  0
LINE
  5
62
330
30
100
AcDbEntity
  8
LC-001-111-----0
 62
   253
370
    25
100
AcDbLine
 10
50.0
 20
1485.0
 30
0.0
 11
0.0
 21
1485.0
 31
0.0
  0
LINE
  5
63
330
30
100
AcDbEntity
  8
LC-001-111-----0
 62
   253
370
    25
100
AcDbLine
 10
1063.835603
 20
195.169147
 30
0.0
 11
1063.835603
 21
157.149147
 31
0.0
  0
LINE
  5
64
330
30
100
AcDbEntity
  8
LC-001-111-----0
 62
   253
370
    25
100
AcDbLine
 10
2100.0
 20
2970.0
 30
0.0
 11
2100.0
 21
0.0
 31
0.0
  0
LINE
  5
65
330
30
100
AcDbEntity
  8
LC-001-111-----0
 62
   253
370
    25
100
AcDbLine
 10
2100.0
 20
0.0
 30
0.0
 11
0.0
 21
0.0
 31
0.0
  0
LINE
  5
66
330
30
100
AcDbEntity
  8
LC-001-111-----0
 62
   253
370
    25
100
AcDbLine
 10
0.0
 20
0.0
 30
0.0
 11
0.0
 21
2970.0
 31
0.0
  0
LINE
  5
67
330
30
100
AcDbEntity
  8
LC-001-111-----0
 62
   253
370
    25
100
AcDbLine
 10
2100.0
 20
2970.0
 30
0.0
 11
0.0
 21
2970.0
 31
0.0
  0
TEXT
  5
68
330
30
100
AcDbEntity
  8
LC-001-111-----0
 62
   253
370
    20
100
AcDbText
 10
763.0
 20
111.159147
 30
0.0
 40
20.0
  1
Hofbauerstraße1 · D-94209 REGEN
 41
0.65
  7
LCTX0-400-0-0pDIN-Schrift
 72
     1
 11
945.0
 21
111.159147
 31
0.0
100
AcDbText
  0
ARC
  5
69
330
30
100
AcDbEntity
  8
LC-001-111-----0
 62
   253
370
    25
100
AcDbCircle
 10
758.032826
 20
185.671748
 30
0.0
 40
9.677270814709853
100
AcDbArc
 50
94.48185
 51
252.731329
  0
ARC
  5
6A
330
30
100
AcDbEntity
  8
LC-001-111-----0
 62
   253
370
    25
100
AcDbCircle
 10
823.845603
 20
176.159147
 30
0.0
 40
19.01000000000008
100
AcDbArc
 50
74.719456
 51
285.280544
  0
LINE
  5
6B
330
30
100
AcDbEntity
  8
LC-001-111-----0
 62
   253
370
    25
100
AcDbLine
 10
828.855603
 20
157.821208
 30
0.0
 11
828.855603
 21
163.204148
 31
0.0
  0
ARC
  5
6C
330
30
100
AcDbEntity
  8
LC-001-111-----0
 62
   253
370
    25
100
AcDbCircle
 10
823.845603
 20
176.159147
 30
0.0
 40
13.88999999999995
100
AcDbArc
 50
68.857352
 51
291.142648
  0
ARC
  5
6D
330
30
100
AcDbEntity
  8
LC-001-111-----0
 62
   253
370
    25
100
AcDbCircle
 10
823.845603
 20
176.159147
 30
0.0
 40
12.39000000000002
100
AcDbArc
 50
58.303227
 51
301.696773
  0
ARC
  5
6E
330
30
100
AcDbEntity
  8
LC-001-111-----0
 62
   253
370
    25
100
AcDbCircle
 10
1019.845603
 20
176.159147
 30
0.0
 40
19.01000000000008
100
AcDbArc
 50
74.719456
 51
285.280544
  0
LINE
  5
6F
330
30
100
AcDbEntity
  8
LC-001-111-----0
 62
   253
370
    25
100
AcDbLine
 10
830.355603
 20
165.617231
 30
0.0
 11
830.355603
 21
156.709726
 31
0.0
  0
LINE
  5
70
330
30
100
AcDbEntity
  8
LC-001-111-----0
 62
   253
370
    25
100
AcDbLine
 10
755.160101
 20
176.430697
 30
0.0
 11
762.683613
 21
174.091896
 31
0.0
  0
ARC
  5
71
330
30
100
AcDbEntity
  8
LC-001-111-----0
 62
   253
370
    25
100
AcDbCircle
 10
823.845603
 20
176.159147
 30
0.0
 40
20.51000000000012
100
AcDbArc
 50
71.493868
 51
288.506132
  0
LINE
  5
72
330
30
100
AcDbEntity
  8
LC-001-111-----0
 62
   253
370
    25
100
AcDbLine
 10
1024.855603
 20
157.821208
 30
0.0
 11
1024.855603
 21
163.204148
 31
0.0
  0
LINE
  5
73
330
30
100
AcDbEntity
  8
LC-001-111-----0
 62
   253
370
    25
100
AcDbLine
 10
830.355603
 20
195.608569
 30
0.0
 11
830.355603
 21
186.701063
 31
0.0
  0
ARC
  5
74
330
30
100
AcDbEntity
  8
LC-001-111-----0
 62
   253
370
    25
100
AcDbCircle
 10
1019.845603
 20
176.159147
 30
0.0
 40
13.88999999999995
100
AcDbArc
 50
68.857352
 51
291.142648
  0
LINE
  5
75
330
30
100
AcDbEntity
  8
LC-001-111-----0
 62
   253
370
    25
100
AcDbLine
 10
862.835603
 20
155.649147
 30
0.0
 11
862.835603
 21
196.669147
 31
0.0
  0
LINE
  5
76
330
30
100
AcDbEntity
  8
LC-001-111-----0
 62
   253
370
    25
100
AcDbLine
 10
862.835603
 20
196.669147
 30
0.0
 11
872.355603
 21
196.669147
 31
0.0
  0
LINE
  5
77
330
30
100
AcDbEntity
  8
LC-001-111-----0
 62
   253
370
    25
100
AcDbLine
 10
872.355603
 20
196.669147
 30
0.0
 11
872.355603
 21
179.519147
 31
0.0
  0
LINE
  5
78
330
30
100
AcDbEntity
  8
LC-001-111-----0
 62
   253
370
    25
100
AcDbLine
 10
872.355603
 20
179.519147
 30
0.0
 11
887.335603
 21
179.519147
 31
0.0
  0
LINE
  5
79
330
30
100
AcDbEntity
  8
LC-001-111-----0
 62
   253
370
    25
100
AcDbLine
 10
887.335603
 20
179.519147
 30
0.0
 11
887.335603
 21
196.669147
 31
0.0
  0
LINE
  5
7A
330
30
100
AcDbEntity
  8
LC-001-111-----0
 62
   253
370
    25
100
AcDbLine
 10
887.335603
 20
196.669147
 30
0.0
 11
896.855603
 21
196.669147
 31
0.0
  0
LINE
  5
7B
330
30
100
AcDbEntity
  8
LC-001-111-----0
 62
   253
370
    25
100
AcDbLine
 10
896.855603
 20
196.669147
 30
0.0
 11
896.855603
 21
155.649147
 31
0.0
  0
LINE
  5
7C
330
30
100
AcDbEntity
  8
LC-001-111-----0
 62
   253
370
    25
100
AcDbLine
 10
896.855603
 20
155.649147
 30
0.0
 11
887.335603
 21
155.649147
 31
0.0
  0
LINE
  5
7D
330
30
100
AcDbEntity
  8
LC-001-111-----0
 62
   253
370
    25
100
AcDbLine
 10
887.335603
 20
155.649147
 30
0.0
 11
887.335603
 21
172.799147
 31
0.0
  0
LINE
  5
7E
330
30
100
AcDbEntity
  8
LC-001-111-----0
 62
   253
370
    25
100
AcDbLine
 10
887.335603
 20
172.799147
 30
0.0
 11
872.355603
 21
172.799147
 31
0.0
  0
LINE
  5
7F
330
30
100
AcDbEntity
  8
LC-001-111-----0
 62
   253
370
    25
100
AcDbLine
 10
872.355603
 20
172.799147
 30
0.0
 11
872.355603
 21
155.649147
 31
0.0
  0
LINE
  5
80
330
30
100
AcDbEntity
  8
LC-001-111-----0
 62
   253
370
    25
100
AcDbLine
 10
872.355603
 20
155.649147
 30
0.0
 11
862.835603
 21
155.649147
 31
0.0
  0
CIRCLE
  5
81
330
30
100
AcDbEntity
  8
LC-001-111-----0
 62
   253
370
    25
100
AcDbCircle
 10
946.345603
 20
176.159147
 30
0.0
 40
12.39000000000044
  0
CIRCLE
  5
82
330
30
100
AcDbEntity
  8
LC-001-111-----0
 62
   253
370
    25
100
AcDbCircle
 10
946.345603
 20
176.159147
 30
0.0
 40
20.51000000000049
  0
ARC
  5
83
330
30
100
AcDbEntity
  8
LC-001-111-----0
 62
   253
370
    25
100
AcDbCircle
 10
1019.845603
 20
176.159147
 30
0.0
 40
12.39000000000002
100
AcDbArc
 50
58.303227
 51
301.696773
  0
LINE
  5
84
330
30
100
AcDbEntity
  8
LC-001-111-----0
 62
   253
370
    25
100
AcDbLine
 10
864.335603
 20
195.169147
 30
0.0
 11
864.335603
 21
157.149147
 31
0.0
  0
LINE
  5
85
330
30
100
AcDbEntity
  8
LC-001-111-----0
 62
   253
370
    25
100
AcDbLine
 10
1026.355603
 20
165.617231
 30
0.0
 11
1026.355603
 21
156.709726
 31
0.0
  0
LINE
  5
86
330
30
100
AcDbEntity
  8
LC-001-111-----0
 62
   253
370
    25
100
AcDbLine
 10
864.335603
 20
157.149147
 30
0.0
 11
870.855603
 21
157.149147
 31
0.0
  0
LINE
  5
87
330
30
100
AcDbEntity
  8
LC-001-111-----0
 62
   253
370
    25
100
AcDbLine
 10
870.855603
 20
157.149147
 30
0.0
 11
870.855603
 21
174.299147
 31
0.0
  0
LINE
  5
88
330
30
100
AcDbEntity
  8
LC-001-111-----0
 62
   253
370
    25
100
AcDbLine
 10
870.855603
 20
174.299147
 30
0.0
 11
888.835603
 21
174.299147
 31
0.0
  0
LINE
  5
89
330
30
100
AcDbEntity
  8
LC-001-111-----0
 62
   253
370
    25
100
AcDbLine
 10
888.835603
 20
174.299147
 30
0.0
 11
888.835603
 21
157.149147
 31
0.0
  0
LINE
  5
8A
330
30
100
AcDbEntity
  8
LC-001-111-----0
 62
   253
370
    25
100
AcDbLine
 10
888.835603
 20
157.149147
 30
0.0
 11
895.355603
 21
157.149147
 31
0.0
  0
LINE
  5
8B
330
30
100
AcDbEntity
  8
LC-001-111-----0
 62
   253
370
    25
100
AcDbLine
 10
895.355603
 20
157.149147
 30
0.0
 11
895.355603
 21
195.169147
 31
0.0
  0
LINE
  5
8C
330
30
100
AcDbEntity
  8
LC-001-111-----0
 62
   253
370
    25
100
AcDbLine
 10
895.355603
 20
195.169147
 30
0.0
 11
888.835603
 21
195.169147
 31
0.0
  0
LINE
  5
8D
330
30
100
AcDbEntity
  8
LC-001-111-----0
 62
   253
370
    25
100
AcDbLine
 10
888.835603
 20
195.169147
 30
0.0
 11
888.835603
 21
178.019147
 31
0.0
  0
LINE
  5
8E
330
30
100
AcDbEntity
  8
LC-001-111-----0
 62
   253
370
    25
100
AcDbLine
 10
888.835603
 20
178.019147
 30
0.0
 11
870.855603
 21
178.019147
 31
0.0
  0
LINE
  5
8F
330
30
100
AcDbEntity
  8
LC-001-111-----0
 62
   253
370
    25
100
AcDbLine
 10
870.855603
 20
178.019147
 30
0.0
 11
870.855603
 21
195.169147
 31
0.0
  0
CIRCLE
  5
90
330
30
100
AcDbEntity
  8
LC-001-111-----0
 62
   253
370
    25
100
AcDbCircle
 10
946.345603
 20
176.159147
 30
0.0
 40
19.01000000000055
  0
ARC
  5
91
330
30
100
AcDbEntity
  8
LC-001-111-----0
 62
   253
370
    25
100
AcDbCircle
 10
760.836588
 20
168.15034
 30
0.0
 40
6.222024781007809
100
AcDbArc
 50
268.246912
 51
72.731329
  0
ARC
  5
92
330
30
100
AcDbEntity
  8
LC-001-111-----0
 62
   253
370
    25
100
AcDbCircle
 10
761.412387
 20
186.963179
 30
0.0
 40
25.04367341134793
100
AcDbArc
 50
239.19233
 51
268.246912
  0
LINE
  5
93
330
30
100
AcDbEntity
  8
LC-001-111-----0
 62
   253
370
    25
100
AcDbLine
 10
748.586073
 20
165.453385
 30
0.0
 11
748.586073
 21
160.350534
 31
0.0
  0
ARC
  5
94
330
30
100
AcDbEntity
  8
LC-001-111-----0
 62
   253
370
    25
100
AcDbCircle
 10
760.81067
 20
180.45076
 30
0.0
 40
23.52572762426598
100
AcDbArc
 50
238.692783
 51
274.343327
  0
ARC
  5
95
330
30
100
AcDbEntity
  8
LC-001-111-----0
 62
   253
370
    25
100
AcDbCircle
 10
1019.845603
 20
176.159147
 30
0.0
 40
20.51000000000012
100
AcDbArc
 50
71.493868
 51
288.506132
  0
ARC
  5
96
330
30
100
AcDbEntity
  8
LC-001-111-----0
 62
   253
370
    25
100
AcDbCircle
 10
761.779647
 20
167.692822
 30
0.0
 40
10.73104525444839
100
AcDbArc
 50
274.343327
 51
74.255463
  0
LINE
  5
97
330
30
100
AcDbEntity
  8
LC-001-111-----0
 62
   253
370
    25
100
AcDbLine
 10
1026.355603
 20
195.608569
 30
0.0
 11
1026.355603
 21
186.701063
 31
0.0
  0
LINE
  5
98
330
30
100
AcDbEntity
  8
LC-001-111-----0
 62
   253
370
    25
100
AcDbLine
 10
764.691502
 20
178.02125
 30
0.0
 11
757.135251
 21
180.151556
 31
0.0
  0
LINE
  5
99
330
30
100
AcDbEntity
  8
LC-001-111-----0
 62
   253
370
    25
100
AcDbLine
 10
1024.855603
 20
189.114146
 30
0.0
 11
1024.855603
 21
194.497086
 31
0.0
  0
ARC
  5
9A
330
30
100
AcDbEntity
  8
LC-001-111-----0
 62
   253
370
    25
100
AcDbCircle
 10
758.632108
 20
185.460948
 30
0.0
 40
5.51636013010035
100
AcDbArc
 50
90.951212
 51
254.255463
  0
ARC
  5
9B
330
30
100
AcDbEntity
  8
LC-001-111-----0
 62
   253
370
    25
100
AcDbCircle
 10
758.906662
 20
168.924866
 30
0.0
 40
22.05472179307849
100
AcDbArc
 50
64.088485
 51
90.951212
  0
LINE
  5
9C
330
30
100
AcDbEntity
  8
LC-001-111-----0
 62
   253
370
    25
100
AcDbLine
 10
768.544191
 20
188.762426
 30
0.0
 11
768.544191
 21
193.015758
 31
0.0
  0
LINE
  5
9D
330
30
100
AcDbEntity
  8
LC-001-111-----0
 62
   253
370
    25
100
AcDbLine
 10
1071.855603
 20
177.513832
 30
0.0
 11
1087.818366
 21
196.669147
 31
0.0
  0
LINE
  5
9E
330
30
100
AcDbEntity
  8
LC-001-111-----0
 62
   253
370
    25
100
AcDbLine
 10
1087.818366
 20
196.669147
 30
0.0
 11
1099.299433
 21
196.669147
 31
0.0
  0
LINE
  5
9F
330
30
100
AcDbEntity
  8
LC-001-111-----0
 62
   253
370
    25
100
AcDbLine
 10
1099.299433
 20
196.669147
 30
0.0
 11
1082.207766
 21
176.159147
 31
0.0
  0
LINE
  5
A1
330
30
100
AcDbEntity
  8
LC-002-002-----0
 62
     1
370
    25
100
AcDbLine
 10
1143.855603
 20
159.963432
 30
0.0
 11
1143.855603
 21
192.354862
 31
0.0
  0
LINE
  5
A2
330
30
100
AcDbEntity
  8
LC-002-002-----0
 62
     1
370
    25
100
AcDbLine
 10
1143.855603
 20
192.354862
 30
0.0
 11
1127.659888
 21
176.159147
 31
0.0
  0
LINE
  5
A3
330
30
100
AcDbEntity
  8
LC-002-002-----0
 62
     1
370
    25
100
AcDbLine
 10
1127.659888
 20
176.159147
 30
0.0
 11
1143.855603
 21
159.963432
 31
0.0
  0
LINE
  5
A4
330
30
100
AcDbEntity
  8
LC-002-002-----0
 62
     1
370
    25
100
AcDbLine
 10
1142.355603
 20
163.584752
 30
0.0
 11
1142.355603
 21
188.733542
 31
0.0
  0
LINE
  5
A5
330
30
100
AcDbEntity
  8
LC-001-111-----0
 62
   253
370
    25
100
AcDbLine
 10
1082.207766
 20
176.159147
 30
0.0
 11
1099.299433
 21
155.649147
 31
0.0
  0
LINE
  5
A6
330
30
100
AcDbEntity
  8
LC-001-111-----0
 62
   253
370
    25
100
AcDbLine
 10
1099.299433
 20
155.649147
 30
0.0
 11
1087.818366
 21
155.649147
 31
0.0
  0
LINE
  5
A7
330
30
100
AcDbEntity
  8
LC-001-111-----0
 62
   253
370
    25
100
AcDbLine
 10
1087.818366
 20
155.649147
 30
0.0
 11
1071.855603
 21
174.804462
 31
0.0
  0
LINE
  5
A8
330
30
100
AcDbEntity
  8
LC-001-111-----0
 62
   253
370
    25
100
AcDbLine
 10
1062.335603
 20
155.649147
 30
0.0
 11
1062.335603
 21
196.669147
 31
0.0
  0
LINE
  5
A9
330
30
100
AcDbEntity
  8
LC-001-111-----0
 62
   253
370
    25
100
AcDbLine
 10
828.855603
 20
189.114146
 30
0.0
 11
828.855603
 21
194.497086
 31
0.0
  0
ARC
  5
AA
330
30
100
AcDbEntity
  8
LC-001-111-----0
 62
   253
370
    25
100
AcDbCircle
 10
758.903191
 20
174.567744
 30
0.0
 40
19.31533311668209
100
AcDbArc
 50
65.072024
 51
94.48185
  0
LINE
  5
AB
330
30
100
AcDbEntity
  8
LC-001-111-----0
 62
   253
370
    25
100
AcDbLine
 10
1063.835603
 20
157.149147
 30
0.0
 11
1070.355603
 21
157.149147
 31
0.0
  0
LINE
  5
AC
330
30
100
AcDbEntity
  8
LC-001-111-----0
 62
   253
370
    25
100
AcDbLine
 10
1070.355603
 20
157.149147
 30
0.0
 11
1070.355603
 21
195.169147
 31
0.0
  0
LINE
  5
AD
330
30
100
AcDbEntity
  8
LC-001-111-----0
 62
   253
370
    25
100
AcDbLine
 10
1070.355603
 20
195.169147
 30
0.0
 11
1063.835603
 21
195.169147
 31
0.0
  0
LINE
  5
AE
330
30
100
AcDbEntity
  8
LC-001-111-----0
 62
   253
370
    25
100
AcDbLine
 10
1065.335603
 20
193.669147
 30
0.0
 11
1065.335603
 21
158.649147
 31
0.0
  0
LINE
  5
AF
330
30
100
AcDbEntity
  8
LC-002-002-----0
 62
     1
370
    25
100
AcDbLine
 10
1142.355603
 20
188.733542
 30
0.0
 11
1129.781208
 21
176.159147
 31
0.0
  0
LINE
  5
B0
330
30
100
AcDbEntity
  8
LC-002-002-----0
 62
     1
370
    25
100
AcDbLine
 10
1129.781208
 20
176.159147
 30
0.0
 11
1142.355603
 21
163.584752
 31
0.0
  0
LINE
  5
B1
330
30
100
AcDbEntity
  8
LC-001-111-----0
 62
   253
370
    25
100
AcDbLine
 10
1062.335603
 20
196.669147
 30
0.0
 11
1071.855603
 21
196.669147
 31
0.0
  0
LINE
  5
B2
330
30
100
AcDbEntity
  8
LC-001-111-----0
 62
   253
370
    25
100
AcDbLine
 10
1071.855603
 20
196.669147
 30
0.0
 11
1071.855603
 21
155.649147
 31
0.0
  0
LINE
  5
B3
330
30
100
AcDbEntity
  8
LC-001-111-----0
 62
   253
370
    25
100
AcDbLine
 10
1071.855603
 20
155.649147
 30
0.0
 11
1062.335603
 21
155.649147
 31
0.0
  0
ARC
  5
B4
330
30
100
AcDbEntity
  8
LC-001-111-----0
 62
   253
370
    25
100
AcDbCircle
 10
758.032826
 20
185.671748
 30
0.0
 40
8.177270814709827
100
AcDbArc
 50
94.48185
 51
252.731329
  0
LINE
  5
B5
330
30
100
AcDbEntity
  8
LC-001-111-----0
 62
   253
370
    25
100
AcDbLine
 10
755.60538
 20
177.863082
 30
0.0
 11
763.128892
 21
175.524281
 31
0.0
  0
ARC
  5
B6
330
30
100
AcDbEntity
  8
LC-001-111-----0
 62
   253
370
    25
100
AcDbCircle
 10
760.836588
 20
168.15034
 30
0.0
 40
7.72202478100773
100
AcDbArc
 50
268.246912
 51
72.731329
  0
LINE
  5
B7
330
30
100
AcDbEntity
  8
LC-001-111-----0
 62
   253
370
    25
100
AcDbLine
 10
827.355603
 20
191.143539
 30
0.0
 11
827.355603
 21
193.313738
 31
0.0
  0
ARC
  5
B8
330
30
100
AcDbEntity
  8
LC-001-111-----0
 62
   253
370
    25
100
AcDbCircle
 10
823.845603
 20
176.159147
 30
0.0
 40
17.50999999999996
100
AcDbArc
 50
78.436322
 51
281.563678
  0
LINE
  5
B9
330
30
100
AcDbEntity
  8
LC-001-111-----0
 62
   253
370
    25
100
AcDbLine
 10
827.355603
 20
159.004556
 30
0.0
 11
827.355603
 21
161.174755
 31
0.0
  0
LINE
  5
BA
330
30
100
AcDbEntity
  8
LC-002-002-----0
 62
     1
370
    25
100
AcDbLine
 10
1145.355603
 20
195.976182
 30
0.0
 11
1145.355603
 21
156.342112
 31
0.0
  0
LINE
  5
BB
330
30
100
AcDbEntity
  8
LC-002-002-----0
 62
     1
370
    25
100
AcDbLine
 10
1145.355603
 20
156.342112
 30
0.0
 11
1125.538568
 21
176.159147
 31
0.0
  0
LINE
  5
BC
330
30
100
AcDbEntity
  8
LC-002-002-----0
 62
     1
370
    25
100
AcDbLine
 10
1125.538568
 20
176.159147
 30
0.0
 11
1145.355603
 21
195.976182
 31
0.0
  0
LINE
  5
BD
330
30
100
AcDbEntity
  8
LC-001-111-----0
 62
   253
370
    25
100
AcDbLine
 10
1065.335603
 20
158.649147
 30
0.0
 11
1068.855603
 21
158.649147
 31
0.0
  0
LINE
  5
BE
330
30
100
AcDbEntity
  8
LC-001-111-----0
 62
   253
370
    25
100
AcDbLine
 10
1068.855603
 20
158.649147
 30
0.0
 11
1068.855603
 21
193.669147
 31
0.0
  0
LINE
  5
BF
330
30
100
AcDbEntity
  8
LC-001-111-----0
 62
   253
370
    25
100
AcDbLine
 10
1068.855603
 20
193.669147
 30
0.0
 11
1065.335603
 21
193.669147
 31
0.0
  0
LINE
  5
C0
330
30
100
AcDbEntity
  8
LC-001-111-----0
 62
   253
370
    25
100
AcDbLine
 10
1067.095603
 20
192.169147
 30
0.0
 11
1067.095603
 21
160.149147
 31
0.0
  0
ARC
  5
C1
330
30
100
AcDbEntity
  8
LC-001-111-----0
 62
   253
370
    25
100
AcDbCircle
 10
823.845603
 20
176.159147
 30
0.0
 40
15.38999999999992
100
AcDbArc
 50
76.816519
 51
283.183481
  0
LINE
  5
C2
330
30
100
AcDbEntity
  8
LC-001-111-----0
 62
   253
370
    25
100
AcDbLine
 10
870.855603
 20
195.169147
 30
0.0
 11
864.335603
 21
195.169147
 31
0.0
  0
LINE
  5
C3
330
30
100
AcDbEntity
  8
LC-001-111-----0
 62
   253
370
    25
100
AcDbLine
 10
1096.09687
 20
195.169147
 30
0.0
 11
1088.520928
 21
195.169147
 31
0.0
  0
LINE
  5
C4
330
30
100
AcDbEntity
  8
LC-001-111-----0
 62
   253
370
    25
100
AcDbLine
 10
865.835603
 20
158.649147
 30
0.0
 11
869.355603
 21
158.649147
 31
0.0
  0
LINE
  5
C5
330
30
100
AcDbEntity
  8
LC-001-111-----0
 62
   253
370
    25
100
AcDbLine
 10
1023.355603
 20
191.143539
 30
0.0
 11
1023.355603
 21
193.313738
 31
0.0
  0
LINE
  5
C6
330
30
100
AcDbEntity
  8
LC-001-111-----0
 62
   253
370
    25
100
AcDbLine
 10
892.095603
 20
192.169147
 30
0.0
 11
892.095603
 21
160.149147
 31
0.0
  0
TEXT
  5
C7
330
30
100
AcDbEntity
  8
LC-001-111-----0
 62
     1
370
    15
100
AcDbText
 10
1908.982143
 20
21.25
 30
0.0
 40
15.0
  1
City-D100L
 41
0.75
  7
LCTX0-400-0-0pDIN-Schrift
 72
     1
 11
1958.0
 21
21.25
 31
0.0
100
AcDbText
  0
CIRCLE
  5
C8
330
30
100
AcDbEntity
  8
LC-001-111-----0
 62
   253
370
    25
100
AcDbCircle
 10
946.345603
 20
176.159147
 30
0.0
 40
17.51000000000047
  0
LINE
  5
C9
330
30
100
AcDbEntity
  8
LC-001-111-----0
 62
   253
370
    25
100
AcDbLine
 10
1088.520928
 20
195.169147
 30
0.0
 11
1072.679261
 21
176.159147
 31
0.0
  0
ARC
  5
CA
330
30
100
AcDbEntity
  8
LC-001-111-----0
 62
   253
370
    25
100
AcDbCircle
 10
1019.845603
 20
176.159147
 30
0.0
 40
17.50999999999996
100
AcDbArc
 50
78.436322
 51
281.563678
  0
ARC
  5
CB
330
30
100
AcDbEntity
  8
LC-001-111-----0
 62
   253
370
    25
100
AcDbCircle
 10
761.412387
 20
186.963179
 30
0.0
 40
26.54367341134783
100
AcDbArc
 50
244.741378
 51
268.246912
  0
LINE
  5
CC
330
30
100
AcDbEntity
  8
LC-001-111-----0
 62
   253
370
    25
100
AcDbLine
 10
1023.355603
 20
159.004556
 30
0.0
 11
1023.355603
 21
161.174755
 31
0.0
  0
LINE
  5
CD
330
30
100
AcDbEntity
  8
LC-002-002-----0
 62
     1
370
    25
100
AcDbLine
 10
1140.855603
 20
167.206073
 30
0.0
 11
1140.855603
 21
185.112221
 31
0.0
  0
LINE
  5
CE
330
30
100
AcDbEntity
  8
LC-002-002-----0
 62
     1
370
    25
100
AcDbLine
 10
1140.855603
 20
185.112221
 30
0.0
 11
1131.902529
 21
176.159147
 31
0.0
  0
LINE
  5
CF
330
30
100
AcDbEntity
  8
LC-002-002-----0
 62
     1
370
    25
100
AcDbLine
 10
1131.902529
 20
176.159147
 30
0.0
 11
1140.855603
 21
167.206073
 31
0.0
  0
CIRCLE
  5
D0
330
30
100
AcDbEntity
  8
LC-001-111-----0
 62
   253
370
    25
100
AcDbCircle
 10
946.345603
 20
176.159147
 30
0.0
 40
13.89000000000002
  0
LINE
  5
D1
330
30
100
AcDbEntity
  8
LC-001-111-----0
 62
   253
370
    25
100
AcDbLine
 10
890.335603
 20
158.649147
 30
0.0
 11
893.855603
 21
158.649147
 31
0.0
  0
LINE
  5
D2
330
30
100
AcDbEntity
  8
LC-001-111-----0
 62
   253
370
    25
100
AcDbLine
 10
893.855603
 20
158.649147
 30
0.0
 11
893.855603
 21
193.669147
 31
0.0
  0
ARC
  5
D3
330
30
100
AcDbEntity
  8
LC-001-111-----0
 62
   253
370
    25
100
AcDbCircle
 10
758.906662
 20
168.924866
 30
0.0
 40
20.55472179307891
100
AcDbArc
 50
57.190491
 51
90.951212
  0
ARC
  5
D4
330
30
100
AcDbEntity
  8
LC-001-111-----0
 62
   253
370
    25
100
AcDbCircle
 10
761.779647
 20
167.692822
 30
0.0
 40
12.23104525444841
100
AcDbArc
 50
274.343327
 51
74.255463
  0
LINE
  5
D5
330
30
100
AcDbEntity
  8
LC-001-111-----0
 62
   253
370
    25
100
AcDbLine
 10
893.855603
 20
193.669147
 30
0.0
 11
890.335603
 21
193.669147
 31
0.0
  0
LINE
  5
D6
330
30
100
AcDbEntity
  8
LC-001-111-----0
 62
   253
370
    25
100
AcDbLine
 10
890.335603
 20
193.669147
 30
0.0
 11
890.335603
 21
158.649147
 31
0.0
  0
LINE
  5
D7
330
30
100
AcDbEntity
  8
LC-001-111-----0
 62
   253
370
    25
100
AcDbLine
 10
890.335603
 20
176.159147
 30
0.0
 11
869.355603
 21
176.159147
 31
0.0
  0
LINE
  5
D8
330
30
100
AcDbEntity
  8
LC-001-111-----0
 62
   253
370
    25
100
AcDbLine
 10
869.355603
 20
158.649147
 30
0.0
 11
869.355603
 21
193.669147
 31
0.0
  0
LINE
  5
D9
330
30
100
AcDbEntity
  8
LC-001-111-----0
 62
   253
370
    25
100
AcDbLine
 10
869.355603
 20
193.669147
 30
0.0
 11
865.835603
 21
193.669147
 31
0.0
  0
LINE
  5
DA
330
30
100
AcDbEntity
  8
LC-001-111-----0
 62
   253
370
    25
100
AcDbLine
 10
865.835603
 20
193.669147
 30
0.0
 11
865.835603
 21
158.649147
 31
0.0
  0
LINE
  5
DB
330
30
100
AcDbEntity
  8
LC-001-111-----0
 62
   253
370
    25
100
AcDbLine
 10
867.595603
 20
192.169147
 30
0.0
 11
867.595603
 21
160.149147
 31
0.0
  0
CIRCLE
  5
DC
330
30
100
AcDbEntity
  8
LC-001-111-----0
 62
   253
370
    25
100
AcDbCircle
 10
946.345603
 20
176.159147
 30
0.0
 40
15.38999999999984
  0
LINE
  5
DD
330
30
100
AcDbEntity
  8
LC-001-111-----0
 62
   253
370
    25
100
AcDbLine
 10
1072.679261
 20
176.159147
 30
0.0
 11
1088.520928
 21
157.149147
 31
0.0
  0
LINE
  5
DE
330
30
100
AcDbEntity
  8
LC-001-111-----0
 62
   253
370
    25
100
AcDbLine
 10
1088.520928
 20
157.149147
 30
0.0
 11
1096.09687
 21
157.149147
 31
0.0
  0
LINE
  5
DF
330
30
100
AcDbEntity
  8
LC-001-111-----0
 62
   253
370
    25
100
AcDbLine
 10
1096.09687
 20
157.149147
 30
0.0
 11
1080.255204
 21
176.159147
 31
0.0
  0
LINE
  5
E0
330
30
100
AcDbEntity
  8
LC-001-111-----0
 62
   253
370
    25
100
AcDbLine
 10
770.044191
 20
186.20063
 30
0.0
 11
770.044191
 21
193.903002
 31
0.0
  0
ARC
  5
E1
330
30
100
AcDbEntity
  8
LC-001-111-----0
 62
   253
370
    25
100
AcDbCircle
 10
761.412387
 20
186.963179
 30
0.0
 40
23.54367341134796
100
AcDbArc
 50
232.518913
 51
268.246912
  0
ARC
  5
E2
330
30
100
AcDbEntity
  8
LC-001-111-----0
 62
   253
370
    25
100
AcDbCircle
 10
760.836588
 20
168.15034
 30
0.0
 40
4.722024781007908
100
AcDbArc
 50
268.246912
 51
72.731329
  0
LINE
  5
E3
330
30
100
AcDbEntity
  8
LC-001-111-----0
 62
   253
370
    25
100
AcDbLine
 10
757.542274
 20
181.595277
 30
0.0
 11
765.098525
 21
179.464972
 31
0.0
  0
ARC
  5
E4
330
30
100
AcDbEntity
  8
LC-001-111-----0
 62
   253
370
    25
100
AcDbCircle
 10
758.632108
 20
185.460948
 30
0.0
 40
4.016360130100384
100
AcDbArc
 50
90.951212
 51
254.255463
  0
ARC
  5
E5
330
30
100
AcDbEntity
  8
LC-001-111-----0
 62
   253
370
    25
100
AcDbCircle
 10
758.032826
 20
185.671748
 30
0.0
 40
11.17727081470983
100
AcDbArc
 50
94.48185
 51
252.731329
  0
LINE
  5
E6
330
30
100
AcDbEntity
  8
LC-001-111-----0
 62
   253
370
    25
100
AcDbLine
 10
762.238334
 20
172.659511
 30
0.0
 11
754.714822
 21
174.998312
 31
0.0
  0
LINE
  5
E7
330
30
100
AcDbEntity
  8
LC-001-111-----0
 62
   253
370
    25
100
AcDbLine
 10
747.086073
 20
168.279997
 30
0.0
 11
747.086073
 21
159.524163
 31
0.0
  0
ARC
  5
E8
330
30
100
AcDbEntity
  8
LC-001-111-----0
 62
   253
370
    25
100
AcDbCircle
 10
758.903191
 20
174.567744
 30
0.0
 40
22.31533311668187
100
AcDbArc
 50
60.049399
 51
94.48185
  0
ARC
  5
E9
330
30
100
AcDbEntity
  8
LC-001-111-----0
 62
   253
370
    25
100
AcDbCircle
 10
760.81067
 20
180.45076
 30
0.0
 40
25.02572762426604
100
AcDbArc
 50
236.741348
 51
274.343327
  0
LINE
  5
EA
330
30
100
AcDbEntity
  8
LC-001-111-----0
 62
   253
370
    25
100
AcDbLine
 10
1080.255204
 20
176.159147
 30
0.0
 11
1096.09687
 21
195.169147
 31
0.0
  0
LINE
  5
EB
330
30
100
AcDbEntity
  8
LC-001-111-----0
 62
   253
370
    25
100
AcDbLine
 10
750.086073
 20
162.957321
 30
0.0
 11
750.086073
 21
161.212369
 31
0.0
  0
LINE
  5
EC
330
30
100
AcDbEntity
  8
LC-001-111-----0
 62
   253
370
    25
100
AcDbLine
 10
1078.302641
 20
176.159147
 30
0.0
 11
1092.894308
 21
193.669147
 31
0.0
  0
LINE
  5
ED
330
30
100
AcDbEntity
  8
LC-002-002-----0
 62
     1
370
    25
100
AcDbLine
 10
1139.355603
 20
170.827393
 30
0.0
 11
1139.355603
 21
181.490901
 31
0.0
  0
LINE
  5
EE
330
30
100
AcDbEntity
  8
LC-002-002-----0
 62
     1
370
    25
100
AcDbLine
 10
1139.355603
 20
181.490901
 30
0.0
 11
1134.023849
 21
176.159147
 31
0.0
  0
LINE
  5
EF
330
30
100
AcDbEntity
  8
LC-002-002-----0
 62
     1
370
    25
100
AcDbLine
 10
1134.023849
 20
176.159147
 30
0.0
 11
1139.355603
 21
170.827393
 31
0.0
  0
LINE
  5
F0
330
30
100
AcDbEntity
  8
LC-002-002-----0
 62
     1
370
    25
100
AcDbLine
 10
1137.855603
 20
174.448713
 30
0.0
 11
1137.855603
 21
177.869581
 31
0.0
  0
LINE
  5
F1
330
30
100
AcDbEntity
  8
LC-002-002-----0
 62
     1
370
    25
100
AcDbLine
 10
1137.855603
 20
177.869581
 30
0.0
 11
1136.145169
 21
176.159147
 31
0.0
  0
LINE
  5
F2
330
30
100
AcDbEntity
  8
LC-002-002-----0
 62
     1
370
    25
100
AcDbLine
 10
1136.145169
 20
176.159147
 30
0.0
 11
1137.855603
 21
174.448713
 31
0.0
  0
LINE
  5
F3
330
30
100
AcDbEntity
  8
LC-001-111-----0
 62
   253
370
    25
100
AcDbLine
 10
1092.894308
 20
193.669147
 30
0.0
 11
1089.22349
 21
193.669147
 31
0.0
  0
LINE
  5
F4
330
30
100
AcDbEntity
  8
LC-001-111-----0
 62
   253
370
    25
100
AcDbLine
 10
1089.22349
 20
193.669147
 30
0.0
 11
1074.631824
 21
176.159147
 31
0.0
  0
ARC
  5
F5
330
30
100
AcDbEntity
  8
LC-001-111-----0
 62
   253
370
    25
100
AcDbCircle
 10
1019.845603
 20
176.159147
 30
0.0
 40
15.38999999999992
100
AcDbArc
 50
76.816519
 51
283.183481
  0
LINE
  5
F6
330
30
100
AcDbEntity
  8
LC-001-111-----0
 62
   253
370
    25
100
AcDbLine
 10
1074.631824
 20
176.159147
 30
0.0
 11
1089.22349
 21
158.649147
 31
0.0
  0
LINE
  5
F7
330
30
100
AcDbEntity
  8
LC-001-111-----0
 62
   253
370
    25
100
AcDbLine
 10
1089.22349
 20
158.649147
 30
0.0
 11
1092.894308
 21
158.649147
 31
0.0
  0
LINE
  5
F8
330
30
100
AcDbEntity
  8
LC-001-111-----0
 62
   253
370
    25
100
AcDbLine
 10
1092.894308
 20
158.649147
 30
0.0
 11
1078.302641
 21
176.159147
 31
0.0
  0
LINE
  5
F9
330
30
100
AcDbEntity
  8
LC-001-111-----0
 62
   253
370
    25
100
AcDbLine
 10
1076.467232
 20
176.159147
 30
0.0
 11
1090.098623
 21
192.516815
 31
0.0
  0
LINE
  5
FA
330
30
100
AcDbEntity
  8
LC-001-111-----0
 62
   253
370
    25
100
AcDbLine
 10
1076.467232
 20
176.159147
 30
0.0
 11
1090.098623
 21
159.801479
 31
0.0
  0
ARC
  5
FB
330
30
100
AcDbEntity
  8
LC-001-111-----0
 62
   253
370
    25
100
AcDbCircle
 10
760.81067
 20
180.45076
 30
0.0
 40
22.02572762426587
100
AcDbArc
 50
240.862164
 51
274.343327
  0
ARC
  5
FC
330
30
100
AcDbEntity
  8
LC-001-111-----0
 62
   253
370
    25
100
AcDbCircle
 10
761.779647
 20
167.692822
 30
0.0
 40
9.231045254448425
100
AcDbArc
 50
274.343327
 51
74.255463
  0
LINE
  5
FD
330
30
100
AcDbEntity
  8
LC-001-111-----0
 62
   253
370
    25
100
AcDbLine
 10
764.284479
 20
176.577529
 30
0.0
 11
756.728228
 21
178.707834
 31
0.0
  0
ARC
  5
FE
330
30
100
AcDbEntity
  8
LC-001-111-----0
 62
   253
370
    25
100
AcDbCircle
 10
758.632108
 20
185.460948
 30
0.0
 40
7.016360130100396
100
AcDbArc
 50
90.951212
 51
254.255463
  0
ARC
  5
FF
330
30
100
AcDbEntity
  8
LC-001-111-----0
 62
   253
370
    25
100
AcDbCircle
 10
758.906662
 20
168.924866
 30
0.0
 40
23.55472179307856
100
AcDbArc
 50
69.789306
 51
90.951212
  0
LINE
  5
100
330
30
100
AcDbEntity
  8
LC-001-111-----0
 62
   253
370
    25
100
AcDbLine
 10
767.044191
 20
191.029289
 30
0.0
 11
767.044191
 21
192.083629
 31
0.0
  0
ENDBLK
  5
32
330
30
100
AcDbEntity
  8
0
100
AcDbBlockEnd
  0
BLOCK
  5
279
330
278
100
AcDbEntity
  8
0
100
AcDbBlockBegin
  2
LCDIM1
 70
     0
 71
     0
 10
0.0
 20
0.0
 30
0.0
  3
LCDIM1
  1

  4
LCDIM1
  0
LINE
  5
27C
330
278
100
AcDbEntity
  8
LC-006-003-MTH-0
 62
     7
370
    25
100
AcDbLine
 10
310.695249
 20
1596.52
 30
0.0
 11
310.695249
 21
1485.0
 31
0.0
  0
LINE
  5
27D
330
278
100
AcDbEntity
  8
LC-006-003-MTH-0
 62
     7
370
    25
100
AcDbLine
 10
1310.695249
 20
1596.52
 30
0.0
 11
1310.695249
 21
1485.0
 31
0.0
  0
LINE
  5
27F
330
278
100
AcDbEntity
  8
LC-007-003-MTG-0
 62
     7
370
    25
100
AcDbLine
 10
310.695249
 20
1500.0
 30
0.0
 11
1310.695249
 21
1500.0
 31
0.0
  0
LINE
  5
281
330
278
100
AcDbEntity
  8
LC-008-003-----0
 62
     7
370
    25
100
AcDbLine
 10
335.48137
 20
1503.263155
 30
0.0
 11
310.695249
 21
1500.0
 31
0.0
  0
LINE
  5
282
330
278
100
AcDbEntity
  8
LC-008-003-----0
 62
     7
370
    25
100
AcDbLine
 10
310.695249
 20
1500.0
 30
0.0
 11
335.48137
 21
1496.736845
 31
0.0
  0
LINE
  5
283
330
278
100
AcDbEntity
  8
LC-008-003-----0
 62
     7
370
    25
100
AcDbLine
 10
335.48137
 20
1496.736845
 30
0.0
 11
335.48137
 21
1503.263155
 31
0.0
  0
LINE
  5
284
330
278
100
AcDbEntity
  8
LC-008-003-----0
 62
     7
370
    25
100
AcDbLine
 10
335.536979
 20
1502.414735
 30
0.0
 11
317.195249
 21
1500.0
 31
0.0
  0
LINE
  5
285
330
278
100
AcDbEntity
  8
LC-008-003-----0
 62
     7
370
    25
100
AcDbLine
 10
317.195249
 20
1500.0
 30
0.0
 11
335.536979
 21
1497.585265
 31
0.0
  0
LINE
  5
286
330
278
100
AcDbEntity
  8
LC-008-003-----0
 62
     7
370
    25
100
AcDbLine
 10
335.592587
 20
1501.566314
 30
0.0
 11
323.695249
 21
1500.0
 31
0.0
  0
LINE
  5
287
330
278
100
AcDbEntity
  8
LC-008-003-----0
 62
     7
370
    25
100
AcDbLine
 10
323.695249
 20
1500.0
 30
0.0
 11
335.592587
 21
1498.433686
 31
0.0
  0
LINE
  5
288
330
278
100
AcDbEntity
  8
LC-008-003-----0
 62
     7
370
    25
100
AcDbLine
 10
335.648196
 20
1500.717894
 30
0.0
 11
330.195249
 21
1500.0
 31
0.0
  0
LINE
  5
289
330
278
100
AcDbEntity
  8
LC-008-003-----0
 62
     7
370
    25
100
AcDbLine
 10
330.195249
 20
1500.0
 30
0.0
 11
335.648196
 21
1499.282106
 31
0.0
  0
LINE
  5
28A
330
278
100
AcDbEntity
  8
LC-008-003-----0
 62
     7
370
    25
100
AcDbLine
 10
1285.909127
 20
1496.736845
 30
0.0
 11
1310.695249
 21
1500.0
 31
0.0
  0
LINE
  5
28B
330
278
100
AcDbEntity
  8
LC-008-003-----0
 62
     7
370
    25
100
AcDbLine
 10
1310.695249
 20
1500.0
 30
0.0
 11
1285.909127
 21
1503.263155
 31
0.0
  0
LINE
  5
28C
330
278
100
AcDbEntity
  8
LC-008-003-----0
 62
     7
370
    25
100
AcDbLine
 10
1285.909127
 20
1503.263155
 30
0.0
 11
1285.909127
 21
1496.736845
 31
0.0
  0
LINE
  5
28D
330
278
100
AcDbEntity
  8
LC-008-003-----0
 62
     7
370
    25
100
AcDbLine
 10
1285.853518
 20
1497.585265
 30
0.0
 11
1304.195248
 21
1500.0
 31
0.0
  0
LINE
  5
28E
330
278
100
AcDbEntity
  8
LC-008-003-----0
 62
     7
370
    25
100
AcDbLine
 10
1304.195248
 20
1500.0
 30
0.0
 11
1285.853518
 21
1502.414735
 31
0.0
  0
LINE
  5
28F
330
278
100
AcDbEntity
  8
LC-008-003-----0
 62
     7
370
    25
100
AcDbLine
 10
1285.79791
 20
1498.433686
 30
0.0
 11
1297.695248
 21
1500.0
 31
0.0
  0
LINE
  5
290
330
278
100
AcDbEntity
  8
LC-008-003-----0
 62
     7
370
    25
100
AcDbLine
 10
1297.695248
 20
1500.0
 30
0.0
 11
1285.79791
 21
1501.566314
 31
0.0
  0
LINE
  5
291
330
278
100
AcDbEntity
  8
LC-008-003-----0
 62
     7
370
    25
100
AcDbLine
 10
1285.742301
 20
1499.282106
 30
0.0
 11
1291.195248
 21
1500.0
 31
0.0
  0
LINE
  5
292
330
278
100
AcDbEntity
  8
LC-008-003-----0
 62
     7
370
    25
100
AcDbLine
 10
1291.195248
 20
1500.0
 30
0.0
 11
1285.742301
 21
1500.717894
 31
0.0
  0
TEXT
  5
293
330
278
100
AcDbEntity
  8
LC-008-003-----0
 62
     7
370
    25
100
AcDbText
 10
765.759103
 20
1515.0
 30
0.0
 40
25.0
  1
1000
 41
0.7
  7
LCTX0-400-0-0pDIN-Schrift
 72
     1
 11
800.342436
 21
1515.0
 31
0.0
100
AcDbText
  0
ENDBLK
  5
27A
330
278
100
AcDbEntity
  8
0
100
AcDbBlockEnd
  0
BLOCK
  5
296
330
295
100
AcDbEntity
  8
0
100
AcDbBlockBegin
  2
LCDIM2
 70
     0
 71
     0
 10
0.0
 20
0.0
 30
0.0
  3
LCDIM2
  1

  4
LCDIM2
  0
LINE
  5
298
330
295
100
AcDbEntity
  8
LC-006-003-MTH-0
 62
     7
370
    25
100
AcDbLine
 10
1293.695249
 20
1579.52
 30
0.0
 11
1415.0
 21
1579.52
 31
0.0
  0
LINE
  5
299
330
295
100
AcDbEntity
  8
LC-006-003-MTH-0
 62
     7
370
    25
100
AcDbLine
 10
1293.695249
 20
2079.52
 30
0.0
 11
1415.0
 21
2079.52
 31
0.0
  0
LINE
  5
29A
330
295
100
AcDbEntity
  8
LC-007-003-MTG-0
 62
     7
370
    25
100
AcDbLine
 10
1400.0
 20
1579.52
 30
0.0
 11
1400.0
 21
2079.52
 31
0.0
  0
LINE
  5
29B
330
295
100
AcDbEntity
  8
LC-008-003-----0
 62
     7
370
    25
100
AcDbLine
 10
1396.736845
 20
1604.306122
 30
0.0
 11
1400.0
 21
1579.52
 31
0.0
  0
LINE
  5
29C
330
295
100
AcDbEntity
  8
LC-008-003-----0
 62
     7
370
    25
100
AcDbLine
 10
1400.0
 20
1579.52
 30
0.0
 11
1403.263155
 21
1604.306122
 31
0.0
  0
LINE
  5
29D
330
295
100
AcDbEntity
  8
LC-008-003-----0
 62
     7
370
    25
100
AcDbLine
 10
1403.263155
 20
1604.306122
 30
0.0
 11
1396.736845
 21
1604.306122
 31
0.0
  0
LINE
  5
29E
330
295
100
AcDbEntity
  8
LC-008-003-----0
 62
     7
370
    25
100
AcDbLine
 10
1397.585265
 20
1604.36173
 30
0.0
 11
1400.0
 21
1586.02
 31
0.0
  0
LINE
  5
29F
330
295
100
AcDbEntity
  8
LC-008-003-----0
 62
     7
370
    25
100
AcDbLine
 10
1400.0
 20
1586.02
 30
0.0
 11
1402.414735
 21
1604.36173
 31
0.0
  0
LINE
  5
2A0
330
295
100
AcDbEntity
  8
LC-008-003-----0
 62
     7
370
    25
100
AcDbLine
 10
1398.433686
 20
1604.417339
 30
0.0
 11
1400.0
 21
1592.52
 31
0.0
  0
LINE
  5
2A1
330
295
100
AcDbEntity
  8
LC-008-003-----0
 62
     7
370
    25
100
AcDbLine
 10
1400.0
 20
1592.52
 30
0.0
 11
1401.566314
 21
1604.417339
 31
0.0
  0
LINE
  5
2A2
330
295
100
AcDbEntity
  8
LC-008-003-----0
 62
     7
370
    25
100
AcDbLine
 10
1399.282106
 20
1604.472947
 30
0.0
 11
1400.0
 21
1599.02
 31
0.0
  0
LINE
  5
2A3
330
295
100
AcDbEntity
  8
LC-008-003-----0
 62
     7
370
    25
100
AcDbLine
 10
1400.0
 20
1599.02
 30
0.0
 11
1400.717894
 21
1604.472947
 31
0.0
  0
LINE
  5
2A4
330
295
100
AcDbEntity
  8
LC-008-003-----0
 62
     7
370
    25
100
AcDbLine
 10
1403.263155
 20
2054.733878
 30
0.0
 11
1400.0
 21
2079.52
 31
0.0
  0
LINE
  5
2A5
330
295
100
AcDbEntity
  8
LC-008-003-----0
 62
     7
370
    25
100
AcDbLine
 10
1400.0
 20
2079.52
 30
0.0
 11
1396.736845
 21
2054.733878
 31
0.0
  0
LINE
  5
2A6
330
295
100
AcDbEntity
  8
LC-008-003-----0
 62
     7
370
    25
100
AcDbLine
 10
1396.736845
 20
2054.733878
 30
0.0
 11
1403.263155
 21
2054.733878
 31
0.0
  0
LINE
  5
2A7
330
295
100
AcDbEntity
  8
LC-008-003-----0
 62
     7
370
    25
100
AcDbLine
 10
1402.414735
 20
2054.67827
 30
0.0
 11
1400.0
 21
2073.02
 31
0.0
  0
LINE
  5
2A8
330
295
100
AcDbEntity
  8
LC-008-003-----0
 62
     7
370
    25
100
AcDbLine
 10
1400.0
 20
2073.02
 30
0.0
 11
1397.585265
 21
2054.67827
 31
0.0
  0
LINE
  5
2A9
330
295
100
AcDbEntity
  8
LC-008-003-----0
 62
     7
370
    25
100
AcDbLine
 10
1401.566314
 20
2054.622661
 30
0.0
 11
1400.0
 21
2066.52
 31
0.0
  0
LINE
  5
2AA
330
295
100
AcDbEntity
  8
LC-008-003-----0
 62
     7
370
    25
100
AcDbLine
 10
1400.0
 20
2066.52
 30
0.0
 11
1398.433686
 21
2054.622661
 31
0.0
  0
LINE
  5
2AB
330
295
100
AcDbEntity
  8
LC-008-003-----0
 62
     7
370
    25
100
AcDbLine
 10
1400.717894
 20
2054.567053
 30
0.0
 11
1400.0
 21
2060.02
 31
0.0
  0
LINE
  5
2AC
330
295
100
AcDbEntity
  8
LC-008-003-----0
 62
     7
370
    25
100
AcDbLine
 10
1400.0
 20
2060.02
 30
0.0
 11
1399.282106
 21
2054.567053
 31
0.0
  0
TEXT
  5
2AD
330
295
100
AcDbEntity
  8
LC-008-003-----0
 62
     7
370
    25
100
AcDbText
 10
1385.0
 20
1803.413948
 30
0.0
 40
25.0
  1
500
 50
90.0
 41
0.7
  7
LCTX0-400-0-0pDIN-Schrift
 72
     1
 11
1385.0
 21
1828.413948
 31
0.0
100
AcDbText
  0
ENDBLK
  5
297
330
295
100
AcDbEntity
  8
0
100
AcDbBlockEnd
  0
BLOCK
  5
2B0
330
2AF
100
AcDbEntity
  8
0
100
AcDbBlockBegin
  2
LCDIM3
 70
     0
 71
     0
 10
0.0
 20
0.0
 30
0.0
  3
LCDIM3
  1

  4
LCDIM3
  0
LINE
  5
2B2
330
2AF
100
AcDbEntity
  8
LC-006-003-MTH-0
 62
     7
370
    25
100
AcDbLine
 10
793.195249
 20
2660.03
 30
0.0
 11
793.195249
 21
2764.067357
 31
0.0
  0
LINE
  5
2B3
330
2AF
100
AcDbEntity
  8
LC-006-003-MTH-0
 62
     7
370
    25
100
AcDbLine
 10
1277.195249
 20
2670.03
 30
0.0
 11
1277.195249
 21
2764.067357
 31
0.0
  0
LINE
  5
2B4
330
2AF
100
AcDbEntity
  8
LC-007-003-MTG-0
 62
     7
370
    25
100
AcDbLine
 10
793.195249
 20
2749.067357
 30
0.0
 11
1277.195249
 21
2749.067357
 31
0.0
  0
LINE
  5
2B5
330
2AF
100
AcDbEntity
  8
LC-008-003-----0
 62
     7
370
    25
100
AcDbLine
 10
817.98137
 20
2752.330512
 30
0.0
 11
793.195249
 21
2749.067357
 31
0.0
  0
LINE
  5
2B6
330
2AF
100
AcDbEntity
  8
LC-008-003-----0
 62
     7
370
    25
100
AcDbLine
 10
793.195249
 20
2749.067357
 30
0.0
 11
817.98137
 21
2745.804202
 31
0.0
  0
LINE
  5
2B7
330
2AF
100
AcDbEntity
  8
LC-008-003-----0
 62
     7
370
    25
100
AcDbLine
 10
817.98137
 20
2745.804202
 30
0.0
 11
817.98137
 21
2752.330512
 31
0.0
  0
LINE
  5
2B8
330
2AF
100
AcDbEntity
  8
LC-008-003-----0
 62
     7
370
    25
100
AcDbLine
 10
818.036979
 20
2751.482091
 30
0.0
 11
799.695249
 21
2749.067357
 31
0.0
  0
LINE
  5
2B9
330
2AF
100
AcDbEntity
  8
LC-008-003-----0
 62
     7
370
    25
100
AcDbLine
 10
799.695249
 20
2749.067357
 30
0.0
 11
818.036979
 21
2746.652622
 31
0.0
  0
LINE
  5
2BA
330
2AF
100
AcDbEntity
  8
LC-008-003-----0
 62
     7
370
    25
100
AcDbLine
 10
818.092587
 20
2750.633671
 30
0.0
 11
806.195249
 21
2749.067357
 31
0.0
  0
LINE
  5
2BB
330
2AF
100
AcDbEntity
  8
LC-008-003-----0
 62
     7
370
    25
100
AcDbLine
 10
806.195249
 20
2749.067357
 30
0.0
 11
818.092587
 21
2747.501043
 31
0.0
  0
LINE
  5
2BC
330
2AF
100
AcDbEntity
  8
LC-008-003-----0
 62
     7
370
    25
100
AcDbLine
 10
818.148196
 20
2749.785251
 30
0.0
 11
812.695249
 21
2749.067357
 31
0.0
  0
LINE
  5
2BD
330
2AF
100
AcDbEntity
  8
LC-008-003-----0
 62
     7
370
    25
100
AcDbLine
 10
812.695249
 20
2749.067357
 30
0.0
 11
818.148196
 21
2748.349463
 31
0.0
  0
LINE
  5
2BE
330
2AF
100
AcDbEntity
  8
LC-008-003-----0
 62
     7
370
    25
100
AcDbLine
 10
1252.409127
 20
2745.804202
 30
0.0
 11
1277.195249
 21
2749.067357
 31
0.0
  0
LINE
  5
2BF
330
2AF
100
AcDbEntity
  8
LC-008-003-----0
 62
     7
370
    25
100
AcDbLine
 10
1277.195249
 20
2749.067357
 30
0.0
 11
1252.409127
 21
2752.330512
 31
0.0
  0
LINE
  5
2C0
330
2AF
100
AcDbEntity
  8
LC-008-003-----0
 62
     7
370
    25
100
AcDbLine
 10
1252.409127
 20
2752.330512
 30
0.0
 11
1252.409127
 21
2745.804202
 31
0.0
  0
LINE
  5
2C1
330
2AF
100
AcDbEntity
  8
LC-008-003-----0
 62
     7
370
    25
100
AcDbLine
 10
1252.353518
 20
2746.652622
 30
0.0
 11
1270.695248
 21
2749.067357
 31
0.0
  0
LINE
  5
2C2
330
2AF
100
AcDbEntity
  8
LC-008-003-----0
 62
     7
370
    25
100
AcDbLine
 10
1270.695248
 20
2749.067357
 30
0.0
 11
1252.353518
 21
2751.482091
 31
0.0
  0
LINE
  5
2C3
330
2AF
100
AcDbEntity
  8
LC-008-003-----0
 62
     7
370
    25
100
AcDbLine
 10
1252.29791
 20
2747.501043
 30
0.0
 11
1264.195248
 21
2749.067357
 31
0.0
  0
LINE
  5
2C4
330
2AF
100
AcDbEntity
  8
LC-008-003-----0
 62
     7
370
    25
100
AcDbLine
 10
1264.195248
 20
2749.067357
 30
0.0
 11
1252.29791
 21
2750.633671
 31
0.0
  0
LINE
  5
2C5
330
2AF
100
AcDbEntity
  8
LC-008-003-----0
 62
     7
370
    25
100
AcDbLine
 10
1252.242301
 20
2748.349463
 30
0.0
 11
1257.695248
 21
2749.067357
 31
0.0
  0
LINE
  5
2C6
330
2AF
100
AcDbEntity
  8
LC-008-003-----0
 62
     7
370
    25
100
AcDbLine
 10
1257.695248
 20
2749.067357
 30
0.0
 11
1252.242301
 21
2749.785251
 31
0.0
  0
TEXT
  5
2C7
330
2AF
100
AcDbEntity
  8
LC-008-003-----0
 62
     7
370
    25
100
AcDbText
 10
1002.282781
 20
2764.067357
 30
0.0
 40
25.0
  1
484
 41
0.7
  7
LCTX0-400-0-0pDIN-Schrift
 72
     1
 11
1027.699448
 21
2764.067357
 31
0.0
100
AcDbText
  0
ENDBLK
  5
2B1
330
2AF
100
AcDbEntity
  8
0
100
AcDbBlockEnd
  0
BLOCK
  5
2CC
330
2CB
100
AcDbEntity
  8
0
100
AcDbBlockBegin
  2
LCDIM4
 70
     0
 71
     0
 10
0.0
 20
0.0
 30
0.0
  3
LCDIM4
  1

  4
LCDIM4
  0
LINE
  5
2CE
330
2CB
100
AcDbEntity
  8
LC-006-003-MTH-0
 62
     7
370
    25
100
AcDbLine
 10
763.695249
 20
2041.52
 30
0.0
 11
690.5
 21
2041.52
 31
0.0
  0
LINE
  5
2CF
330
2CB
100
AcDbEntity
  8
LC-006-003-MTH-0
 62
     7
370
    25
100
AcDbLine
 10
781.195249
 20
2079.52
 30
0.0
 11
690.5
 21
2079.52
 31
0.0
  0
LINE
  5
2D0
330
2CB
100
AcDbEntity
  8
LC-008-003-----0
 62
     7
370
    25
100
AcDbLine
 10
708.763155
 20
2016.733878
 30
0.0
 11
705.5
 21
2041.52
 31
0.0
  0
LINE
  5
2D1
330
2CB
100
AcDbEntity
  8
LC-008-003-----0
 62
     7
370
    25
100
AcDbLine
 10
705.5
 20
2041.52
 30
0.0
 11
702.236845
 21
2016.733878
 31
0.0
  0
LINE
  5
2D2
330
2CB
100
AcDbEntity
  8
LC-008-003-----0
 62
     7
370
    25
100
AcDbLine
 10
702.236845
 20
2016.733878
 30
0.0
 11
708.763155
 21
2016.733878
 31
0.0
  0
LINE
  5
2D3
330
2CB
100
AcDbEntity
  8
LC-008-003-----0
 62
     7
370
    25
100
AcDbLine
 10
707.914735
 20
2016.67827
 30
0.0
 11
705.5
 21
2035.02
 31
0.0
  0
LINE
  5
2D4
330
2CB
100
AcDbEntity
  8
LC-008-003-----0
 62
     7
370
    25
100
AcDbLine
 10
705.5
 20
2035.02
 30
0.0
 11
703.085265
 21
2016.67827
 31
0.0
  0
LINE
  5
2D5
330
2CB
100
AcDbEntity
  8
LC-008-003-----0
 62
     7
370
    25
100
AcDbLine
 10
707.066314
 20
2016.622661
 30
0.0
 11
705.5
 21
2028.52
 31
0.0
  0
LINE
  5
2D6
330
2CB
100
AcDbEntity
  8
LC-008-003-----0
 62
     7
370
    25
100
AcDbLine
 10
705.5
 20
2028.52
 30
0.0
 11
703.933686
 21
2016.622661
 31
0.0
  0
LINE
  5
2D7
330
2CB
100
AcDbEntity
  8
LC-008-003-----0
 62
     7
370
    25
100
AcDbLine
 10
706.217894
 20
2016.567053
 30
0.0
 11
705.5
 21
2022.02
 31
0.0
  0
LINE
  5
2D8
330
2CB
100
AcDbEntity
  8
LC-008-003-----0
 62
     7
370
    25
100
AcDbLine
 10
705.5
 20
2022.02
 30
0.0
 11
704.782106
 21
2016.567053
 31
0.0
  0
LINE
  5
2D9
330
2CB
100
AcDbEntity
  8
LC-008-003-----0
 62
     7
370
    25
100
AcDbLine
 10
702.236845
 20
2104.306122
 30
0.0
 11
705.5
 21
2079.52
 31
0.0
  0
LINE
  5
2DA
330
2CB
100
AcDbEntity
  8
LC-008-003-----0
 62
     7
370
    25
100
AcDbLine
 10
705.5
 20
2079.52
 30
0.0
 11
708.763155
 21
2104.306122
 31
0.0
  0
LINE
  5
2DB
330
2CB
100
AcDbEntity
  8
LC-008-003-----0
 62
     7
370
    25
100
AcDbLine
 10
708.763155
 20
2104.306122
 30
0.0
 11
702.236845
 21
2104.306122
 31
0.0
  0
LINE
  5
2DC
330
2CB
100
AcDbEntity
  8
LC-008-003-----0
 62
     7
370
    25
100
AcDbLine
 10
703.085265
 20
2104.36173
 30
0.0
 11
705.5
 21
2086.02
 31
0.0
  0
LINE
  5
2DD
330
2CB
100
AcDbEntity
  8
LC-008-003-----0
 62
     7
370
    25
100
AcDbLine
 10
705.5
 20
2086.02
 30
0.0
 11
707.914735
 21
2104.36173
 31
0.0
  0
LINE
  5
2DE
330
2CB
100
AcDbEntity
  8
LC-008-003-----0
 62
     7
370
    25
100
AcDbLine
 10
703.933686
 20
2104.417339
 30
0.0
 11
705.5
 21
2092.52
 31
0.0
  0
LINE
  5
2DF
330
2CB
100
AcDbEntity
  8
LC-008-003-----0
 62
     7
370
    25
100
AcDbLine
 10
705.5
 20
2092.52
 30
0.0
 11
707.066314
 21
2104.417339
 31
0.0
  0
LINE
  5
2E0
330
2CB
100
AcDbEntity
  8
LC-008-003-----0
 62
     7
370
    25
100
AcDbLine
 10
704.782106
 20
2104.472947
 30
0.0
 11
705.5
 21
2099.02
 31
0.0
  0
LINE
  5
2E1
330
2CB
100
AcDbEntity
  8
LC-008-003-----0
 62
     7
370
    25
100
AcDbLine
 10
705.5
 20
2099.02
 30
0.0
 11
706.217894
 21
2104.472947
 31
0.0
  0
LINE
  5
2E2
330
2CB
100
AcDbEntity
  8
LC-007-003-MTG-0
 62
     7
370
    25
100
AcDbLine
 10
705.5
 20
2006.519999
 30
0.0
 11
705.5
 21
2146.131763
 31
0.0
  0
TEXT
  5
2E3
330
2CB
100
AcDbEntity
  8
LC-008-003-----0
 62
     7
370
    25
100
AcDbText
 10
690.5
 20
2129.238971
 30
0.0
 40
25.0
  1
38
 50
90.0
 41
0.7
  7
LCTX0-400-0-0pDIN-Schrift
100
AcDbText
  0
ENDBLK
  5
2CD
330
2CB
100
AcDbEntity
  8
0
100
AcDbBlockEnd
  0
BLOCK
  5
2E6
330
2E5
100
AcDbEntity
  8
0
100
AcDbBlockBegin
  2
LCDIM5
 70
     0
 71
     0
 10
0.0
 20
0.0
 30
0.0
  3
LCDIM5
  1

  4
LCDIM5
  0
LINE
  5
2E8
330
2E5
100
AcDbEntity
  8
LC-006-003-MTH-0
 62
     7
370
    25
100
AcDbLine
 10
907.195249
 20
2475.03
 30
0.0
 11
965.0
 21
2475.03
 31
0.0
  0
LINE
  5
2E9
330
2E5
100
AcDbEntity
  8
LC-006-003-MTH-0
 62
     7
370
    25
100
AcDbLine
 10
907.195249
 20
2670.03
 30
0.0
 11
965.0
 21
2670.03
 31
0.0
  0
LINE
  5
2EA
330
2E5
100
AcDbEntity
  8
LC-007-003-MTG-0
 62
     7
370
    25
100
AcDbLine
 10
950.0
 20
2475.03
 30
0.0
 11
950.0
 21
2670.03
 31
0.0
  0
LINE
  5
2EB
330
2E5
100
AcDbEntity
  8
LC-008-003-----0
 62
     7
370
    25
100
AcDbLine
 10
946.736845
 20
2499.816122
 30
0.0
 11
950.0
 21
2475.03
 31
0.0
  0
LINE
  5
2EC
330
2E5
100
AcDbEntity
  8
LC-008-003-----0
 62
     7
370
    25
100
AcDbLine
 10
950.0
 20
2475.03
 30
0.0
 11
953.263155
 21
2499.816122
 31
0.0
  0
LINE
  5
2ED
330
2E5
100
AcDbEntity
  8
LC-008-003-----0
 62
     7
370
    25
100
AcDbLine
 10
953.263155
 20
2499.816122
 30
0.0
 11
946.736845
 21
2499.816122
 31
0.0
  0
LINE
  5
2EE
330
2E5
100
AcDbEntity
  8
LC-008-003-----0
 62
     7
370
    25
100
AcDbLine
 10
947.585265
 20
2499.87173
 30
0.0
 11
950.0
 21
2481.53
 31
0.0
  0
LINE
  5
2EF
330
2E5
100
AcDbEntity
  8
LC-008-003-----0
 62
     7
370
    25
100
AcDbLine
 10
950.0
 20
2481.53
 30
0.0
 11
952.414735
 21
2499.87173
 31
0.0
  0
LINE
  5
2F0
330
2E5
100
AcDbEntity
  8
LC-008-003-----0
 62
     7
370
    25
100
AcDbLine
 10
948.433686
 20
2499.927339
 30
0.0
 11
950.0
 21
2488.03
 31
0.0
  0
LINE
  5
2F1
330
2E5
100
AcDbEntity
  8
LC-008-003-----0
 62
     7
370
    25
100
AcDbLine
 10
950.0
 20
2488.03
 30
0.0
 11
951.566314
 21
2499.927339
 31
0.0
  0
LINE
  5
2F2
330
2E5
100
AcDbEntity
  8
LC-008-003-----0
 62
     7
370
    25
100
AcDbLine
 10
949.282106
 20
2499.982947
 30
0.0
 11
950.0
 21
2494.53
 31
0.0
  0
LINE
  5
2F3
330
2E5
100
AcDbEntity
  8
LC-008-003-----0
 62
     7
370
    25
100
AcDbLine
 10
950.0
 20
2494.53
 30
0.0
 11
950.717894
 21
2499.982947
 31
0.0
  0
LINE
  5
2F4
330
2E5
100
AcDbEntity
  8
LC-008-003-----0
 62
     7
370
    25
100
AcDbLine
 10
953.263155
 20
2645.243878
 30
0.0
 11
950.0
 21
2670.03
 31
0.0
  0
LINE
  5
2F5
330
2E5
100
AcDbEntity
  8
LC-008-003-----0
 62
     7
370
    25
100
AcDbLine
 10
950.0
 20
2670.03
 30
0.0
 11
946.736845
 21
2645.243878
 31
0.0
  0
LINE
  5
2F6
330
2E5
100
AcDbEntity
  8
LC-008-003-----0
 62
     7
370
    25
100
AcDbLine
 10
946.736845
 20
2645.243878
 30
0.0
 11
953.263155
 21
2645.243878
 31
0.0
  0
LINE
  5
2F7
330
2E5
100
AcDbEntity
  8
LC-008-003-----0
 62
     7
370
    25
100
AcDbLine
 10
952.414735
 20
2645.18827
 30
0.0
 11
950.0
 21
2663.53
 31
0.0
  0
LINE
  5
2F8
330
2E5
100
AcDbEntity
  8
LC-008-003-----0
 62
     7
370
    25
100
AcDbLine
 10
950.0
 20
2663.53
 30
0.0
 11
947.585265
 21
2645.18827
 31
0.0
  0
LINE
  5
2F9
330
2E5
100
AcDbEntity
  8
LC-008-003-----0
 62
     7
370
    25
100
AcDbLine
 10
951.566314
 20
2645.132661
 30
0.0
 11
950.0
 21
2657.03
 31
0.0
  0
LINE
  5
2FA
330
2E5
100
AcDbEntity
  8
LC-008-003-----0
 62
     7
370
    25
100
AcDbLine
 10
950.0
 20
2657.03
 30
0.0
 11
948.433686
 21
2645.132661
 31
0.0
  0
LINE
  5
2FB
330
2E5
100
AcDbEntity
  8
LC-008-003-----0
 62
     7
370
    25
100
AcDbLine
 10
950.717894
 20
2645.077053
 30
0.0
 11
950.0
 21
2650.53
 31
0.0
  0
LINE
  5
2FC
330
2E5
100
AcDbEntity
  8
LC-008-003-----0
 62
     7
370
    25
100
AcDbLine
 10
950.0
 20
2650.53
 30
0.0
 11
949.282106
 21
2645.077053
 31
0.0
  0
TEXT
  5
2FD
330
2E5
100
AcDbEntity
  8
LC-008-003-----0
 62
     7
370
    25
100
AcDbText
 10
935.0
 20
2558.370981
 30
0.0
 40
25.0
  1
195
 50
90.0
 41
0.7
  7
LCTX0-400-0-0pDIN-Schrift
 72
     1
 11
935.0
 21
2584.620981
 31
0.0
100
AcDbText
  0
ENDBLK
  5
2E7
330
2E5
100
AcDbEntity
  8
0
100
AcDbBlockEnd
  0
BLOCK
  5
303
330
302
100
AcDbEntity
  8
0
100
AcDbBlockBegin
  2
LCDIM6
 70
     0
 71
     0
 10
0.0
 20
0.0
 30
0.0
  3
LCDIM6
  1

  4
LCDIM6
  0
LINE
  5
305
330
302
100
AcDbEntity
  8
LC-006-003-MTH-0
 62
     7
370
    25
100
AcDbLine
 10
700.695249
 20
2523.24955
 30
0.0
 11
700.695249
 21
2335.0
 31
0.0
  0
LINE
  5
306
330
302
100
AcDbEntity
  8
LC-006-003-MTH-0
 62
     7
370
    25
100
AcDbLine
 10
1300.695249
 20
2523.24955
 30
0.0
 11
1300.695249
 21
2335.0
 31
0.0
  0
LINE
  5
307
330
302
100
AcDbEntity
  8
LC-007-003-MTG-0
 62
     7
370
    25
100
AcDbLine
 10
700.695249
 20
2350.0
 30
0.0
 11
1300.695249
 21
2350.0
 31
0.0
  0
LINE
  5
308
330
302
100
AcDbEntity
  8
LC-008-003-----0
 62
     7
370
    25
100
AcDbLine
 10
725.48137
 20
2353.263155
 30
0.0
 11
700.695249
 21
2350.0
 31
0.0
  0
LINE
  5
309
330
302
100
AcDbEntity
  8
LC-008-003-----0
 62
     7
370
    25
100
AcDbLine
 10
700.695249
 20
2350.0
 30
0.0
 11
725.48137
 21
2346.736845
 31
0.0
  0
LINE
  5
30A
330
302
100
AcDbEntity
  8
LC-008-003-----0
 62
     7
370
    25
100
AcDbLine
 10
725.48137
 20
2346.736845
 30
0.0
 11
725.48137
 21
2353.263155
 31
0.0
  0
LINE
  5
30B
330
302
100
AcDbEntity
  8
LC-008-003-----0
 62
     7
370
    25
100
AcDbLine
 10
725.536979
 20
2352.414735
 30
0.0
 11
707.195249
 21
2350.0
 31
0.0
  0
LINE
  5
30C
330
302
100
AcDbEntity
  8
LC-008-003-----0
 62
     7
370
    25
100
AcDbLine
 10
707.195249
 20
2350.0
 30
0.0
 11
725.536979
 21
2347.585265
 31
0.0
  0
LINE
  5
30D
330
302
100
AcDbEntity
  8
LC-008-003-----0
 62
     7
370
    25
100
AcDbLine
 10
725.592587
 20
2351.566314
 30
0.0
 11
713.695249
 21
2350.0
 31
0.0
  0
LINE
  5
30E
330
302
100
AcDbEntity
  8
LC-008-003-----0
 62
     7
370
    25
100
AcDbLine
 10
713.695249
 20
2350.0
 30
0.0
 11
725.592587
 21
2348.433686
 31
0.0
  0
LINE
  5
30F
330
302
100
AcDbEntity
  8
LC-008-003-----0
 62
     7
370
    25
100
AcDbLine
 10
725.648196
 20
2350.717894
 30
0.0
 11
720.195249
 21
2350.0
 31
0.0
  0
LINE
  5
310
330
302
100
AcDbEntity
  8
LC-008-003-----0
 62
     7
370
    25
100
AcDbLine
 10
720.195249
 20
2350.0
 30
0.0
 11
725.648196
 21
2349.282106
 31
0.0
  0
LINE
  5
311
330
302
100
AcDbEntity
  8
LC-008-003-----0
 62
     7
370
    25
100
AcDbLine
 10
1275.909127
 20
2346.736845
 30
0.0
 11
1300.695249
 21
2350.0
 31
0.0
  0
LINE
  5
312
330
302
100
AcDbEntity
  8
LC-008-003-----0
 62
     7
370
    25
100
AcDbLine
 10
1300.695249
 20
2350.0
 30
0.0
 11
1275.909127
 21
2353.263155
 31
0.0
  0
LINE
  5
313
330
302
100
AcDbEntity
  8
LC-008-003-----0
 62
     7
370
    25
100
AcDbLine
 10
1275.909127
 20
2353.263155
 30
0.0
 11
1275.909127
 21
2346.736845
 31
0.0
  0
LINE
  5
314
330
302
100
AcDbEntity
  8
LC-008-003-----0
 62
     7
370
    25
100
AcDbLine
 10
1275.853518
 20
2347.585265
 30
0.0
 11
1294.195248
 21
2350.0
 31
0.0
  0
LINE
  5
315
330
302
100
AcDbEntity
  8
LC-008-003-----0
 62
     7
370
    25
100
AcDbLine
 10
1294.195248
 20
2350.0
 30
0.0
 11
1275.853518
 21
2352.414735
 31
0.0
  0
LINE
  5
316
330
302
100
AcDbEntity
  8
LC-008-003-----0
 62
     7
370
    25
100
AcDbLine
 10
1275.79791
 20
2348.433686
 30
0.0
 11
1287.695248
 21
2350.0
 31
0.0
  0
LINE
  5
317
330
302
100
AcDbEntity
  8
LC-008-003-----0
 62
     7
370
    25
100
AcDbLine
 10
1287.695248
 20
2350.0
 30
0.0
 11
1275.79791
 21
2351.566314
 31
0.0
  0
LINE
  5
318
330
302
100
AcDbEntity
  8
LC-008-003-----0
 62
     7
370
    25
100
AcDbLine
 10
1275.742301
 20
2349.282106
 30
0.0
 11
1281.195248
 21
2350.0
 31
0.0
  0
LINE
  5
319
330
302
100
AcDbEntity
  8
LC-008-003-----0
 62
     7
370
    25
100
AcDbLine
 10
1281.195248
 20
2350.0
 30
0.0
 11
1275.742301
 21
2350.717894
 31
0.0
  0
TEXT
  5
31A
330
302
100
AcDbEntity
  8
LC-008-003-----0
 62
     7
370
    25
100
AcDbText
 10
983.051506
 20
2365.0
 30
0.0
 40
25.0
  1
600
 41
0.7
  7
LCTX0-400-0-0pDIN-Schrift
 72
     1
 11
1008.468173
 21
2365.0
 31
0.0
100
AcDbText
  0
ENDBLK
  5
304
330
302
100
AcDbEntity
  8
0
100
AcDbBlockEnd
  0
BLOCK
  5
31D
330
31C
100
AcDbEntity
  8
0
100
AcDbBlockBegin
  2
*X18
 70
     1
 71
     0
 10
0.0
 20
0.0
 30
0.0
  3
*X18
  1

  4
*X1
  0
LINE
  5
320
330
31C
100
AcDbEntity
  8
LC-009-005-----0
 62
     7
370
    25
100
AcDbLine
 10
1352.237794
 20
2625.03
 30
0.0
 11
1362.648076
 21
2635.440283
 31
0.0
  0
LINE
  5
321
330
31C
100
AcDbEntity
  8
LC-009-005-----0
 62
     7
370
    25
100
AcDbLine
 10
1323.953523
 20
2625.03
 30
0.0
 11
1359.908906
 21
2660.985384
 31
0.0
  0
LINE
  5
322
330
31C
100
AcDbEntity
  8
LC-009-005-----0
 62
     7
370
    25
100
AcDbLine
 10
1300.695249
 20
2630.055997
 30
0.0
 11
1333.669251
 21
2663.03
 31
0.0
  0
LINE
  5
323
330
31C
100
AcDbEntity
  8
LC-009-005-----0
 62
     7
370
    25
100
AcDbLine
 10
1300.695249
 20
2658.340268
 30
0.0
 11
1305.38498
 21
2663.03
 31
0.0
  0
ENDBLK
  5
31E
330
31C
100
AcDbEntity
  8
0
100
AcDbBlockEnd
  0
BLOCK
  5
326
330
325
100
AcDbEntity
  8
0
100
AcDbBlockBegin
  2
*X29
 70
     1
 71
     0
 10
0.0
 20
0.0
 30
0.0
  3
*X29
  1

  4
*X2
  0
LINE
  5
328
330
325
100
AcDbEntity
  8
LC-009-005-----0
 62
     7
370
    25
100
AcDbLine
 10
305.719758
 20
2625.03
 30
0.0
 11
320.695249
 21
2640.005491
 31
0.0
  0
LINE
  5
329
330
325
100
AcDbEntity
  8
LC-009-005-----0
 62
     7
370
    25
100
AcDbLine
 10
277.435486
 20
2625.03
 30
0.0
 11
315.435486
 21
2663.03
 31
0.0
  0
LINE
  5
32A
330
325
100
AcDbEntity
  8
LC-009-005-----0
 62
     7
370
    25
100
AcDbLine
 10
249.151215
 20
2625.03
 30
0.0
 11
287.151215
 21
2663.03
 31
0.0
  0
LINE
  5
32B
330
325
100
AcDbEntity
  8
LC-009-005-----0
 62
     7
370
    25
100
AcDbLine
 10
229.355622
 20
2633.518678
 30
0.0
 11
258.866944
 21
2663.03
 31
0.0
  0
ENDBLK
  5
327
330
325
100
AcDbEntity
  8
0
100
AcDbBlockEnd
  0
BLOCK
  5
32E
330
32D
100
AcDbEntity
  8
0
100
AcDbBlockBegin
  2
*X310
 70
     1
 71
     0
 10
0.0
 20
0.0
 30
0.0
  3
*X310
  1

  4
*X3
  0
LINE
  5
330
330
32D
100
AcDbEntity
  8
LC-009-005-----0
 62
     7
370
    25
100
AcDbLine
 10
700.695249
 20
2523.711674
 30
0.0
 11
701.157372
 21
2523.24955
 31
0.0
  0
LINE
  5
331
330
32D
100
AcDbEntity
  8
LC-009-005-----0
 62
     7
370
    25
100
AcDbLine
 10
700.695249
 20
2551.995945
 30
0.0
 11
719.695249
 21
2532.995945
 31
0.0
  0
LINE
  5
332
330
32D
100
AcDbEntity
  8
LC-009-005-----0
 62
     7
370
    25
100
AcDbLine
 10
700.695249
 20
2580.280216
 30
0.0
 11
719.695249
 21
2561.280216
 31
0.0
  0
LINE
  5
333
330
32D
100
AcDbEntity
  8
LC-009-005-----0
 62
     7
370
    25
100
AcDbLine
 10
700.695249
 20
2608.564487
 30
0.0
 11
719.695249
 21
2589.564487
 31
0.0
  0
LINE
  5
334
330
32D
100
AcDbEntity
  8
LC-009-005-----0
 62
     7
370
    25
100
AcDbLine
 10
712.514007
 20
2625.03
 30
0.0
 11
719.695249
 21
2617.848759
 31
0.0
  0
LINE
  5
335
330
32D
100
AcDbEntity
  8
LC-009-005-----0
 62
     7
370
    25
100
AcDbLine
 10
1281.695249
 20
2536.68137
 30
0.0
 11
1295.127068
 21
2523.24955
 31
0.0
  0
LINE
  5
336
330
32D
100
AcDbEntity
  8
LC-009-005-----0
 62
     7
370
    25
100
AcDbLine
 10
1281.695249
 20
2564.965641
 30
0.0
 11
1300.695249
 21
2545.965641
 31
0.0
  0
LINE
  5
337
330
32D
100
AcDbEntity
  8
LC-009-005-----0
 62
     7
370
    25
100
AcDbLine
 10
1281.695249
 20
2593.249912
 30
0.0
 11
1300.695249
 21
2574.249912
 31
0.0
  0
LINE
  5
338
330
32D
100
AcDbEntity
  8
LC-009-005-----0
 62
     7
370
    25
100
AcDbLine
 10
1281.695249
 20
2621.534184
 30
0.0
 11
1300.695249
 21
2602.534184
 31
0.0
  0
ENDBLK
  5
32F
330
32D
100
AcDbEntity
  8
0
100
AcDbBlockEnd
  0
BLOCK
  5
341
330
340
100
AcDbEntity
  8
0
100
AcDbBlockBegin
  2
LCDIM7
 70
     0
 71
     0
 10
0.0
 20
0.0
 30
0.0
  3
LCDIM7
  1

  4
LCDIM7
  0
LINE
  5
343
330
340
100
AcDbEntity
  8
LC-006-003-MTH-0
 62
     7
370
    25
100
AcDbLine
 10
1852.637896
 20
1607.98038
 30
0.0
 11
1941.716392
 21
1607.98038
 31
0.0
  0
LINE
  5
344
330
340
100
AcDbEntity
  8
LC-006-003-MTH-0
 62
     7
370
    25
100
AcDbLine
 10
1852.637896
 20
2051.05962
 30
0.0
 11
1941.716392
 21
2051.05962
 31
0.0
  0
LINE
  5
345
330
340
100
AcDbEntity
  8
LC-007-003-MTG-0
 62
     7
370
    25
100
AcDbLine
 10
1926.716391
 20
1607.98038
 30
0.0
 11
1926.716391
 21
2051.05962
 31
0.0
  0
LINE
  5
346
330
340
100
AcDbEntity
  8
LC-008-003-----0
 62
     7
370
    25
100
AcDbLine
 10
1923.453237
 20
1632.766502
 30
0.0
 11
1926.716391
 21
1607.98038
 31
0.0
  0
LINE
  5
347
330
340
100
AcDbEntity
  8
LC-008-003-----0
 62
     7
370
    25
100
AcDbLine
 10
1926.716391
 20
1607.98038
 30
0.0
 11
1929.979546
 21
1632.766502
 31
0.0
  0
LINE
  5
348
330
340
100
AcDbEntity
  8
LC-008-003-----0
 62
     7
370
    25
100
AcDbLine
 10
1929.979546
 20
1632.766502
 30
0.0
 11
1923.453237
 21
1632.766502
 31
0.0
  0
LINE
  5
349
330
340
100
AcDbEntity
  8
LC-008-003-----0
 62
     7
370
    25
100
AcDbLine
 10
1924.301657
 20
1632.82211
 30
0.0
 11
1926.716391
 21
1614.48038
 31
0.0
  0
LINE
  5
34A
330
340
100
AcDbEntity
  8
LC-008-003-----0
 62
     7
370
    25
100
AcDbLine
 10
1926.716391
 20
1614.48038
 30
0.0
 11
1929.131126
 21
1632.82211
 31
0.0
  0
LINE
  5
34B
330
340
100
AcDbEntity
  8
LC-008-003-----0
 62
     7
370
    25
100
AcDbLine
 10
1925.150077
 20
1632.877718
 30
0.0
 11
1926.716391
 21
1620.98038
 31
0.0
  0
LINE
  5
34C
330
340
100
AcDbEntity
  8
LC-008-003-----0
 62
     7
370
    25
100
AcDbLine
 10
1926.716391
 20
1620.98038
 30
0.0
 11
1928.282706
 21
1632.877718
 31
0.0
  0
LINE
  5
34D
330
340
100
AcDbEntity
  8
LC-008-003-----0
 62
     7
370
    25
100
AcDbLine
 10
1925.998497
 20
1632.933327
 30
0.0
 11
1926.716391
 21
1627.48038
 31
0.0
  0
LINE
  5
34E
330
340
100
AcDbEntity
  8
LC-008-003-----0
 62
     7
370
    25
100
AcDbLine
 10
1926.716391
 20
1627.48038
 30
0.0
 11
1927.434286
 21
1632.933327
 31
0.0
  0
LINE
  5
34F
330
340
100
AcDbEntity
  8
LC-008-003-----0
 62
     7
370
    25
100
AcDbLine
 10
1929.979546
 20
2026.273498
 30
0.0
 11
1926.716391
 21
2051.05962
 31
0.0
  0
LINE
  5
350
330
340
100
AcDbEntity
  8
LC-008-003-----0
 62
     7
370
    25
100
AcDbLine
 10
1926.716391
 20
2051.05962
 30
0.0
 11
1923.453237
 21
2026.273498
 31
0.0
  0
LINE
  5
351
330
340
100
AcDbEntity
  8
LC-008-003-----0
 62
     7
370
    25
100
AcDbLine
 10
1923.453237
 20
2026.273498
 30
0.0
 11
1929.979546
 21
2026.273498
 31
0.0
  0
LINE
  5
352
330
340
100
AcDbEntity
  8
LC-008-003-----0
 62
     7
370
    25
100
AcDbLine
 10
1929.131126
 20
2026.21789
 30
0.0
 11
1926.716391
 21
2044.55962
 31
0.0
  0
LINE
  5
353
330
340
100
AcDbEntity
  8
LC-008-003-----0
 62
     7
370
    25
100
AcDbLine
 10
1926.716391
 20
2044.55962
 30
0.0
 11
1924.301657
 21
2026.21789
 31
0.0
  0
LINE
  5
354
330
340
100
AcDbEntity
  8
LC-008-003-----0
 62
     7
370
    25
100
AcDbLine
 10
1928.282706
 20
2026.162282
 30
0.0
 11
1926.716391
 21
2038.05962
 31
0.0
  0
LINE
  5
355
330
340
100
AcDbEntity
  8
LC-008-003-----0
 62
     7
370
    25
100
AcDbLine
 10
1926.716391
 20
2038.05962
 30
0.0
 11
1925.150077
 21
2026.162282
 31
0.0
  0
LINE
  5
356
330
340
100
AcDbEntity
  8
LC-008-003-----0
 62
     7
370
    25
100
AcDbLine
 10
1927.434286
 20
2026.106673
 30
0.0
 11
1926.716391
 21
2031.55962
 31
0.0
  0
LINE
  5
357
330
340
100
AcDbEntity
  8
LC-008-003-----0
 62
     7
370
    25
100
AcDbLine
 10
1926.716391
 20
2031.55962
 30
0.0
 11
1925.998497
 21
2026.106673
 31
0.0
  0
TEXT
  5
358
330
340
100
AcDbEntity
  8
LC-008-003-----0
 62
     7
370
    25
100
AcDbText
 10
1911.716391
 20
1809.053819
 30
0.0
 40
25.0
  1
443
 50
90.0
 41
0.7
  7
LCTX0-400-0-0pDIN-Schrift
 72
     1
 11
1911.716391
 21
1834.053819
 31
0.0
100
AcDbText
  0
ENDBLK
  5
342
330
340
100
AcDbEntity
  8
0
100
AcDbBlockEnd
  0
BLOCK
  5
364
330
363
100
AcDbEntity
  8
0
100
AcDbBlockBegin
  2
LCDIM8
 70
     0
 71
     0
 10
0.0
 20
0.0
 30
0.0
  3
LCDIM8
  1

  4
LCDIM8
  0
LINE
  5
366
330
363
100
AcDbEntity
  8
LC-006-003-MTH-0
 62
     7
370
    25
100
AcDbLine
 10
823.498057
 20
762.041654
 30
0.0
 11
915.0
 21
762.041654
 31
0.0
  0
LINE
  5
367
330
363
100
AcDbEntity
  8
LC-006-003-MTH-0
 62
     7
370
    25
100
AcDbLine
 10
823.498057
 20
1002.041654
 30
0.0
 11
915.0
 21
1002.041654
 31
0.0
  0
LINE
  5
368
330
363
100
AcDbEntity
  8
LC-007-003-MTG-0
 62
     7
370
    25
100
AcDbLine
 10
900.0
 20
762.041654
 30
0.0
 11
900.0
 21
1002.041654
 31
0.0
  0
LINE
  5
369
330
363
100
AcDbEntity
  8
LC-008-003-----0
 62
     7
370
    25
100
AcDbLine
 10
896.736845
 20
786.827776
 30
0.0
 11
900.0
 21
762.041654
 31
0.0
  0
LINE
  5
36A
330
363
100
AcDbEntity
  8
LC-008-003-----0
 62
     7
370
    25
100
AcDbLine
 10
900.0
 20
762.041654
 30
0.0
 11
903.263155
 21
786.827776
 31
0.0
  0
LINE
  5
36B
330
363
100
AcDbEntity
  8
LC-008-003-----0
 62
     7
370
    25
100
AcDbLine
 10
903.263155
 20
786.827776
 30
0.0
 11
896.736845
 21
786.827776
 31
0.0
  0
LINE
  5
36C
330
363
100
AcDbEntity
  8
LC-008-003-----0
 62
     7
370
    25
100
AcDbLine
 10
897.585265
 20
786.883384
 30
0.0
 11
900.0
 21
768.541654
 31
0.0
  0
LINE
  5
36D
330
363
100
AcDbEntity
  8
LC-008-003-----0
 62
     7
370
    25
100
AcDbLine
 10
900.0
 20
768.541654
 30
0.0
 11
902.414735
 21
786.883384
 31
0.0
  0
LINE
  5
36E
330
363
100
AcDbEntity
  8
LC-008-003-----0
 62
     7
370
    25
100
AcDbLine
 10
898.433686
 20
786.938992
 30
0.0
 11
900.0
 21
775.041654
 31
0.0
  0
LINE
  5
36F
330
363
100
AcDbEntity
  8
LC-008-003-----0
 62
     7
370
    25
100
AcDbLine
 10
900.0
 20
775.041654
 30
0.0
 11
901.566314
 21
786.938992
 31
0.0
  0
LINE
  5
370
330
363
100
AcDbEntity
  8
LC-008-003-----0
 62
     7
370
    25
100
AcDbLine
 10
899.282106
 20
786.994601
 30
0.0
 11
900.0
 21
781.541654
 31
0.0
  0
LINE
  5
371
330
363
100
AcDbEntity
  8
LC-008-003-----0
 62
     7
370
    25
100
AcDbLine
 10
900.0
 20
781.541654
 30
0.0
 11
900.717894
 21
786.994601
 31
0.0
  0
LINE
  5
372
330
363
100
AcDbEntity
  8
LC-008-003-----0
 62
     7
370
    25
100
AcDbLine
 10
903.263155
 20
977.255532
 30
0.0
 11
900.0
 21
1002.041654
 31
0.0
  0
LINE
  5
373
330
363
100
AcDbEntity
  8
LC-008-003-----0
 62
     7
370
    25
100
AcDbLine
 10
900.0
 20
1002.041654
 30
0.0
 11
896.736845
 21
977.255532
 31
0.0
  0
LINE
  5
374
330
363
100
AcDbEntity
  8
LC-008-003-----0
 62
     7
370
    25
100
AcDbLine
 10
896.736845
 20
977.255532
 30
0.0
 11
903.263155
 21
977.255532
 31
0.0
  0
LINE
  5
375
330
363
100
AcDbEntity
  8
LC-008-003-----0
 62
     7
370
    25
100
AcDbLine
 10
902.414735
 20
977.199923
 30
0.0
 11
900.0
 21
995.541654
 31
0.0
  0
LINE
  5
376
330
363
100
AcDbEntity
  8
LC-008-003-----0
 62
     7
370
    25
100
AcDbLine
 10
900.0
 20
995.541654
 30
0.0
 11
897.585265
 21
977.199923
 31
0.0
  0
LINE
  5
377
330
363
100
AcDbEntity
  8
LC-008-003-----0
 62
     7
370
    25
100
AcDbLine
 10
901.566314
 20
977.144315
 30
0.0
 11
900.0
 21
989.041653
 31
0.0
  0
LINE
  5
378
330
363
100
AcDbEntity
  8
LC-008-003-----0
 62
     7
370
    25
100
AcDbLine
 10
900.0
 20
989.041653
 30
0.0
 11
898.433686
 21
977.144315
 31
0.0
  0
LINE
  5
379
330
363
100
AcDbEntity
  8
LC-008-003-----0
 62
     7
370
    25
100
AcDbLine
 10
900.717894
 20
977.088707
 30
0.0
 11
900.0
 21
982.541653
 31
0.0
  0
LINE
  5
37A
330
363
100
AcDbEntity
  8
LC-008-003-----0
 62
     7
370
    25
100
AcDbLine
 10
900.0
 20
982.541653
 30
0.0
 11
899.282106
 21
977.088707
 31
0.0
  0
TEXT
  5
37B
330
363
100
AcDbEntity
  8
LC-008-003-----0
 62
     7
370
    25
100
AcDbText
 10
885.0
 20
850.905624
 30
0.0
 40
25.0
  1
480
 50
90.0
 41
0.7
  7
LCTX0-400-0-0pDIN-Schrift
 72
     1
 11
885.0
 21
875.905624
 31
0.0
100
AcDbText
  0
ENDBLK
  5
365
330
363
100
AcDbEntity
  8
0
100
AcDbBlockEnd
  0
BLOCK
  5
37E
330
37D
100
AcDbEntity
  8
0
100
AcDbBlockBegin
  2
LCDIM9
 70
     0
 71
     0
 10
0.0
 20
0.0
 30
0.0
  3
LCDIM9
  1

  4
LCDIM9
  0
LINE
  5
380
330
37D
100
AcDbEntity
  8
LC-006-003-MTH-0
 62
     7
370
    25
100
AcDbLine
 10
338.498057
 20
767.041654
 30
0.0
 11
338.498057
 21
685.0
 31
0.0
  0
LINE
  5
381
330
37D
100
AcDbEntity
  8
LC-006-003-MTH-0
 62
     7
370
    25
100
AcDbLine
 10
828.498057
 20
767.041654
 30
0.0
 11
828.498057
 21
685.0
 31
0.0
  0
LINE
  5
382
330
37D
100
AcDbEntity
  8
LC-007-003-MTG-0
 62
     7
370
    25
100
AcDbLine
 10
338.498057
 20
700.0
 30
0.0
 11
828.498057
 21
700.0
 31
0.0
  0
LINE
  5
383
330
37D
100
AcDbEntity
  8
LC-008-003-----0
 62
     7
370
    25
100
AcDbLine
 10
363.284179
 20
703.263155
 30
0.0
 11
338.498057
 21
700.0
 31
0.0
  0
LINE
  5
384
330
37D
100
AcDbEntity
  8
LC-008-003-----0
 62
     7
370
    25
100
AcDbLine
 10
338.498057
 20
700.0
 30
0.0
 11
363.284179
 21
696.736845
 31
0.0
  0
LINE
  5
385
330
37D
100
AcDbEntity
  8
LC-008-003-----0
 62
     7
370
    25
100
AcDbLine
 10
363.284179
 20
696.736845
 30
0.0
 11
363.284179
 21
703.263155
 31
0.0
  0
LINE
  5
386
330
37D
100
AcDbEntity
  8
LC-008-003-----0
 62
     7
370
    25
100
AcDbLine
 10
363.339787
 20
702.414735
 30
0.0
 11
344.998057
 21
700.0
 31
0.0
  0
LINE
  5
387
330
37D
100
AcDbEntity
  8
LC-008-003-----0
 62
     7
370
    25
100
AcDbLine
 10
344.998057
 20
700.0
 30
0.0
 11
363.339787
 21
697.585265
 31
0.0
  0
LINE
  5
388
330
37D
100
AcDbEntity
  8
LC-008-003-----0
 62
     7
370
    25
100
AcDbLine
 10
363.395396
 20
701.566314
 30
0.0
 11
351.498057
 21
700.0
 31
0.0
  0
LINE
  5
389
330
37D
100
AcDbEntity
  8
LC-008-003-----0
 62
     7
370
    25
100
AcDbLine
 10
351.498057
 20
700.0
 30
0.0
 11
363.395396
 21
698.433686
 31
0.0
  0
LINE
  5
38A
330
37D
100
AcDbEntity
  8
LC-008-003-----0
 62
     7
370
    25
100
AcDbLine
 10
363.451004
 20
700.717894
 30
0.0
 11
357.998057
 21
700.0
 31
0.0
  0
LINE
  5
38B
330
37D
100
AcDbEntity
  8
LC-008-003-----0
 62
     7
370
    25
100
AcDbLine
 10
357.998057
 20
700.0
 30
0.0
 11
363.451004
 21
699.282106
 31
0.0
  0
LINE
  5
38C
330
37D
100
AcDbEntity
  8
LC-008-003-----0
 62
     7
370
    25
100
AcDbLine
 10
803.711935
 20
696.736845
 30
0.0
 11
828.498057
 21
700.0
 31
0.0
  0
LINE
  5
38D
330
37D
100
AcDbEntity
  8
LC-008-003-----0
 62
     7
370
    25
100
AcDbLine
 10
828.498057
 20
700.0
 30
0.0
 11
803.711935
 21
703.263155
 31
0.0
  0
LINE
  5
38E
330
37D
100
AcDbEntity
  8
LC-008-003-----0
 62
     7
370
    25
100
AcDbLine
 10
803.711935
 20
703.263155
 30
0.0
 11
803.711935
 21
696.736845
 31
0.0
  0
LINE
  5
38F
330
37D
100
AcDbEntity
  8
LC-008-003-----0
 62
     7
370
    25
100
AcDbLine
 10
803.656327
 20
697.585265
 30
0.0
 11
821.998057
 21
700.0
 31
0.0
  0
LINE
  5
390
330
37D
100
AcDbEntity
  8
LC-008-003-----0
 62
     7
370
    25
100
AcDbLine
 10
821.998057
 20
700.0
 30
0.0
 11
803.656327
 21
702.414735
 31
0.0
  0
LINE
  5
391
330
37D
100
AcDbEntity
  8
LC-008-003-----0
 62
     7
370
    25
100
AcDbLine
 10
803.600718
 20
698.433686
 30
0.0
 11
815.498057
 21
700.0
 31
0.0
  0
LINE
  5
392
330
37D
100
AcDbEntity
  8
LC-008-003-----0
 62
     7
370
    25
100
AcDbLine
 10
815.498057
 20
700.0
 30
0.0
 11
803.600718
 21
701.566314
 31
0.0
  0
LINE
  5
393
330
37D
100
AcDbEntity
  8
LC-008-003-----0
 62
     7
370
    25
100
AcDbLine
 10
803.54511
 20
699.282106
 30
0.0
 11
808.998057
 21
700.0
 31
0.0
  0
LINE
  5
394
330
37D
100
AcDbEntity
  8
LC-008-003-----0
 62
     7
370
    25
100
AcDbLine
 10
808.998057
 20
700.0
 30
0.0
 11
803.54511
 21
700.717894
 31
0.0
  0
TEXT
  5
395
330
37D
100
AcDbEntity
  8
LC-008-003-----0
 62
     7
370
    25
100
AcDbText
 10
565.235766
 20
715.0
 30
0.0
 40
25.0
  1
980
 41
0.7
  7
LCTX0-400-0-0pDIN-Schrift
 72
     1
 11
590.235766
 21
715.0
 31
0.0
100
AcDbText
  0
ENDBLK
  5
37F
330
37D
100
AcDbEntity
  8
0
100
AcDbBlockEnd
  0
BLOCK
  5
39B
330
39A
100
AcDbEntity
  8
0
100
AcDbBlockBegin
  2
LCDIM10
 70
     0
 71
     0
 10
0.0
 20
0.0
 30
0.0
  3
LCDIM10
  1

  4
LCDIM10
  0
LINE
  5
39D
330
39A
100
AcDbEntity
  8
LC-006-003-MTH-0
 62
     7
370
    25
100
AcDbLine
 10
528.498057
 20
1043.402371
 30
0.0
 11
528.498057
 21
1065.0
 31
0.0
  0
LINE
  5
39E
330
39A
100
AcDbEntity
  8
LC-006-003-MTH-0
 62
     7
370
    25
100
AcDbLine
 10
828.498057
 20
1043.402371
 30
0.0
 11
828.498057
 21
1065.0
 31
0.0
  0
LINE
  5
39F
330
39A
100
AcDbEntity
  8
LC-007-003-MTG-0
 62
     7
370
    25
100
AcDbLine
 10
528.498057
 20
1050.0
 30
0.0
 11
828.498057
 21
1050.0
 31
0.0
  0
LINE
  5
3A0
330
39A
100
AcDbEntity
  8
LC-008-003-----0
 62
     7
370
    25
100
AcDbLine
 10
553.284179
 20
1053.263155
 30
0.0
 11
528.498057
 21
1050.0
 31
0.0
  0
LINE
  5
3A1
330
39A
100
AcDbEntity
  8
LC-008-003-----0
 62
     7
370
    25
100
AcDbLine
 10
528.498057
 20
1050.0
 30
0.0
 11
553.284179
 21
1046.736845
 31
0.0
  0
LINE
  5
3A2
330
39A
100
AcDbEntity
  8
LC-008-003-----0
 62
     7
370
    25
100
AcDbLine
 10
553.284179
 20
1046.736845
 30
0.0
 11
553.284179
 21
1053.263155
 31
0.0
  0
LINE
  5
3A3
330
39A
100
AcDbEntity
  8
LC-008-003-----0
 62
     7
370
    25
100
AcDbLine
 10
553.339787
 20
1052.414735
 30
0.0
 11
534.998057
 21
1050.0
 31
0.0
  0
LINE
  5
3A4
330
39A
100
AcDbEntity
  8
LC-008-003-----0
 62
     7
370
    25
100
AcDbLine
 10
534.998057
 20
1050.0
 30
0.0
 11
553.339787
 21
1047.585265
 31
0.0
  0
LINE
  5
3A5
330
39A
100
AcDbEntity
  8
LC-008-003-----0
 62
     7
370
    25
100
AcDbLine
 10
553.395396
 20
1051.566314
 30
0.0
 11
541.498057
 21
1050.0
 31
0.0
  0
LINE
  5
3A6
330
39A
100
AcDbEntity
  8
LC-008-003-----0
 62
     7
370
    25
100
AcDbLine
 10
541.498057
 20
1050.0
 30
0.0
 11
553.395396
 21
1048.433686
 31
0.0
  0
LINE
  5
3A7
330
39A
100
AcDbEntity
  8
LC-008-003-----0
 62
     7
370
    25
100
AcDbLine
 10
553.451004
 20
1050.717894
 30
0.0
 11
547.998057
 21
1050.0
 31
0.0
  0
LINE
  5
3A8
330
39A
100
AcDbEntity
  8
LC-008-003-----0
 62
     7
370
    25
100
AcDbLine
 10
547.998057
 20
1050.0
 30
0.0
 11
553.451004
 21
1049.282106
 31
0.0
  0
LINE
  5
3A9
330
39A
100
AcDbEntity
  8
LC-008-003-----0
 62
     7
370
    25
100
AcDbLine
 10
803.711935
 20
1046.736845
 30
0.0
 11
828.498057
 21
1050.0
 31
0.0
  0
LINE
  5
3AA
330
39A
100
AcDbEntity
  8
LC-008-003-----0
 62
     7
370
    25
100
AcDbLine
 10
828.498057
 20
1050.0
 30
0.0
 11
803.711935
 21
1053.263155
 31
0.0
  0
LINE
  5
3AB
330
39A
100
AcDbEntity
  8
LC-008-003-----0
 62
     7
370
    25
100
AcDbLine
 10
803.711935
 20
1053.263155
 30
0.0
 11
803.711935
 21
1046.736845
 31
0.0
  0
LINE
  5
3AC
330
39A
100
AcDbEntity
  8
LC-008-003-----0
 62
     7
370
    25
100
AcDbLine
 10
803.656327
 20
1047.585265
 30
0.0
 11
821.998057
 21
1050.0
 31
0.0
  0
LINE
  5
3AD
330
39A
100
AcDbEntity
  8
LC-008-003-----0
 62
     7
370
    25
100
AcDbLine
 10
821.998057
 20
1050.0
 30
0.0
 11
803.656327
 21
1052.414735
 31
0.0
  0
LINE
  5
3AE
330
39A
100
AcDbEntity
  8
LC-008-003-----0
 62
     7
370
    25
100
AcDbLine
 10
803.600718
 20
1048.433686
 30
0.0
 11
815.498057
 21
1050.0
 31
0.0
  0
LINE
  5
3AF
330
39A
100
AcDbEntity
  8
LC-008-003-----0
 62
     7
370
    25
100
AcDbLine
 10
815.498057
 20
1050.0
 30
0.0
 11
803.600718
 21
1051.566314
 31
0.0
  0
LINE
  5
3B0
330
39A
100
AcDbEntity
  8
LC-008-003-----0
 62
     7
370
    25
100
AcDbLine
 10
803.54511
 20
1049.282106
 30
0.0
 11
808.998057
 21
1050.0
 31
0.0
  0
LINE
  5
3B1
330
39A
100
AcDbEntity
  8
LC-008-003-----0
 62
     7
370
    25
100
AcDbLine
 10
808.998057
 20
1050.0
 30
0.0
 11
803.54511
 21
1050.717894
 31
0.0
  0
TEXT
  5
3B2
330
39A
100
AcDbEntity
  8
LC-008-003-----0
 62
     7
370
    25
100
AcDbText
 10
651.608868
 20
1065.0
 30
0.0
 40
25.0
  1
600
 41
0.7
  7
LCTX0-400-0-0pDIN-Schrift
 72
     1
 11
677.025535
 21
1065.0
 31
0.0
100
AcDbText
  0
ENDBLK
  5
39C
330
39A
100
AcDbEntity
  8
0
100
AcDbBlockEnd
  0
BLOCK
  5
3C2
330
3C1
100
AcDbEntity
  8
0
100
AcDbBlockBegin
  2
LCDIM11
 70
     0
 71
     0
 10
0.0
 20
0.0
 30
0.0
  3
LCDIM11
  1

  4
LCDIM11
  0
LINE
  5
3C4
330
3C1
100
AcDbEntity
  8
LC-006-003-MTH-0
 62
     7
370
    25
100
AcDbLine
 10
1304.850285
 20
795.29
 30
0.0
 11
1304.850285
 21
705.352915
 31
0.0
  0
LINE
  5
3C5
330
3C1
100
AcDbEntity
  8
LC-006-003-MTH-0
 62
     7
370
    25
100
AcDbLine
 10
1797.850285
 20
795.29
 30
0.0
 11
1797.850285
 21
705.352915
 31
0.0
  0
LINE
  5
3C6
330
3C1
100
AcDbEntity
  8
LC-007-003-MTG-0
 62
     7
370
    25
100
AcDbLine
 10
1304.850285
 20
720.352915
 30
0.0
 11
1797.850285
 21
720.352915
 31
0.0
  0
LINE
  5
3C7
330
3C1
100
AcDbEntity
  8
LC-008-003-----0
 62
     7
370
    25
100
AcDbLine
 10
1329.636407
 20
723.61607
 30
0.0
 11
1304.850285
 21
720.352915
 31
0.0
  0
LINE
  5
3C8
330
3C1
100
AcDbEntity
  8
LC-008-003-----0
 62
     7
370
    25
100
AcDbLine
 10
1304.850285
 20
720.352915
 30
0.0
 11
1329.636407
 21
717.089761
 31
0.0
  0
LINE
  5
3C9
330
3C1
100
AcDbEntity
  8
LC-008-003-----0
 62
     7
370
    25
100
AcDbLine
 10
1329.636407
 20
717.089761
 30
0.0
 11
1329.636407
 21
723.61607
 31
0.0
  0
LINE
  5
3CA
330
3C1
100
AcDbEntity
  8
LC-008-003-----0
 62
     7
370
    25
100
AcDbLine
 10
1329.692015
 20
722.76765
 30
0.0
 11
1311.350285
 21
720.352915
 31
0.0
  0
LINE
  5
3CB
330
3C1
100
AcDbEntity
  8
LC-008-003-----0
 62
     7
370
    25
100
AcDbLine
 10
1311.350285
 20
720.352915
 30
0.0
 11
1329.692015
 21
717.938181
 31
0.0
  0
LINE
  5
3CC
330
3C1
100
AcDbEntity
  8
LC-008-003-----0
 62
     7
370
    25
100
AcDbLine
 10
1329.747624
 20
721.91923
 30
0.0
 11
1317.850285
 21
720.352915
 31
0.0
  0
LINE
  5
3CD
330
3C1
100
AcDbEntity
  8
LC-008-003-----0
 62
     7
370
    25
100
AcDbLine
 10
1317.850285
 20
720.352915
 30
0.0
 11
1329.747624
 21
718.786601
 31
0.0
  0
LINE
  5
3CE
330
3C1
100
AcDbEntity
  8
LC-008-003-----0
 62
     7
370
    25
100
AcDbLine
 10
1329.803232
 20
721.07081
 30
0.0
 11
1324.350285
 21
720.352915
 31
0.0
  0
LINE
  5
3CF
330
3C1
100
AcDbEntity
  8
LC-008-003-----0
 62
     7
370
    25
100
AcDbLine
 10
1324.350285
 20
720.352915
 30
0.0
 11
1329.803232
 21
719.635021
 31
0.0
  0
LINE
  5
3D0
330
3C1
100
AcDbEntity
  8
LC-008-003-----0
 62
     7
370
    25
100
AcDbLine
 10
1773.064163
 20
717.089761
 30
0.0
 11
1797.850285
 21
720.352915
 31
0.0
  0
LINE
  5
3D1
330
3C1
100
AcDbEntity
  8
LC-008-003-----0
 62
     7
370
    25
100
AcDbLine
 10
1797.850285
 20
720.352915
 30
0.0
 11
1773.064163
 21
723.61607
 31
0.0
  0
LINE
  5
3D2
330
3C1
100
AcDbEntity
  8
LC-008-003-----0
 62
     7
370
    25
100
AcDbLine
 10
1773.064163
 20
723.61607
 30
0.0
 11
1773.064163
 21
717.089761
 31
0.0
  0
LINE
  5
3D3
330
3C1
100
AcDbEntity
  8
LC-008-003-----0
 62
     7
370
    25
100
AcDbLine
 10
1773.008555
 20
717.938181
 30
0.0
 11
1791.350285
 21
720.352915
 31
0.0
  0
LINE
  5
3D4
330
3C1
100
AcDbEntity
  8
LC-008-003-----0
 62
     7
370
    25
100
AcDbLine
 10
1791.350285
 20
720.352915
 30
0.0
 11
1773.008555
 21
722.76765
 31
0.0
  0
LINE
  5
3D5
330
3C1
100
AcDbEntity
  8
LC-008-003-----0
 62
     7
370
    25
100
AcDbLine
 10
1772.952946
 20
718.786601
 30
0.0
 11
1784.850285
 21
720.352915
 31
0.0
  0
LINE
  5
3D6
330
3C1
100
AcDbEntity
  8
LC-008-003-----0
 62
     7
370
    25
100
AcDbLine
 10
1784.850285
 20
720.352915
 30
0.0
 11
1772.952946
 21
721.91923
 31
0.0
  0
LINE
  5
3D7
330
3C1
100
AcDbEntity
  8
LC-008-003-----0
 62
     7
370
    25
100
AcDbLine
 10
1772.897338
 20
719.635021
 30
0.0
 11
1778.350285
 21
720.352915
 31
0.0
  0
LINE
  5
3D8
330
3C1
100
AcDbEntity
  8
LC-008-003-----0
 62
     7
370
    25
100
AcDbLine
 10
1778.350285
 20
720.352915
 30
0.0
 11
1772.897338
 21
721.07081
 31
0.0
  0
TEXT
  5
3D9
330
3C1
100
AcDbEntity
  8
LC-008-003-----0
 62
     7
370
    25
100
AcDbText
 10
1526.791285
 20
735.352916
 30
0.0
 40
25.0
  1
986
 41
0.7
  7
LCTX0-400-0-0pDIN-Schrift
 72
     1
 11
1551.791285
 21
735.352916
 31
0.0
100
AcDbText
  0
ENDBLK
  5
3C3
330
3C1
100
AcDbEntity
  8
0
100
AcDbBlockEnd
  0
BLOCK
  5
3DC
330
3DB
100
AcDbEntity
  8
0
100
AcDbBlockBegin
  2
LCDIM12
 70
     0
 71
     0
 10
0.0
 20
0.0
 30
0.0
  3
LCDIM12
  1

  4
LCDIM12
  0
LINE
  5
3DE
330
3DB
100
AcDbEntity
  8
LC-006-003-MTH-0
 62
     7
370
    25
100
AcDbLine
 10
1792.850285
 20
790.29
 30
0.0
 11
1885.95842
 21
790.29
 31
0.0
  0
LINE
  5
3DF
330
3DB
100
AcDbEntity
  8
LC-006-003-MTH-0
 62
     7
370
    25
100
AcDbLine
 10
1792.850285
 20
1033.29
 30
0.0
 11
1885.95842
 21
1033.29
 31
0.0
  0
LINE
  5
3E0
330
3DB
100
AcDbEntity
  8
LC-007-003-MTG-0
 62
     7
370
    25
100
AcDbLine
 10
1870.95842
 20
790.29
 30
0.0
 11
1870.95842
 21
1033.29
 31
0.0
  0
LINE
  5
3E1
330
3DB
100
AcDbEntity
  8
LC-008-003-----0
 62
     7
370
    25
100
AcDbLine
 10
1867.695265
 20
815.076122
 30
0.0
 11
1870.95842
 21
790.29
 31
0.0
  0
LINE
  5
3E2
330
3DB
100
AcDbEntity
  8
LC-008-003-----0
 62
     7
370
    25
100
AcDbLine
 10
1870.95842
 20
790.29
 30
0.0
 11
1874.221575
 21
815.076122
 31
0.0
  0
LINE
  5
3E3
330
3DB
100
AcDbEntity
  8
LC-008-003-----0
 62
     7
370
    25
100
AcDbLine
 10
1874.221575
 20
815.076122
 30
0.0
 11
1867.695265
 21
815.076122
 31
0.0
  0
LINE
  5
3E4
330
3DB
100
AcDbEntity
  8
LC-008-003-----0
 62
     7
370
    25
100
AcDbLine
 10
1868.543685
 20
815.13173
 30
0.0
 11
1870.95842
 21
796.79
 31
0.0
  0
LINE
  5
3E5
330
3DB
100
AcDbEntity
  8
LC-008-003-----0
 62
     7
370
    25
100
AcDbLine
 10
1870.95842
 20
796.79
 30
0.0
 11
1873.373154
 21
815.13173
 31
0.0
  0
LINE
  5
3E6
330
3DB
100
AcDbEntity
  8
LC-008-003-----0
 62
     7
370
    25
100
AcDbLine
 10
1869.392105
 20
815.187339
 30
0.0
 11
1870.95842
 21
803.29
 31
0.0
  0
LINE
  5
3E7
330
3DB
100
AcDbEntity
  8
LC-008-003-----0
 62
     7
370
    25
100
AcDbLine
 10
1870.95842
 20
803.29
 30
0.0
 11
1872.524734
 21
815.187339
 31
0.0
  0
LINE
  5
3E8
330
3DB
100
AcDbEntity
  8
LC-008-003-----0
 62
     7
370
    25
100
AcDbLine
 10
1870.240526
 20
815.242947
 30
0.0
 11
1870.95842
 21
809.79
 31
0.0
  0
LINE
  5
3E9
330
3DB
100
AcDbEntity
  8
LC-008-003-----0
 62
     7
370
    25
100
AcDbLine
 10
1870.95842
 20
809.79
 30
0.0
 11
1871.676314
 21
815.242947
 31
0.0
  0
LINE
  5
3EA
330
3DB
100
AcDbEntity
  8
LC-008-003-----0
 62
     7
370
    25
100
AcDbLine
 10
1874.221575
 20
1008.503878
 30
0.0
 11
1870.95842
 21
1033.29
 31
0.0
  0
LINE
  5
3EB
330
3DB
100
AcDbEntity
  8
LC-008-003-----0
 62
     7
370
    25
100
AcDbLine
 10
1870.95842
 20
1033.29
 30
0.0
 11
1867.695265
 21
1008.503878
 31
0.0
  0
LINE
  5
3EC
330
3DB
100
AcDbEntity
  8
LC-008-003-----0
 62
     7
370
    25
100
AcDbLine
 10
1867.695265
 20
1008.503878
 30
0.0
 11
1874.221575
 21
1008.503878
 31
0.0
  0
LINE
  5
3ED
330
3DB
100
AcDbEntity
  8
LC-008-003-----0
 62
     7
370
    25
100
AcDbLine
 10
1873.373154
 20
1008.44827
 30
0.0
 11
1870.95842
 21
1026.79
 31
0.0
  0
LINE
  5
3EE
330
3DB
100
AcDbEntity
  8
LC-008-003-----0
 62
     7
370
    25
100
AcDbLine
 10
1870.95842
 20
1026.79
 30
0.0
 11
1868.543685
 21
1008.44827
 31
0.0
  0
LINE
  5
3EF
330
3DB
100
AcDbEntity
  8
LC-008-003-----0
 62
     7
370
    25
100
AcDbLine
 10
1872.524734
 20
1008.392661
 30
0.0
 11
1870.95842
 21
1020.29
 31
0.0
  0
LINE
  5
3F0
330
3DB
100
AcDbEntity
  8
LC-008-003-----0
 62
     7
370
    25
100
AcDbLine
 10
1870.95842
 20
1020.29
 30
0.0
 11
1869.392105
 21
1008.392661
 31
0.0
  0
LINE
  5
3F1
330
3DB
100
AcDbEntity
  8
LC-008-003-----0
 62
     7
370
    25
100
AcDbLine
 10
1871.676314
 20
1008.337053
 30
0.0
 11
1870.95842
 21
1013.79
 31
0.0
  0
LINE
  5
3F2
330
3DB
100
AcDbEntity
  8
LC-008-003-----0
 62
     7
370
    25
100
AcDbLine
 10
1870.95842
 20
1013.79
 30
0.0
 11
1870.240526
 21
1008.337053
 31
0.0
  0
TEXT
  5
3F3
330
3DB
100
AcDbEntity
  8
LC-008-003-----0
 62
     7
370
    25
100
AcDbText
 10
1855.958419
 20
886.192627
 30
0.0
 40
25.0
  1
486
 50
90.0
 41
0.7
  7
LCTX0-400-0-0pDIN-Schrift
 72
     1
 11
1855.958419
 21
911.192627
 31
0.0
100
AcDbText
  0
ENDBLK
  5
3DD
330
3DB
100
AcDbEntity
  8
0
100
AcDbBlockEnd
  0
BLOCK
  5
3F6
330
3F5
100
AcDbEntity
  8
0
100
AcDbBlockBegin
  2
LCDIM13
 70
     0
 71
     0
 10
0.0
 20
0.0
 30
0.0
  3
LCDIM13
  1

  4
LCDIM13
  0
TEXT
  5
3F8
330
3F5
100
AcDbEntity
  8
LC-008-003-----0
 62
     7
370
    25
100
AcDbText
 10
1344.485788
 20
1010.815577
 30
0.0
 40
25.0
  1
R10
 50
310.481293
 41
0.7
  7
LCTX0-400-0-0pDIN-Schrift
100
AcDbText
  0
LINE
  5
3F9
330
3F5
100
AcDbEntity
  8
LC-007-003-MTG-0
 62
     7
370
    25
100
AcDbLine
 10
1354.121443
 20
976.420843
 30
0.0
 11
1306.604287
 21
1032.093091
 31
0.0
  0
LINE
  5
3FA
330
3F5
100
AcDbEntity
  8
LC-008-003-----0
 62
     7
370
    25
100
AcDbLine
 10
1325.177444
 20
1015.358759
 30
0.0
 11
1306.604287
 21
1032.093091
 31
0.0
  0
LINE
  5
3FB
330
3F5
100
AcDbEntity
  8
LC-008-003-----0
 62
     7
370
    25
100
AcDbLine
 10
1306.604287
 20
1032.093091
 30
0.0
 11
1320.213415
 21
1011.121881
 31
0.0
  0
LINE
  5
3FC
330
3F5
100
AcDbEntity
  8
LC-008-003-----0
 62
     7
370
    25
100
AcDbLine
 10
1320.213415
 20
1011.121881
 30
0.0
 11
1325.177444
 21
1015.358759
 31
0.0
  0
LINE
  5
3FD
330
3F5
100
AcDbEntity
  8
LC-008-003-----0
 62
     7
370
    25
100
AcDbLine
 10
1324.568221
 20
1014.765668
 30
0.0
 11
1310.824085
 21
1027.149073
 31
0.0
  0
LINE
  5
3FE
330
3F5
100
AcDbEntity
  8
LC-008-003-----0
 62
     7
370
    25
100
AcDbLine
 10
1310.824085
 20
1027.149073
 30
0.0
 11
1320.89484
 21
1011.630378
 31
0.0
  0
LINE
  5
3FF
330
3F5
100
AcDbEntity
  8
LC-008-003-----0
 62
     7
370
    25
100
AcDbLine
 10
1323.958998
 20
1014.172577
 30
0.0
 11
1315.043883
 21
1022.205056
 31
0.0
  0
LINE
  5
400
330
3F5
100
AcDbEntity
  8
LC-008-003-----0
 62
     7
370
    25
100
AcDbLine
 10
1315.043883
 20
1022.205056
 30
0.0
 11
1321.576264
 21
1012.138876
 31
0.0
  0
LINE
  5
401
330
3F5
100
AcDbEntity
  8
LC-008-003-----0
 62
     7
370
    25
100
AcDbLine
 10
1323.349775
 20
1013.579486
 30
0.0
 11
1319.263681
 21
1017.261039
 31
0.0
  0
LINE
  5
402
330
3F5
100
AcDbEntity
  8
LC-008-003-----0
 62
     7
370
    25
100
AcDbLine
 10
1319.263681
 20
1017.261039
 30
0.0
 11
1322.257689
 21
1012.647373
 31
0.0
  0
ENDBLK
  5
3F7
330
3F5
100
AcDbEntity
  8
0
100
AcDbBlockEnd
  0
BLOCK
  5
406
330
405
100
AcDbEntity
  8
0
100
AcDbBlockBegin
  2
LCDIM14
 70
     0
 71
     0
 10
0.0
 20
0.0
 30
0.0
  3
LCDIM14
  1

  4
LCDIM14
  0
TEXT
  5
408
330
405
100
AcDbEntity
  8
LC-008-003-----0
 62
     7
370
    25
100
AcDbText
 10
389.259602
 20
959.972446
 30
0.0
 40
25.0
  1
R10
 50
306.23468
 41
0.7
  7
LCTX0-400-0-0pDIN-Schrift
100
AcDbText
  0
LINE
  5
409
330
405
100
AcDbEntity
  8
LC-007-003-MTG-0
 62
     7
370
    25
100
AcDbLine
 10
396.321889
 20
924.958625
 30
0.0
 11
340.542587
 21
1001.074667
 31
0.0
  0
LINE
  5
40A
330
405
100
AcDbEntity
  8
LC-008-003-----0
 62
     7
370
    25
100
AcDbLine
 10
357.825584
 20
983.010946
 30
0.0
 11
340.542587
 21
1001.074667
 31
0.0
  0
LINE
  5
40B
330
405
100
AcDbEntity
  8
LC-008-003-----0
 62
     7
370
    25
100
AcDbLine
 10
340.542587
 20
1001.074667
 30
0.0
 11
352.561445
 21
979.153284
 31
0.0
  0
LINE
  5
40C
330
405
100
AcDbEntity
  8
LC-008-003-----0
 62
     7
370
    25
100
AcDbLine
 10
352.561445
 20
979.153284
 30
0.0
 11
357.825584
 21
983.010946
 31
0.0
  0
LINE
  5
40D
330
405
100
AcDbEntity
  8
LC-008-003-----0
 62
     7
370
    25
100
AcDbLine
 10
357.174116
 20
982.464596
 30
0.0
 11
344.384698
 21
995.83175
 31
0.0
  0
LINE
  5
40E
330
405
100
AcDbEntity
  8
LC-008-003-----0
 62
     7
370
    25
100
AcDbLine
 10
344.384698
 20
995.83175
 30
0.0
 11
353.278653
 21
979.609926
 31
0.0
  0
LINE
  5
40F
330
405
100
AcDbEntity
  8
LC-008-003-----0
 62
     7
370
    25
100
AcDbLine
 10
356.522648
 20
981.918246
 30
0.0
 11
348.226809
 21
990.588832
 31
0.0
  0
LINE
  5
410
330
405
100
AcDbEntity
  8
LC-008-003-----0
 62
     7
370
    25
100
AcDbLine
 10
348.226809
 20
990.588832
 30
0.0
 11
353.995861
 21
980.066568
 31
0.0
  0
LINE
  5
411
330
405
100
AcDbEntity
  8
LC-008-003-----0
 62
     7
370
    25
100
AcDbLine
 10
355.871179
 20
981.371896
 30
0.0
 11
352.06892
 21
985.345915
 31
0.0
  0
LINE
  5
412
330
405
100
AcDbEntity
  8
LC-008-003-----0
 62
     7
370
    25
100
AcDbLine
 10
352.06892
 20
985.345915
 30
0.0
 11
354.713069
 21
980.52321
 31
0.0
  0
ENDBLK
  5
407
330
405
100
AcDbEntity
  8
0
100
AcDbBlockEnd
  0
BLOCK
  5
445
330
444
100
AcDbEntity
  8
0
100
AcDbBlockBegin
  2
POLY1
 70
     0
 71
     0
 10
0.0
 20
0.0
 30
0.0
  3
POLY1
  1

  4
POLY1
  0
LINE
  5
447
330
444
100
AcDbEntity
  8
LC-002-002-----0
 62
     7
370
    25
100
AcDbLine
 10
861.562461
 20
2431.369081
 30
0.0
 11
861.562461
 21
2431.369081
 31
0.0
  0
LINE
  5
448
330
444
100
AcDbEntity
  8
LC-002-002-----0
 62
     7
370
    25
100
AcDbLine
 10
861.562461
 20
2431.369081
 30
0.0
 11
861.882256
 21
2433.722344
 31
0.0
  0
LINE
  5
449
330
444
100
AcDbEntity
  8
LC-002-002-----0
 62
     7
370
    25
100
AcDbLine
 10
861.882256
 20
2433.722344
 30
0.0
 11
861.882256
 21
2433.722344
 31
0.0
  0
LINE
  5
44A
330
444
100
AcDbEntity
  8
LC-002-002-----0
 62
     7
370
    25
100
AcDbLine
 10
861.882256
 20
2433.722344
 30
0.0
 11
862.088538
 21
2436.200731
 31
0.0
  0
LINE
  5
44B
330
444
100
AcDbEntity
  8
LC-002-002-----0
 62
     7
370
    25
100
AcDbLine
 10
862.088538
 20
2436.200731
 30
0.0
 11
862.088538
 21
2436.200731
 31
0.0
  0
LINE
  5
44C
330
444
100
AcDbEntity
  8
LC-002-002-----0
 62
     7
370
    25
100
AcDbLine
 10
862.088538
 20
2436.200731
 30
0.0
 11
862.159263
 21
2438.725131
 31
0.0
  0
ENDBLK
  5
446
330
444
100
AcDbEntity
  8
0
100
AcDbBlockEnd
  0
BLOCK
  5
44F
330
44E
100
AcDbEntity
  8
0
100
AcDbBlockBegin
  2
POLY2
 70
     0
 71
     0
 10
0.0
 20
0.0
 30
0.0
  3
POLY2
  1

  4
POLY2
  0
LINE
  5
451
330
44E
100
AcDbEntity
  8
LC-002-002-----0
 62
     7
370
    25
100
AcDbLine
 10
863.494018
 20
2426.17294
 30
0.0
 11
863.494018
 21
2426.17294
 31
0.0
  0
LINE
  5
452
330
44E
100
AcDbEntity
  8
LC-002-002-----0
 62
     7
370
    25
100
AcDbLine
 10
863.494018
 20
2426.17294
 30
0.0
 11
864.032198
 21
2425.806528
 31
0.0
  0
LINE
  5
453
330
44E
100
AcDbEntity
  8
LC-002-002-----0
 62
     7
370
    25
100
AcDbLine
 10
864.032198
 20
2425.806528
 30
0.0
 11
864.032198
 21
2425.806528
 31
0.0
  0
LINE
  5
454
330
44E
100
AcDbEntity
  8
LC-002-002-----0
 62
     7
370
    25
100
AcDbLine
 10
864.032198
 20
2425.806528
 30
0.0
 11
864.522176
 21
2425.46944
 31
0.0
  0
LINE
  5
455
330
44E
100
AcDbEntity
  8
LC-002-002-----0
 62
     7
370
    25
100
AcDbLine
 10
864.522176
 20
2425.46944
 30
0.0
 11
864.522176
 21
2425.46944
 31
0.0
  0
LINE
  5
456
330
44E
100
AcDbEntity
  8
LC-002-002-----0
 62
     7
370
    25
100
AcDbLine
 10
864.522176
 20
2425.46944
 30
0.0
 11
864.963798
 21
2425.162556
 31
0.0
  0
ENDBLK
  5
450
330
44E
100
AcDbEntity
  8
0
100
AcDbBlockEnd
  0
BLOCK
  5
459
330
458
100
AcDbEntity
  8
0
100
AcDbBlockBegin
  2
POLY3
 70
     0
 71
     0
 10
0.0
 20
0.0
 30
0.0
  3
POLY3
  1

  4
POLY3
  0
LINE
  5
45B
330
458
100
AcDbEntity
  8
LC-002-002-----0
 62
     7
370
    25
100
AcDbLine
 10
861.562461
 20
2431.369081
 30
0.0
 11
861.562461
 21
2431.369081
 31
0.0
  0
LINE
  5
45C
330
458
100
AcDbEntity
  8
LC-002-002-----0
 62
     7
370
    25
100
AcDbLine
 10
861.562461
 20
2431.369081
 30
0.0
 11
861.482422
 21
2430.073935
 31
0.0
  0
LINE
  5
45D
330
458
100
AcDbEntity
  8
LC-002-002-----0
 62
     7
370
    25
100
AcDbLine
 10
861.482422
 20
2430.073935
 30
0.0
 11
861.482422
 21
2430.073935
 31
0.0
  0
LINE
  5
45E
330
458
100
AcDbEntity
  8
LC-002-002-----0
 62
     7
370
    25
100
AcDbLine
 10
861.482422
 20
2430.073935
 30
0.0
 11
861.653487
 21
2428.877693
 31
0.0
  0
LINE
  5
45F
330
458
100
AcDbEntity
  8
LC-002-002-----0
 62
     7
370
    25
100
AcDbLine
 10
861.653487
 20
2428.877693
 30
0.0
 11
861.653487
 21
2428.877693
 31
0.0
  0
LINE
  5
460
330
458
100
AcDbEntity
  8
LC-002-002-----0
 62
     7
370
    25
100
AcDbLine
 10
861.653487
 20
2428.877693
 30
0.0
 11
862.051492
 21
2427.81663
 31
0.0
  0
LINE
  5
461
330
458
100
AcDbEntity
  8
LC-002-002-----0
 62
     7
370
    25
100
AcDbLine
 10
862.051492
 20
2427.81663
 30
0.0
 11
862.051492
 21
2427.81663
 31
0.0
  0
LINE
  5
462
330
458
100
AcDbEntity
  8
LC-002-002-----0
 62
     7
370
    25
100
AcDbLine
 10
862.051492
 20
2427.81663
 30
0.0
 11
862.66289
 21
2426.909105
 31
0.0
  0
LINE
  5
463
330
458
100
AcDbEntity
  8
LC-002-002-----0
 62
     7
370
    25
100
AcDbLine
 10
862.66289
 20
2426.909105
 30
0.0
 11
862.66289
 21
2426.909105
 31
0.0
  0
LINE
  5
464
330
458
100
AcDbEntity
  8
LC-002-002-----0
 62
     7
370
    25
100
AcDbLine
 10
862.66289
 20
2426.909105
 30
0.0
 11
863.494018
 21
2426.17294
 31
0.0
  0
ENDBLK
  5
45A
330
458
100
AcDbEntity
  8
0
100
AcDbBlockEnd
  0
BLOCK
  5
467
330
466
100
AcDbEntity
  8
0
100
AcDbBlockBegin
  2
POLY4
 70
     0
 71
     0
 10
0.0
 20
0.0
 30
0.0
  3
POLY4
  1

  4
POLY4
  0
LINE
  5
469
330
466
100
AcDbEntity
  8
LC-002-002-----0
 62
     7
370
    25
100
AcDbLine
 10
864.964827
 20
2425.161816
 30
0.0
 11
864.964827
 21
2425.161816
 31
0.0
  0
LINE
  5
46A
330
466
100
AcDbEntity
  8
LC-002-002-----0
 62
     7
370
    25
100
AcDbLine
 10
864.964827
 20
2425.161816
 30
0.0
 11
865.437054
 21
2424.755083
 31
0.0
  0
LINE
  5
46B
330
466
100
AcDbEntity
  8
LC-002-002-----0
 62
     7
370
    25
100
AcDbLine
 10
865.437054
 20
2424.755083
 30
0.0
 11
865.437054
 21
2424.755083
 31
0.0
  0
LINE
  5
46C
330
466
100
AcDbEntity
  8
LC-002-002-----0
 62
     7
370
    25
100
AcDbLine
 10
865.437054
 20
2424.755083
 30
0.0
 11
865.762706
 21
2424.338894
 31
0.0
  0
LINE
  5
46D
330
466
100
AcDbEntity
  8
LC-002-002-----0
 62
     7
370
    25
100
AcDbLine
 10
865.762706
 20
2424.338894
 30
0.0
 11
865.762706
 21
2424.338894
 31
0.0
  0
LINE
  5
46E
330
466
100
AcDbEntity
  8
LC-002-002-----0
 62
     7
370
    25
100
AcDbLine
 10
865.762706
 20
2424.338894
 30
0.0
 11
865.959735
 21
2423.977041
 31
0.0
  0
LINE
  5
46F
330
466
100
AcDbEntity
  8
LC-002-002-----0
 62
     7
370
    25
100
AcDbLine
 10
865.959735
 20
2423.977041
 30
0.0
 11
865.959735
 21
2423.977041
 31
0.0
  0
LINE
  5
470
330
466
100
AcDbEntity
  8
LC-002-002-----0
 62
     7
370
    25
100
AcDbLine
 10
865.959735
 20
2423.977041
 30
0.0
 11
866.061262
 21
2423.72221
 31
0.0
  0
LINE
  5
471
330
466
100
AcDbEntity
  8
LC-002-002-----0
 62
     7
370
    25
100
AcDbLine
 10
866.061262
 20
2423.72221
 30
0.0
 11
866.061262
 21
2423.72221
 31
0.0
  0
LINE
  5
472
330
466
100
AcDbEntity
  8
LC-002-002-----0
 62
     7
370
    25
100
AcDbLine
 10
866.061262
 20
2423.72221
 30
0.0
 11
866.092543
 21
2423.625288
 31
0.0
  0
ENDBLK
  5
468
330
466
100
AcDbEntity
  8
0
100
AcDbBlockEnd
  0
BLOCK
  5
475
330
474
100
AcDbEntity
  8
0
100
AcDbBlockBegin
  2
POLY5
 70
     0
 71
     0
 10
0.0
 20
0.0
 30
0.0
  3
POLY5
  1

  4
POLY5
  0
LINE
  5
477
330
474
100
AcDbEntity
  8
LC-002-002-----0
 62
     7
370
    25
100
AcDbLine
 10
761.397698
 20
2458.707511
 30
0.0
 11
761.397698
 21
2458.707511
 31
0.0
  0
LINE
  5
478
330
474
100
AcDbEntity
  8
LC-002-002-----0
 62
     7
370
    25
100
AcDbLine
 10
761.397698
 20
2458.707511
 30
0.0
 11
761.542682
 21
2458.707548
 31
0.0
  0
LINE
  5
479
330
474
100
AcDbEntity
  8
LC-002-002-----0
 62
     7
370
    25
100
AcDbLine
 10
761.542682
 20
2458.707548
 30
0.0
 11
761.542682
 21
2458.707548
 31
0.0
  0
LINE
  5
47A
330
474
100
AcDbEntity
  8
LC-002-002-----0
 62
     7
370
    25
100
AcDbLine
 10
761.542682
 20
2458.707548
 30
0.0
 11
761.967323
 21
2458.707988
 31
0.0
  0
LINE
  5
47B
330
474
100
AcDbEntity
  8
LC-002-002-----0
 62
     7
370
    25
100
AcDbLine
 10
761.967323
 20
2458.707988
 30
0.0
 11
761.967323
 21
2458.707988
 31
0.0
  0
LINE
  5
47C
330
474
100
AcDbEntity
  8
LC-002-002-----0
 62
     7
370
    25
100
AcDbLine
 10
761.967323
 20
2458.707988
 30
0.0
 11
762.671671
 21
2458.70756
 31
0.0
  0
LINE
  5
47D
330
474
100
AcDbEntity
  8
LC-002-002-----0
 62
     7
370
    25
100
AcDbLine
 10
762.671671
 20
2458.70756
 30
0.0
 11
762.671671
 21
2458.70756
 31
0.0
  0
LINE
  5
47E
330
474
100
AcDbEntity
  8
LC-002-002-----0
 62
     7
370
    25
100
AcDbLine
 10
762.671671
 20
2458.70756
 30
0.0
 11
763.670081
 21
2458.707421
 31
0.0
  0
LINE
  5
47F
330
474
100
AcDbEntity
  8
LC-002-002-----0
 62
     7
370
    25
100
AcDbLine
 10
763.670081
 20
2458.707421
 30
0.0
 11
763.670081
 21
2458.707421
 31
0.0
  0
LINE
  5
480
330
474
100
AcDbEntity
  8
LC-002-002-----0
 62
     7
370
    25
100
AcDbLine
 10
763.670081
 20
2458.707421
 30
0.0
 11
765.015177
 21
2458.707464
 31
0.0
  0
LINE
  5
481
330
474
100
AcDbEntity
  8
LC-002-002-----0
 62
     7
370
    25
100
AcDbLine
 10
765.015177
 20
2458.707464
 30
0.0
 11
765.015177
 21
2458.707464
 31
0.0
  0
LINE
  5
482
330
474
100
AcDbEntity
  8
LC-002-002-----0
 62
     7
370
    25
100
AcDbLine
 10
765.015177
 20
2458.707464
 30
0.0
 11
766.70703
 21
2458.707481
 31
0.0
  0
LINE
  5
483
330
474
100
AcDbEntity
  8
LC-002-002-----0
 62
     7
370
    25
100
AcDbLine
 10
766.70703
 20
2458.707481
 30
0.0
 11
766.70703
 21
2458.707481
 31
0.0
  0
LINE
  5
484
330
474
100
AcDbEntity
  8
LC-002-002-----0
 62
     7
370
    25
100
AcDbLine
 10
766.70703
 20
2458.707481
 30
0.0
 11
768.710335
 21
2458.707784
 31
0.0
  0
LINE
  5
485
330
474
100
AcDbEntity
  8
LC-002-002-----0
 62
     7
370
    25
100
AcDbLine
 10
768.710335
 20
2458.707784
 30
0.0
 11
768.710335
 21
2458.707784
 31
0.0
  0
LINE
  5
486
330
474
100
AcDbEntity
  8
LC-002-002-----0
 62
     7
370
    25
100
AcDbLine
 10
768.710335
 20
2458.707784
 30
0.0
 11
770.968772
 21
2458.707633
 31
0.0
  0
LINE
  5
487
330
474
100
AcDbEntity
  8
LC-002-002-----0
 62
     7
370
    25
100
AcDbLine
 10
770.968772
 20
2458.707633
 30
0.0
 11
770.968772
 21
2458.707633
 31
0.0
  0
LINE
  5
488
330
474
100
AcDbEntity
  8
LC-002-002-----0
 62
     7
370
    25
100
AcDbLine
 10
770.968772
 20
2458.707633
 30
0.0
 11
773.391702
 21
2458.707597
 31
0.0
  0
LINE
  5
489
330
474
100
AcDbEntity
  8
LC-002-002-----0
 62
     7
370
    25
100
AcDbLine
 10
773.391702
 20
2458.707597
 30
0.0
 11
773.391702
 21
2458.707597
 31
0.0
  0
LINE
  5
48A
330
474
100
AcDbEntity
  8
LC-002-002-----0
 62
     7
370
    25
100
AcDbLine
 10
773.391702
 20
2458.707597
 30
0.0
 11
775.873896
 21
2458.7076
 31
0.0
  0
LINE
  5
48B
330
474
100
AcDbEntity
  8
LC-002-002-----0
 62
     7
370
    25
100
AcDbLine
 10
775.873896
 20
2458.7076
 30
0.0
 11
775.873896
 21
2458.7076
 31
0.0
  0
LINE
  5
48C
330
474
100
AcDbEntity
  8
LC-002-002-----0
 62
     7
370
    25
100
AcDbLine
 10
775.873896
 20
2458.7076
 30
0.0
 11
778.28624
 21
2458.707649
 31
0.0
  0
LINE
  5
48D
330
474
100
AcDbEntity
  8
LC-002-002-----0
 62
     7
370
    25
100
AcDbLine
 10
778.28624
 20
2458.707649
 30
0.0
 11
778.28624
 21
2458.707649
 31
0.0
  0
LINE
  5
48E
330
474
100
AcDbEntity
  8
LC-002-002-----0
 62
     7
370
    25
100
AcDbLine
 10
778.28624
 20
2458.707649
 30
0.0
 11
780.525309
 21
2458.707786
 31
0.0
  0
LINE
  5
48F
330
474
100
AcDbEntity
  8
LC-002-002-----0
 62
     7
370
    25
100
AcDbLine
 10
780.525309
 20
2458.707786
 30
0.0
 11
780.525309
 21
2458.707786
 31
0.0
  0
LINE
  5
490
330
474
100
AcDbEntity
  8
LC-002-002-----0
 62
     7
370
    25
100
AcDbLine
 10
780.525309
 20
2458.707786
 30
0.0
 11
782.507152
 21
2458.707487
 31
0.0
  0
LINE
  5
491
330
474
100
AcDbEntity
  8
LC-002-002-----0
 62
     7
370
    25
100
AcDbLine
 10
782.507152
 20
2458.707487
 30
0.0
 11
782.507152
 21
2458.707487
 31
0.0
  0
LINE
  5
492
330
474
100
AcDbEntity
  8
LC-002-002-----0
 62
     7
370
    25
100
AcDbLine
 10
782.507152
 20
2458.707487
 30
0.0
 11
784.181444
 21
2458.707473
 31
0.0
  0
LINE
  5
493
330
474
100
AcDbEntity
  8
LC-002-002-----0
 62
     7
370
    25
100
AcDbLine
 10
784.181444
 20
2458.707473
 30
0.0
 11
784.181444
 21
2458.707473
 31
0.0
  0
LINE
  5
494
330
474
100
AcDbEntity
  8
LC-002-002-----0
 62
     7
370
    25
100
AcDbLine
 10
784.181444
 20
2458.707473
 30
0.0
 11
785.516596
 21
2458.707419
 31
0.0
  0
LINE
  5
495
330
474
100
AcDbEntity
  8
LC-002-002-----0
 62
     7
370
    25
100
AcDbLine
 10
785.516596
 20
2458.707419
 30
0.0
 11
785.516596
 21
2458.707419
 31
0.0
  0
LINE
  5
496
330
474
100
AcDbEntity
  8
LC-002-002-----0
 62
     7
370
    25
100
AcDbLine
 10
785.516596
 20
2458.707419
 30
0.0
 11
786.51253
 21
2458.70755
 31
0.0
  0
LINE
  5
497
330
474
100
AcDbEntity
  8
LC-002-002-----0
 62
     7
370
    25
100
AcDbLine
 10
786.51253
 20
2458.70755
 30
0.0
 11
786.51253
 21
2458.70755
 31
0.0
  0
LINE
  5
498
330
474
100
AcDbEntity
  8
LC-002-002-----0
 62
     7
370
    25
100
AcDbLine
 10
786.51253
 20
2458.70755
 30
0.0
 11
787.218626
 21
2458.707958
 31
0.0
  0
LINE
  5
499
330
474
100
AcDbEntity
  8
LC-002-002-----0
 62
     7
370
    25
100
AcDbLine
 10
787.218626
 20
2458.707958
 30
0.0
 11
787.218626
 21
2458.707958
 31
0.0
  0
LINE
  5
49A
330
474
100
AcDbEntity
  8
LC-002-002-----0
 62
     7
370
    25
100
AcDbLine
 10
787.218626
 20
2458.707958
 30
0.0
 11
787.646274
 21
2458.707519
 31
0.0
  0
LINE
  5
49B
330
474
100
AcDbEntity
  8
LC-002-002-----0
 62
     7
370
    25
100
AcDbLine
 10
787.646274
 20
2458.707519
 30
0.0
 11
787.646274
 21
2458.707519
 31
0.0
  0
LINE
  5
49C
330
474
100
AcDbEntity
  8
LC-002-002-----0
 62
     7
370
    25
100
AcDbLine
 10
787.646274
 20
2458.707519
 30
0.0
 11
787.792779
 21
2458.70748
 31
0.0
  0
ENDBLK
  5
476
330
474
100
AcDbEntity
  8
0
100
AcDbBlockEnd
  0
BLOCK
  5
49F
330
49E
100
AcDbEntity
  8
0
100
AcDbBlockBegin
  2
POLY6
 70
     0
 71
     0
 10
0.0
 20
0.0
 30
0.0
  3
POLY6
  1

  4
POLY6
  0
LINE
  5
4A1
330
49E
100
AcDbEntity
  8
LC-002-002-----0
 62
     7
370
    25
100
AcDbLine
 10
859.005623
 20
2450.705433
 30
0.0
 11
859.005623
 21
2450.705433
 31
0.0
  0
LINE
  5
4A2
330
49E
100
AcDbEntity
  8
LC-002-002-----0
 62
     7
370
    25
100
AcDbLine
 10
859.005623
 20
2450.705433
 30
0.0
 11
860.056272
 21
2450.295684
 31
0.0
  0
LINE
  5
4A3
330
49E
100
AcDbEntity
  8
LC-002-002-----0
 62
     7
370
    25
100
AcDbLine
 10
860.056272
 20
2450.295684
 30
0.0
 11
860.056272
 21
2450.295684
 31
0.0
  0
LINE
  5
4A4
330
49E
100
AcDbEntity
  8
LC-002-002-----0
 62
     7
370
    25
100
AcDbLine
 10
860.056272
 20
2450.295684
 30
0.0
 11
860.944601
 21
2449.642368
 31
0.0
  0
LINE
  5
4A5
330
49E
100
AcDbEntity
  8
LC-002-002-----0
 62
     7
370
    25
100
AcDbLine
 10
860.944601
 20
2449.642368
 30
0.0
 11
860.944601
 21
2449.642368
 31
0.0
  0
LINE
  5
4A6
330
49E
100
AcDbEntity
  8
LC-002-002-----0
 62
     7
370
    25
100
AcDbLine
 10
860.944601
 20
2449.642368
 30
0.0
 11
861.611394
 21
2448.804241
 31
0.0
  0
LINE
  5
4A7
330
49E
100
AcDbEntity
  8
LC-002-002-----0
 62
     7
370
    25
100
AcDbLine
 10
861.611394
 20
2448.804241
 30
0.0
 11
861.611394
 21
2448.804241
 31
0.0
  0
LINE
  5
4A8
330
49E
100
AcDbEntity
  8
LC-002-002-----0
 62
     7
370
    25
100
AcDbLine
 10
861.611394
 20
2448.804241
 30
0.0
 11
862.021477
 21
2447.846452
 31
0.0
  0
LINE
  5
4A9
330
49E
100
AcDbEntity
  8
LC-002-002-----0
 62
     7
370
    25
100
AcDbLine
 10
862.021477
 20
2447.846452
 30
0.0
 11
862.021477
 21
2447.846452
 31
0.0
  0
LINE
  5
4AA
330
49E
100
AcDbEntity
  8
LC-002-002-----0
 62
     7
370
    25
100
AcDbLine
 10
862.021477
 20
2447.846452
 30
0.0
 11
862.159263
 21
2446.83245
 31
0.0
  0
ENDBLK
  5
4A0
330
49E
100
AcDbEntity
  8
0
100
AcDbBlockEnd
  0
BLOCK
  5
4C3
330
4C2
100
AcDbEntity
  8
0
100
AcDbBlockBegin
  2
POLY7
 70
     0
 71
     0
 10
0.0
 20
0.0
 30
0.0
  3
POLY7
  1

  4
POLY7
  0
LINE
  5
4C5
330
4C2
100
AcDbEntity
  8
LC-002-002-----0
 62
     7
370
    25
100
AcDbLine
 10
839.945249
 20
2421.410112
 30
0.0
 11
839.945249
 21
2421.410112
 31
0.0
  0
LINE
  5
4C6
330
4C2
100
AcDbEntity
  8
LC-002-002-----0
 62
     7
370
    25
100
AcDbLine
 10
839.945249
 20
2421.410112
 30
0.0
 11
839.769322
 21
2421.34515
 31
0.0
  0
LINE
  5
4C7
330
4C2
100
AcDbEntity
  8
LC-002-002-----0
 62
     7
370
    25
100
AcDbLine
 10
839.769322
 20
2421.34515
 30
0.0
 11
839.769322
 21
2421.34515
 31
0.0
  0
LINE
  5
4C8
330
4C2
100
AcDbEntity
  8
LC-002-002-----0
 62
     7
370
    25
100
AcDbLine
 10
839.769322
 20
2421.34515
 30
0.0
 11
839.602635
 21
2421.284131
 31
0.0
  0
LINE
  5
4C9
330
4C2
100
AcDbEntity
  8
LC-002-002-----0
 62
     7
370
    25
100
AcDbLine
 10
839.602635
 20
2421.284131
 30
0.0
 11
839.602635
 21
2421.284131
 31
0.0
  0
LINE
  5
4CA
330
4C2
100
AcDbEntity
  8
LC-002-002-----0
 62
     7
370
    25
100
AcDbLine
 10
839.602635
 20
2421.284131
 30
0.0
 11
839.445249
 21
2421.226991
 31
0.0
  0
ENDBLK
  5
4C4
330
4C2
100
AcDbEntity
  8
0
100
AcDbBlockEnd
  0
BLOCK
  5
4CD
330
4CC
100
AcDbEntity
  8
0
100
AcDbBlockBegin
  2
POLY8
 70
     0
 71
     0
 10
0.0
 20
0.0
 30
0.0
  3
POLY8
  1

  4
POLY8
  0
LINE
  5
4CF
330
4CC
100
AcDbEntity
  8
LC-002-002-----0
 62
     7
370
    25
100
AcDbLine
 10
839.445249
 20
2423.027602
 30
0.0
 11
839.445249
 21
2423.027602
 31
0.0
  0
LINE
  5
4D0
330
4CC
100
AcDbEntity
  8
LC-002-002-----0
 62
     7
370
    25
100
AcDbLine
 10
839.445249
 20
2423.027602
 30
0.0
 11
839.602621
 21
2422.632993
 31
0.0
  0
LINE
  5
4D1
330
4CC
100
AcDbEntity
  8
LC-002-002-----0
 62
     7
370
    25
100
AcDbLine
 10
839.602621
 20
2422.632993
 30
0.0
 11
839.602621
 21
2422.632993
 31
0.0
  0
LINE
  5
4D2
330
4CC
100
AcDbEntity
  8
LC-002-002-----0
 62
     7
370
    25
100
AcDbLine
 10
839.602621
 20
2422.632993
 30
0.0
 11
839.769307
 21
2422.23719
 31
0.0
  0
LINE
  5
4D3
330
4CC
100
AcDbEntity
  8
LC-002-002-----0
 62
     7
370
    25
100
AcDbLine
 10
839.769307
 20
2422.23719
 30
0.0
 11
839.769307
 21
2422.23719
 31
0.0
  0
LINE
  5
4D4
330
4CC
100
AcDbEntity
  8
LC-002-002-----0
 62
     7
370
    25
100
AcDbLine
 10
839.769307
 20
2422.23719
 30
0.0
 11
839.945249
 21
2421.840355
 31
0.0
  0
ENDBLK
  5
4CE
330
4CC
100
AcDbEntity
  8
0
100
AcDbBlockEnd
  0
BLOCK
  5
4D7
330
4D6
100
AcDbEntity
  8
0
100
AcDbBlockBegin
  2
POLY9
 70
     0
 71
     0
 10
0.0
 20
0.0
 30
0.0
  3
POLY9
  1

  4
POLY9
  0
LINE
  5
4D9
330
4D6
100
AcDbEntity
  8
LC-002-002-----0
 62
     7
370
    25
100
AcDbLine
 10
839.945249
 20
2438.294754
 30
0.0
 11
839.945249
 21
2438.294754
 31
0.0
  0
LINE
  5
4DA
330
4D6
100
AcDbEntity
  8
LC-002-002-----0
 62
     7
370
    25
100
AcDbLine
 10
839.945249
 20
2438.294754
 30
0.0
 11
839.769297
 21
2437.832892
 31
0.0
  0
LINE
  5
4DB
330
4D6
100
AcDbEntity
  8
LC-002-002-----0
 62
     7
370
    25
100
AcDbLine
 10
839.769297
 20
2437.832892
 30
0.0
 11
839.769297
 21
2437.832892
 31
0.0
  0
LINE
  5
4DC
330
4D6
100
AcDbEntity
  8
LC-002-002-----0
 62
     7
370
    25
100
AcDbLine
 10
839.769297
 20
2437.832892
 30
0.0
 11
839.602611
 21
2437.376037
 31
0.0
  0
LINE
  5
4DD
330
4D6
100
AcDbEntity
  8
LC-002-002-----0
 62
     7
370
    25
100
AcDbLine
 10
839.602611
 20
2437.376037
 30
0.0
 11
839.602611
 21
2437.376037
 31
0.0
  0
LINE
  5
4DE
330
4D6
100
AcDbEntity
  8
LC-002-002-----0
 62
     7
370
    25
100
AcDbLine
 10
839.602611
 20
2437.376037
 30
0.0
 11
839.445249
 21
2436.924286
 31
0.0
  0
ENDBLK
  5
4D8
330
4D6
100
AcDbEntity
  8
0
100
AcDbBlockEnd
  0
BLOCK
  5
4E1
330
4E0
100
AcDbEntity
  8
0
100
AcDbBlockBegin
  2
POLY10
 70
     0
 71
     0
 10
0.0
 20
0.0
 30
0.0
  3
POLY10
  1

  4
POLY10
  0
LINE
  5
4E3
330
4E0
100
AcDbEntity
  8
LC-002-002-----0
 62
     7
370
    25
100
AcDbLine
 10
829.695249
 20
2421.840355
 30
0.0
 11
829.695249
 21
2421.840355
 31
0.0
  0
LINE
  5
4E4
330
4E0
100
AcDbEntity
  8
LC-002-002-----0
 62
     7
370
    25
100
AcDbLine
 10
829.695249
 20
2421.840355
 30
0.0
 11
829.448572
 21
2421.874207
 31
0.0
  0
LINE
  5
4E5
330
4E0
100
AcDbEntity
  8
LC-002-002-----0
 62
     7
370
    25
100
AcDbLine
 10
829.448572
 20
2421.874207
 30
0.0
 11
829.448572
 21
2421.874207
 31
0.0
  0
LINE
  5
4E6
330
4E0
100
AcDbEntity
  8
LC-002-002-----0
 62
     7
370
    25
100
AcDbLine
 10
829.448572
 20
2421.874207
 30
0.0
 11
829.198418
 21
2421.979397
 31
0.0
  0
LINE
  5
4E7
330
4E0
100
AcDbEntity
  8
LC-002-002-----0
 62
     7
370
    25
100
AcDbLine
 10
829.198418
 20
2421.979397
 30
0.0
 11
829.198418
 21
2421.979397
 31
0.0
  0
LINE
  5
4E8
330
4E0
100
AcDbEntity
  8
LC-002-002-----0
 62
     7
370
    25
100
AcDbLine
 10
829.198418
 20
2421.979397
 30
0.0
 11
828.962172
 21
2422.152614
 31
0.0
  0
LINE
  5
4E9
330
4E0
100
AcDbEntity
  8
LC-002-002-----0
 62
     7
370
    25
100
AcDbLine
 10
828.962172
 20
2422.152614
 30
0.0
 11
828.962172
 21
2422.152614
 31
0.0
  0
LINE
  5
4EA
330
4E0
100
AcDbEntity
  8
LC-002-002-----0
 62
     7
370
    25
100
AcDbLine
 10
828.962172
 20
2422.152614
 30
0.0
 11
828.752605
 21
2422.377595
 31
0.0
  0
LINE
  5
4EB
330
4E0
100
AcDbEntity
  8
LC-002-002-----0
 62
     7
370
    25
100
AcDbLine
 10
828.752605
 20
2422.377595
 30
0.0
 11
828.752605
 21
2422.377595
 31
0.0
  0
LINE
  5
4EC
330
4E0
100
AcDbEntity
  8
LC-002-002-----0
 62
     7
370
    25
100
AcDbLine
 10
828.752605
 20
2422.377595
 30
0.0
 11
828.570366
 21
2422.641626
 31
0.0
  0
LINE
  5
4ED
330
4E0
100
AcDbEntity
  8
LC-002-002-----0
 62
     7
370
    25
100
AcDbLine
 10
828.570366
 20
2422.641626
 30
0.0
 11
828.570366
 21
2422.641626
 31
0.0
  0
LINE
  5
4EE
330
4E0
100
AcDbEntity
  8
LC-002-002-----0
 62
     7
370
    25
100
AcDbLine
 10
828.570366
 20
2422.641626
 30
0.0
 11
828.410116
 21
2422.944405
 31
0.0
  0
LINE
  5
4EF
330
4E0
100
AcDbEntity
  8
LC-002-002-----0
 62
     7
370
    25
100
AcDbLine
 10
828.410116
 20
2422.944405
 30
0.0
 11
828.410116
 21
2422.944405
 31
0.0
  0
LINE
  5
4F0
330
4E0
100
AcDbEntity
  8
LC-002-002-----0
 62
     7
370
    25
100
AcDbLine
 10
828.410116
 20
2422.944405
 30
0.0
 11
828.267804
 21
2423.288358
 31
0.0
  0
LINE
  5
4F1
330
4E0
100
AcDbEntity
  8
LC-002-002-----0
 62
     7
370
    25
100
AcDbLine
 10
828.267804
 20
2423.288358
 30
0.0
 11
828.267804
 21
2423.288358
 31
0.0
  0
LINE
  5
4F2
330
4E0
100
AcDbEntity
  8
LC-002-002-----0
 62
     7
370
    25
100
AcDbLine
 10
828.267804
 20
2423.288358
 30
0.0
 11
828.141923
 21
2423.67831
 31
0.0
  0
LINE
  5
4F3
330
4E0
100
AcDbEntity
  8
LC-002-002-----0
 62
     7
370
    25
100
AcDbLine
 10
828.141923
 20
2423.67831
 30
0.0
 11
828.141923
 21
2423.67831
 31
0.0
  0
LINE
  5
4F4
330
4E0
100
AcDbEntity
  8
LC-002-002-----0
 62
     7
370
    25
100
AcDbLine
 10
828.141923
 20
2423.67831
 30
0.0
 11
828.03251
 21
2424.117819
 31
0.0
  0
LINE
  5
4F5
330
4E0
100
AcDbEntity
  8
LC-002-002-----0
 62
     7
370
    25
100
AcDbLine
 10
828.03251
 20
2424.117819
 30
0.0
 11
828.03251
 21
2424.117819
 31
0.0
  0
LINE
  5
4F6
330
4E0
100
AcDbEntity
  8
LC-002-002-----0
 62
     7
370
    25
100
AcDbLine
 10
828.03251
 20
2424.117819
 30
0.0
 11
827.940334
 21
2424.606706
 31
0.0
  0
LINE
  5
4F7
330
4E0
100
AcDbEntity
  8
LC-002-002-----0
 62
     7
370
    25
100
AcDbLine
 10
827.940334
 20
2424.606706
 30
0.0
 11
827.940334
 21
2424.606706
 31
0.0
  0
LINE
  5
4F8
330
4E0
100
AcDbEntity
  8
LC-002-002-----0
 62
     7
370
    25
100
AcDbLine
 10
827.940334
 20
2424.606706
 30
0.0
 11
827.866145
 21
2425.141179
 31
0.0
  0
LINE
  5
4F9
330
4E0
100
AcDbEntity
  8
LC-002-002-----0
 62
     7
370
    25
100
AcDbLine
 10
827.866145
 20
2425.141179
 30
0.0
 11
827.866145
 21
2425.141179
 31
0.0
  0
LINE
  5
4FA
330
4E0
100
AcDbEntity
  8
LC-002-002-----0
 62
     7
370
    25
100
AcDbLine
 10
827.866145
 20
2425.141179
 30
0.0
 11
827.809386
 21
2425.716185
 31
0.0
  0
LINE
  5
4FB
330
4E0
100
AcDbEntity
  8
LC-002-002-----0
 62
     7
370
    25
100
AcDbLine
 10
827.809386
 20
2425.716185
 30
0.0
 11
827.809386
 21
2425.716185
 31
0.0
  0
LINE
  5
4FC
330
4E0
100
AcDbEntity
  8
LC-002-002-----0
 62
     7
370
    25
100
AcDbLine
 10
827.809386
 20
2425.716185
 30
0.0
 11
827.768193
 21
2426.326611
 31
0.0
  0
LINE
  5
4FD
330
4E0
100
AcDbEntity
  8
LC-002-002-----0
 62
     7
370
    25
100
AcDbLine
 10
827.768193
 20
2426.326611
 30
0.0
 11
827.768193
 21
2426.326611
 31
0.0
  0
LINE
  5
4FE
330
4E0
100
AcDbEntity
  8
LC-002-002-----0
 62
     7
370
    25
100
AcDbLine
 10
827.768193
 20
2426.326611
 30
0.0
 11
827.740178
 21
2426.96752
 31
0.0
  0
LINE
  5
4FF
330
4E0
100
AcDbEntity
  8
LC-002-002-----0
 62
     7
370
    25
100
AcDbLine
 10
827.740178
 20
2426.96752
 30
0.0
 11
827.740178
 21
2426.96752
 31
0.0
  0
LINE
  5
500
330
4E0
100
AcDbEntity
  8
LC-002-002-----0
 62
     7
370
    25
100
AcDbLine
 10
827.740178
 20
2426.96752
 30
0.0
 11
827.722368
 21
2427.633956
 31
0.0
  0
LINE
  5
501
330
4E0
100
AcDbEntity
  8
LC-002-002-----0
 62
     7
370
    25
100
AcDbLine
 10
827.722368
 20
2427.633956
 30
0.0
 11
827.722368
 21
2427.633956
 31
0.0
  0
LINE
  5
502
330
4E0
100
AcDbEntity
  8
LC-002-002-----0
 62
     7
370
    25
100
AcDbLine
 10
827.722368
 20
2427.633956
 30
0.0
 11
827.711797
 21
2428.320922
 31
0.0
  0
LINE
  5
503
330
4E0
100
AcDbEntity
  8
LC-002-002-----0
 62
     7
370
    25
100
AcDbLine
 10
827.711797
 20
2428.320922
 30
0.0
 11
827.711797
 21
2428.320922
 31
0.0
  0
LINE
  5
504
330
4E0
100
AcDbEntity
  8
LC-002-002-----0
 62
     7
370
    25
100
AcDbLine
 10
827.711797
 20
2428.320922
 30
0.0
 11
827.706735
 21
2429.023395
 31
0.0
  0
LINE
  5
505
330
4E0
100
AcDbEntity
  8
LC-002-002-----0
 62
     7
370
    25
100
AcDbLine
 10
827.706735
 20
2429.023395
 30
0.0
 11
827.706735
 21
2429.023395
 31
0.0
  0
LINE
  5
506
330
4E0
100
AcDbEntity
  8
LC-002-002-----0
 62
     7
370
    25
100
AcDbLine
 10
827.706735
 20
2429.023395
 30
0.0
 11
827.705443
 21
2429.736224
 31
0.0
  0
LINE
  5
507
330
4E0
100
AcDbEntity
  8
LC-002-002-----0
 62
     7
370
    25
100
AcDbLine
 10
827.705443
 20
2429.736224
 30
0.0
 11
827.705443
 21
2429.736224
 31
0.0
  0
LINE
  5
508
330
4E0
100
AcDbEntity
  8
LC-002-002-----0
 62
     7
370
    25
100
AcDbLine
 10
827.705443
 20
2429.736224
 30
0.0
 11
827.706618
 21
2430.454096
 31
0.0
  0
LINE
  5
509
330
4E0
100
AcDbEntity
  8
LC-002-002-----0
 62
     7
370
    25
100
AcDbLine
 10
827.706618
 20
2430.454096
 30
0.0
 11
827.706618
 21
2430.454096
 31
0.0
  0
LINE
  5
50A
330
4E0
100
AcDbEntity
  8
LC-002-002-----0
 62
     7
370
    25
100
AcDbLine
 10
827.706618
 20
2430.454096
 30
0.0
 11
827.711513
 21
2431.171519
 31
0.0
  0
LINE
  5
50B
330
4E0
100
AcDbEntity
  8
LC-002-002-----0
 62
     7
370
    25
100
AcDbLine
 10
827.711513
 20
2431.171519
 30
0.0
 11
827.711513
 21
2431.171519
 31
0.0
  0
LINE
  5
50C
330
4E0
100
AcDbEntity
  8
LC-002-002-----0
 62
     7
370
    25
100
AcDbLine
 10
827.711513
 20
2431.171519
 30
0.0
 11
827.721889
 21
2431.882857
 31
0.0
  0
LINE
  5
50D
330
4E0
100
AcDbEntity
  8
LC-002-002-----0
 62
     7
370
    25
100
AcDbLine
 10
827.721889
 20
2431.882857
 30
0.0
 11
827.721889
 21
2431.882857
 31
0.0
  0
LINE
  5
50E
330
4E0
100
AcDbEntity
  8
LC-002-002-----0
 62
     7
370
    25
100
AcDbLine
 10
827.721889
 20
2431.882857
 30
0.0
 11
827.739466
 21
2432.582327
 31
0.0
  0
LINE
  5
50F
330
4E0
100
AcDbEntity
  8
LC-002-002-----0
 62
     7
370
    25
100
AcDbLine
 10
827.739466
 20
2432.582327
 30
0.0
 11
827.739466
 21
2432.582327
 31
0.0
  0
LINE
  5
510
330
4E0
100
AcDbEntity
  8
LC-002-002-----0
 62
     7
370
    25
100
AcDbLine
 10
827.739466
 20
2432.582327
 30
0.0
 11
827.76716
 21
2433.2639
 31
0.0
  0
LINE
  5
511
330
4E0
100
AcDbEntity
  8
LC-002-002-----0
 62
     7
370
    25
100
AcDbLine
 10
827.76716
 20
2433.2639
 30
0.0
 11
827.76716
 21
2433.2639
 31
0.0
  0
LINE
  5
512
330
4E0
100
AcDbEntity
  8
LC-002-002-----0
 62
     7
370
    25
100
AcDbLine
 10
827.76716
 20
2433.2639
 30
0.0
 11
827.807956
 21
2433.921331
 31
0.0
  0
LINE
  5
513
330
4E0
100
AcDbEntity
  8
LC-002-002-----0
 62
     7
370
    25
100
AcDbLine
 10
827.807956
 20
2433.921331
 30
0.0
 11
827.807956
 21
2433.921331
 31
0.0
  0
LINE
  5
514
330
4E0
100
AcDbEntity
  8
LC-002-002-----0
 62
     7
370
    25
100
AcDbLine
 10
827.807956
 20
2433.921331
 30
0.0
 11
827.864318
 21
2434.548155
 31
0.0
  0
LINE
  5
515
330
4E0
100
AcDbEntity
  8
LC-002-002-----0
 62
     7
370
    25
100
AcDbLine
 10
827.864318
 20
2434.548155
 30
0.0
 11
827.864318
 21
2434.548155
 31
0.0
  0
LINE
  5
516
330
4E0
100
AcDbEntity
  8
LC-002-002-----0
 62
     7
370
    25
100
AcDbLine
 10
827.864318
 20
2434.548155
 30
0.0
 11
827.938153
 21
2435.137516
 31
0.0
  0
LINE
  5
517
330
4E0
100
AcDbEntity
  8
LC-002-002-----0
 62
     7
370
    25
100
AcDbLine
 10
827.938153
 20
2435.137516
 30
0.0
 11
827.938153
 21
2435.137516
 31
0.0
  0
LINE
  5
518
330
4E0
100
AcDbEntity
  8
LC-002-002-----0
 62
     7
370
    25
100
AcDbLine
 10
827.938153
 20
2435.137516
 30
0.0
 11
828.030084
 21
2435.682415
 31
0.0
  0
LINE
  5
519
330
4E0
100
AcDbEntity
  8
LC-002-002-----0
 62
     7
370
    25
100
AcDbLine
 10
828.030084
 20
2435.682415
 30
0.0
 11
828.030084
 21
2435.682415
 31
0.0
  0
LINE
  5
51A
330
4E0
100
AcDbEntity
  8
LC-002-002-----0
 62
     7
370
    25
100
AcDbLine
 10
828.030084
 20
2435.682415
 30
0.0
 11
828.13936
 21
2436.177042
 31
0.0
  0
LINE
  5
51B
330
4E0
100
AcDbEntity
  8
LC-002-002-----0
 62
     7
370
    25
100
AcDbLine
 10
828.13936
 20
2436.177042
 30
0.0
 11
828.13936
 21
2436.177042
 31
0.0
  0
LINE
  5
51C
330
4E0
100
AcDbEntity
  8
LC-002-002-----0
 62
     7
370
    25
100
AcDbLine
 10
828.13936
 20
2436.177042
 30
0.0
 11
828.265213
 21
2436.619701
 31
0.0
  0
LINE
  5
51D
330
4E0
100
AcDbEntity
  8
LC-002-002-----0
 62
     7
370
    25
100
AcDbLine
 10
828.265213
 20
2436.619701
 30
0.0
 11
828.265213
 21
2436.619701
 31
0.0
  0
LINE
  5
51E
330
4E0
100
AcDbEntity
  8
LC-002-002-----0
 62
     7
370
    25
100
AcDbLine
 10
828.265213
 20
2436.619701
 30
0.0
 11
828.407592
 21
2437.013064
 31
0.0
  0
LINE
  5
51F
330
4E0
100
AcDbEntity
  8
LC-002-002-----0
 62
     7
370
    25
100
AcDbLine
 10
828.407592
 20
2437.013064
 30
0.0
 11
828.407592
 21
2437.013064
 31
0.0
  0
LINE
  5
520
330
4E0
100
AcDbEntity
  8
LC-002-002-----0
 62
     7
370
    25
100
AcDbLine
 10
828.407592
 20
2437.013064
 30
0.0
 11
828.568025
 21
2437.3616
 31
0.0
  0
LINE
  5
521
330
4E0
100
AcDbEntity
  8
LC-002-002-----0
 62
     7
370
    25
100
AcDbLine
 10
828.568025
 20
2437.3616
 30
0.0
 11
828.568025
 21
2437.3616
 31
0.0
  0
LINE
  5
522
330
4E0
100
AcDbEntity
  8
LC-002-002-----0
 62
     7
370
    25
100
AcDbLine
 10
828.568025
 20
2437.3616
 30
0.0
 11
828.750478
 21
2437.667337
 31
0.0
  0
LINE
  5
523
330
4E0
100
AcDbEntity
  8
LC-002-002-----0
 62
     7
370
    25
100
AcDbLine
 10
828.750478
 20
2437.667337
 30
0.0
 11
828.750478
 21
2437.667337
 31
0.0
  0
LINE
  5
524
330
4E0
100
AcDbEntity
  8
LC-002-002-----0
 62
     7
370
    25
100
AcDbLine
 10
828.750478
 20
2437.667337
 30
0.0
 11
828.960392
 21
2437.929203
 31
0.0
  0
LINE
  5
525
330
4E0
100
AcDbEntity
  8
LC-002-002-----0
 62
     7
370
    25
100
AcDbLine
 10
828.960392
 20
2437.929203
 30
0.0
 11
828.960392
 21
2437.929203
 31
0.0
  0
LINE
  5
526
330
4E0
100
AcDbEntity
  8
LC-002-002-----0
 62
     7
370
    25
100
AcDbLine
 10
828.960392
 20
2437.929203
 30
0.0
 11
829.197319
 21
2438.131733
 31
0.0
  0
LINE
  5
527
330
4E0
100
AcDbEntity
  8
LC-002-002-----0
 62
     7
370
    25
100
AcDbLine
 10
829.197319
 20
2438.131733
 30
0.0
 11
829.197319
 21
2438.131733
 31
0.0
  0
LINE
  5
528
330
4E0
100
AcDbEntity
  8
LC-002-002-----0
 62
     7
370
    25
100
AcDbLine
 10
829.197319
 20
2438.131733
 30
0.0
 11
829.448222
 21
2438.255096
 31
0.0
  0
LINE
  5
529
330
4E0
100
AcDbEntity
  8
LC-002-002-----0
 62
     7
370
    25
100
AcDbLine
 10
829.448222
 20
2438.255096
 30
0.0
 11
829.448222
 21
2438.255096
 31
0.0
  0
LINE
  5
52A
330
4E0
100
AcDbEntity
  8
LC-002-002-----0
 62
     7
370
    25
100
AcDbLine
 10
829.448222
 20
2438.255096
 30
0.0
 11
829.695249
 21
2438.294754
 31
0.0
  0
ENDBLK
  5
4E2
330
4E0
100
AcDbEntity
  8
0
100
AcDbBlockEnd
  0
BLOCK
  5
52D
330
52C
100
AcDbEntity
  8
0
100
AcDbBlockBegin
  2
POLY11
 70
     0
 71
     0
 10
0.0
 20
0.0
 30
0.0
  3
POLY11
  1

  4
POLY11
  0
LINE
  5
52F
330
52C
100
AcDbEntity
  8
LC-002-002-----0
 62
     7
370
    25
100
AcDbLine
 10
839.945249
 20
2456.04015
 30
0.0
 11
839.945249
 21
2456.04015
 31
0.0
  0
LINE
  5
530
330
52C
100
AcDbEntity
  8
LC-002-002-----0
 62
     7
370
    25
100
AcDbLine
 10
839.945249
 20
2456.04015
 30
0.0
 11
839.769322
 21
2456.105112
 31
0.0
  0
LINE
  5
531
330
52C
100
AcDbEntity
  8
LC-002-002-----0
 62
     7
370
    25
100
AcDbLine
 10
839.769322
 20
2456.105112
 30
0.0
 11
839.769322
 21
2456.105112
 31
0.0
  0
LINE
  5
532
330
52C
100
AcDbEntity
  8
LC-002-002-----0
 62
     7
370
    25
100
AcDbLine
 10
839.769322
 20
2456.105112
 30
0.0
 11
839.602635
 21
2456.166131
 31
0.0
  0
LINE
  5
533
330
52C
100
AcDbEntity
  8
LC-002-002-----0
 62
     7
370
    25
100
AcDbLine
 10
839.602635
 20
2456.166131
 30
0.0
 11
839.602635
 21
2456.166131
 31
0.0
  0
LINE
  5
534
330
52C
100
AcDbEntity
  8
LC-002-002-----0
 62
     7
370
    25
100
AcDbLine
 10
839.602635
 20
2456.166131
 30
0.0
 11
839.445249
 21
2456.223271
 31
0.0
  0
ENDBLK
  5
52E
330
52C
100
AcDbEntity
  8
0
100
AcDbBlockEnd
  0
BLOCK
  5
537
330
536
100
AcDbEntity
  8
0
100
AcDbBlockBegin
  2
POLY12
 70
     0
 71
     0
 10
0.0
 20
0.0
 30
0.0
  3
POLY12
  1

  4
POLY12
  0
LINE
  5
539
330
536
100
AcDbEntity
  8
LC-002-002-----0
 62
     7
370
    25
100
AcDbLine
 10
839.445249
 20
2454.42266
 30
0.0
 11
839.445249
 21
2454.42266
 31
0.0
  0
LINE
  5
53A
330
536
100
AcDbEntity
  8
LC-002-002-----0
 62
     7
370
    25
100
AcDbLine
 10
839.445249
 20
2454.42266
 30
0.0
 11
839.602621
 21
2454.817269
 31
0.0
  0
LINE
  5
53B
330
536
100
AcDbEntity
  8
LC-002-002-----0
 62
     7
370
    25
100
AcDbLine
 10
839.602621
 20
2454.817269
 30
0.0
 11
839.602621
 21
2454.817269
 31
0.0
  0
LINE
  5
53C
330
536
100
AcDbEntity
  8
LC-002-002-----0
 62
     7
370
    25
100
AcDbLine
 10
839.602621
 20
2454.817269
 30
0.0
 11
839.769307
 21
2455.213072
 31
0.0
  0
LINE
  5
53D
330
536
100
AcDbEntity
  8
LC-002-002-----0
 62
     7
370
    25
100
AcDbLine
 10
839.769307
 20
2455.213072
 30
0.0
 11
839.769307
 21
2455.213072
 31
0.0
  0
LINE
  5
53E
330
536
100
AcDbEntity
  8
LC-002-002-----0
 62
     7
370
    25
100
AcDbLine
 10
839.769307
 20
2455.213072
 30
0.0
 11
839.945249
 21
2455.609908
 31
0.0
  0
ENDBLK
  5
538
330
536
100
AcDbEntity
  8
0
100
AcDbBlockEnd
  0
BLOCK
  5
541
330
540
100
AcDbEntity
  8
0
100
AcDbBlockBegin
  2
POLY13
 70
     0
 71
     0
 10
0.0
 20
0.0
 30
0.0
  3
POLY13
  1

  4
POLY13
  0
LINE
  5
543
330
540
100
AcDbEntity
  8
LC-002-002-----0
 62
     7
370
    25
100
AcDbLine
 10
839.945249
 20
2439.155508
 30
0.0
 11
839.945249
 21
2439.155508
 31
0.0
  0
LINE
  5
544
330
540
100
AcDbEntity
  8
LC-002-002-----0
 62
     7
370
    25
100
AcDbLine
 10
839.945249
 20
2439.155508
 30
0.0
 11
839.769297
 21
2439.61737
 31
0.0
  0
LINE
  5
545
330
540
100
AcDbEntity
  8
LC-002-002-----0
 62
     7
370
    25
100
AcDbLine
 10
839.769297
 20
2439.61737
 30
0.0
 11
839.769297
 21
2439.61737
 31
0.0
  0
LINE
  5
546
330
540
100
AcDbEntity
  8
LC-002-002-----0
 62
     7
370
    25
100
AcDbLine
 10
839.769297
 20
2439.61737
 30
0.0
 11
839.602611
 21
2440.074225
 31
0.0
  0
LINE
  5
547
330
540
100
AcDbEntity
  8
LC-002-002-----0
 62
     7
370
    25
100
AcDbLine
 10
839.602611
 20
2440.074225
 30
0.0
 11
839.602611
 21
2440.074225
 31
0.0
  0
LINE
  5
548
330
540
100
AcDbEntity
  8
LC-002-002-----0
 62
     7
370
    25
100
AcDbLine
 10
839.602611
 20
2440.074225
 30
0.0
 11
839.445249
 21
2440.525977
 31
0.0
  0
ENDBLK
  5
542
330
540
100
AcDbEntity
  8
0
100
AcDbBlockEnd
  0
BLOCK
  5
54B
330
54A
100
AcDbEntity
  8
0
100
AcDbBlockBegin
  2
POLY14
 70
     0
 71
     0
 10
0.0
 20
0.0
 30
0.0
  3
POLY14
  1

  4
POLY14
  0
LINE
  5
54D
330
54A
100
AcDbEntity
  8
LC-002-002-----0
 62
     7
370
    25
100
AcDbLine
 10
829.695249
 20
2455.609908
 30
0.0
 11
829.695249
 21
2455.609908
 31
0.0
  0
LINE
  5
54E
330
54A
100
AcDbEntity
  8
LC-002-002-----0
 62
     7
370
    25
100
AcDbLine
 10
829.695249
 20
2455.609908
 30
0.0
 11
829.448572
 21
2455.576056
 31
0.0
  0
LINE
  5
54F
330
54A
100
AcDbEntity
  8
LC-002-002-----0
 62
     7
370
    25
100
AcDbLine
 10
829.448572
 20
2455.576056
 30
0.0
 11
829.448572
 21
2455.576056
 31
0.0
  0
LINE
  5
550
330
54A
100
AcDbEntity
  8
LC-002-002-----0
 62
     7
370
    25
100
AcDbLine
 10
829.448572
 20
2455.576056
 30
0.0
 11
829.198418
 21
2455.470865
 31
0.0
  0
LINE
  5
551
330
54A
100
AcDbEntity
  8
LC-002-002-----0
 62
     7
370
    25
100
AcDbLine
 10
829.198418
 20
2455.470865
 30
0.0
 11
829.198418
 21
2455.470865
 31
0.0
  0
LINE
  5
552
330
54A
100
AcDbEntity
  8
LC-002-002-----0
 62
     7
370
    25
100
AcDbLine
 10
829.198418
 20
2455.470865
 30
0.0
 11
828.962172
 21
2455.297648
 31
0.0
  0
LINE
  5
553
330
54A
100
AcDbEntity
  8
LC-002-002-----0
 62
     7
370
    25
100
AcDbLine
 10
828.962172
 20
2455.297648
 30
0.0
 11
828.962172
 21
2455.297648
 31
0.0
  0
LINE
  5
554
330
54A
100
AcDbEntity
  8
LC-002-002-----0
 62
     7
370
    25
100
AcDbLine
 10
828.962172
 20
2455.297648
 30
0.0
 11
828.752605
 21
2455.072667
 31
0.0
  0
LINE
  5
555
330
54A
100
AcDbEntity
  8
LC-002-002-----0
 62
     7
370
    25
100
AcDbLine
 10
828.752605
 20
2455.072667
 30
0.0
 11
828.752605
 21
2455.072667
 31
0.0
  0
LINE
  5
556
330
54A
100
AcDbEntity
  8
LC-002-002-----0
 62
     7
370
    25
100
AcDbLine
 10
828.752605
 20
2455.072667
 30
0.0
 11
828.570366
 21
2454.808636
 31
0.0
  0
LINE
  5
557
330
54A
100
AcDbEntity
  8
LC-002-002-----0
 62
     7
370
    25
100
AcDbLine
 10
828.570366
 20
2454.808636
 30
0.0
 11
828.570366
 21
2454.808636
 31
0.0
  0
LINE
  5
558
330
54A
100
AcDbEntity
  8
LC-002-002-----0
 62
     7
370
    25
100
AcDbLine
 10
828.570366
 20
2454.808636
 30
0.0
 11
828.410116
 21
2454.505857
 31
0.0
  0
LINE
  5
559
330
54A
100
AcDbEntity
  8
LC-002-002-----0
 62
     7
370
    25
100
AcDbLine
 10
828.410116
 20
2454.505857
 30
0.0
 11
828.410116
 21
2454.505857
 31
0.0
  0
LINE
  5
55A
330
54A
100
AcDbEntity
  8
LC-002-002-----0
 62
     7
370
    25
100
AcDbLine
 10
828.410116
 20
2454.505857
 30
0.0
 11
828.267804
 21
2454.161904
 31
0.0
  0
LINE
  5
55B
330
54A
100
AcDbEntity
  8
LC-002-002-----0
 62
     7
370
    25
100
AcDbLine
 10
828.267804
 20
2454.161904
 30
0.0
 11
828.267804
 21
2454.161904
 31
0.0
  0
LINE
  5
55C
330
54A
100
AcDbEntity
  8
LC-002-002-----0
 62
     7
370
    25
100
AcDbLine
 10
828.267804
 20
2454.161904
 30
0.0
 11
828.141923
 21
2453.771952
 31
0.0
  0
LINE
  5
55D
330
54A
100
AcDbEntity
  8
LC-002-002-----0
 62
     7
370
    25
100
AcDbLine
 10
828.141923
 20
2453.771952
 30
0.0
 11
828.141923
 21
2453.771952
 31
0.0
  0
LINE
  5
55E
330
54A
100
AcDbEntity
  8
LC-002-002-----0
 62
     7
370
    25
100
AcDbLine
 10
828.141923
 20
2453.771952
 30
0.0
 11
828.03251
 21
2453.332443
 31
0.0
  0
LINE
  5
55F
330
54A
100
AcDbEntity
  8
LC-002-002-----0
 62
     7
370
    25
100
AcDbLine
 10
828.03251
 20
2453.332443
 30
0.0
 11
828.03251
 21
2453.332443
 31
0.0
  0
LINE
  5
560
330
54A
100
AcDbEntity
  8
LC-002-002-----0
 62
     7
370
    25
100
AcDbLine
 10
828.03251
 20
2453.332443
 30
0.0
 11
827.940334
 21
2452.843556
 31
0.0
  0
LINE
  5
561
330
54A
100
AcDbEntity
  8
LC-002-002-----0
 62
     7
370
    25
100
AcDbLine
 10
827.940334
 20
2452.843556
 30
0.0
 11
827.940334
 21
2452.843556
 31
0.0
  0
LINE
  5
562
330
54A
100
AcDbEntity
  8
LC-002-002-----0
 62
     7
370
    25
100
AcDbLine
 10
827.940334
 20
2452.843556
 30
0.0
 11
827.866145
 21
2452.309083
 31
0.0
  0
LINE
  5
563
330
54A
100
AcDbEntity
  8
LC-002-002-----0
 62
     7
370
    25
100
AcDbLine
 10
827.866145
 20
2452.309083
 30
0.0
 11
827.866145
 21
2452.309083
 31
0.0
  0
LINE
  5
564
330
54A
100
AcDbEntity
  8
LC-002-002-----0
 62
     7
370
    25
100
AcDbLine
 10
827.866145
 20
2452.309083
 30
0.0
 11
827.809386
 21
2451.734077
 31
0.0
  0
LINE
  5
565
330
54A
100
AcDbEntity
  8
LC-002-002-----0
 62
     7
370
    25
100
AcDbLine
 10
827.809386
 20
2451.734077
 30
0.0
 11
827.809386
 21
2451.734077
 31
0.0
  0
LINE
  5
566
330
54A
100
AcDbEntity
  8
LC-002-002-----0
 62
     7
370
    25
100
AcDbLine
 10
827.809386
 20
2451.734077
 30
0.0
 11
827.768193
 21
2451.123651
 31
0.0
  0
LINE
  5
567
330
54A
100
AcDbEntity
  8
LC-002-002-----0
 62
     7
370
    25
100
AcDbLine
 10
827.768193
 20
2451.123651
 30
0.0
 11
827.768193
 21
2451.123651
 31
0.0
  0
LINE
  5
568
330
54A
100
AcDbEntity
  8
LC-002-002-----0
 62
     7
370
    25
100
AcDbLine
 10
827.768193
 20
2451.123651
 30
0.0
 11
827.740178
 21
2450.482742
 31
0.0
  0
LINE
  5
569
330
54A
100
AcDbEntity
  8
LC-002-002-----0
 62
     7
370
    25
100
AcDbLine
 10
827.740178
 20
2450.482742
 30
0.0
 11
827.740178
 21
2450.482742
 31
0.0
  0
LINE
  5
56A
330
54A
100
AcDbEntity
  8
LC-002-002-----0
 62
     7
370
    25
100
AcDbLine
 10
827.740178
 20
2450.482742
 30
0.0
 11
827.722368
 21
2449.816306
 31
0.0
  0
LINE
  5
56B
330
54A
100
AcDbEntity
  8
LC-002-002-----0
 62
     7
370
    25
100
AcDbLine
 10
827.722368
 20
2449.816306
 30
0.0
 11
827.722368
 21
2449.816306
 31
0.0
  0
LINE
  5
56C
330
54A
100
AcDbEntity
  8
LC-002-002-----0
 62
     7
370
    25
100
AcDbLine
 10
827.722368
 20
2449.816306
 30
0.0
 11
827.711797
 21
2449.12934
 31
0.0
  0
LINE
  5
56D
330
54A
100
AcDbEntity
  8
LC-002-002-----0
 62
     7
370
    25
100
AcDbLine
 10
827.711797
 20
2449.12934
 30
0.0
 11
827.711797
 21
2449.12934
 31
0.0
  0
LINE
  5
56E
330
54A
100
AcDbEntity
  8
LC-002-002-----0
 62
     7
370
    25
100
AcDbLine
 10
827.711797
 20
2449.12934
 30
0.0
 11
827.706735
 21
2448.426867
 31
0.0
  0
LINE
  5
56F
330
54A
100
AcDbEntity
  8
LC-002-002-----0
 62
     7
370
    25
100
AcDbLine
 10
827.706735
 20
2448.426867
 30
0.0
 11
827.706735
 21
2448.426867
 31
0.0
  0
LINE
  5
570
330
54A
100
AcDbEntity
  8
LC-002-002-----0
 62
     7
370
    25
100
AcDbLine
 10
827.706735
 20
2448.426867
 30
0.0
 11
827.705443
 21
2447.714038
 31
0.0
  0
LINE
  5
571
330
54A
100
AcDbEntity
  8
LC-002-002-----0
 62
     7
370
    25
100
AcDbLine
 10
827.705443
 20
2447.714038
 30
0.0
 11
827.705443
 21
2447.714038
 31
0.0
  0
LINE
  5
572
330
54A
100
AcDbEntity
  8
LC-002-002-----0
 62
     7
370
    25
100
AcDbLine
 10
827.705443
 20
2447.714038
 30
0.0
 11
827.706618
 21
2446.996166
 31
0.0
  0
LINE
  5
573
330
54A
100
AcDbEntity
  8
LC-002-002-----0
 62
     7
370
    25
100
AcDbLine
 10
827.706618
 20
2446.996166
 30
0.0
 11
827.706618
 21
2446.996166
 31
0.0
  0
LINE
  5
574
330
54A
100
AcDbEntity
  8
LC-002-002-----0
 62
     7
370
    25
100
AcDbLine
 10
827.706618
 20
2446.996166
 30
0.0
 11
827.711513
 21
2446.278743
 31
0.0
  0
LINE
  5
575
330
54A
100
AcDbEntity
  8
LC-002-002-----0
 62
     7
370
    25
100
AcDbLine
 10
827.711513
 20
2446.278743
 30
0.0
 11
827.711513
 21
2446.278743
 31
0.0
  0
LINE
  5
576
330
54A
100
AcDbEntity
  8
LC-002-002-----0
 62
     7
370
    25
100
AcDbLine
 10
827.711513
 20
2446.278743
 30
0.0
 11
827.721889
 21
2445.567405
 31
0.0
  0
LINE
  5
577
330
54A
100
AcDbEntity
  8
LC-002-002-----0
 62
     7
370
    25
100
AcDbLine
 10
827.721889
 20
2445.567405
 30
0.0
 11
827.721889
 21
2445.567405
 31
0.0
  0
LINE
  5
578
330
54A
100
AcDbEntity
  8
LC-002-002-----0
 62
     7
370
    25
100
AcDbLine
 10
827.721889
 20
2445.567405
 30
0.0
 11
827.739466
 21
2444.867935
 31
0.0
  0
LINE
  5
579
330
54A
100
AcDbEntity
  8
LC-002-002-----0
 62
     7
370
    25
100
AcDbLine
 10
827.739466
 20
2444.867935
 30
0.0
 11
827.739466
 21
2444.867935
 31
0.0
  0
LINE
  5
57A
330
54A
100
AcDbEntity
  8
LC-002-002-----0
 62
     7
370
    25
100
AcDbLine
 10
827.739466
 20
2444.867935
 30
0.0
 11
827.76716
 21
2444.186362
 31
0.0
  0
LINE
  5
57B
330
54A
100
AcDbEntity
  8
LC-002-002-----0
 62
     7
370
    25
100
AcDbLine
 10
827.76716
 20
2444.186362
 30
0.0
 11
827.76716
 21
2444.186362
 31
0.0
  0
LINE
  5
57C
330
54A
100
AcDbEntity
  8
LC-002-002-----0
 62
     7
370
    25
100
AcDbLine
 10
827.76716
 20
2444.186362
 30
0.0
 11
827.807956
 21
2443.528931
 31
0.0
  0
LINE
  5
57D
330
54A
100
AcDbEntity
  8
LC-002-002-----0
 62
     7
370
    25
100
AcDbLine
 10
827.807956
 20
2443.528931
 30
0.0
 11
827.807956
 21
2443.528931
 31
0.0
  0
LINE
  5
57E
330
54A
100
AcDbEntity
  8
LC-002-002-----0
 62
     7
370
    25
100
AcDbLine
 10
827.807956
 20
2443.528931
 30
0.0
 11
827.864318
 21
2442.902108
 31
0.0
  0
LINE
  5
57F
330
54A
100
AcDbEntity
  8
LC-002-002-----0
 62
     7
370
    25
100
AcDbLine
 10
827.864318
 20
2442.902108
 30
0.0
 11
827.864318
 21
2442.902108
 31
0.0
  0
LINE
  5
580
330
54A
100
AcDbEntity
  8
LC-002-002-----0
 62
     7
370
    25
100
AcDbLine
 10
827.864318
 20
2442.902108
 30
0.0
 11
827.938153
 21
2442.312746
 31
0.0
  0
LINE
  5
581
330
54A
100
AcDbEntity
  8
LC-002-002-----0
 62
     7
370
    25
100
AcDbLine
 10
827.938153
 20
2442.312746
 30
0.0
 11
827.938153
 21
2442.312746
 31
0.0
  0
LINE
  5
582
330
54A
100
AcDbEntity
  8
LC-002-002-----0
 62
     7
370
    25
100
AcDbLine
 10
827.938153
 20
2442.312746
 30
0.0
 11
828.030084
 21
2441.767847
 31
0.0
  0
LINE
  5
583
330
54A
100
AcDbEntity
  8
LC-002-002-----0
 62
     7
370
    25
100
AcDbLine
 10
828.030084
 20
2441.767847
 30
0.0
 11
828.030084
 21
2441.767847
 31
0.0
  0
LINE
  5
584
330
54A
100
AcDbEntity
  8
LC-002-002-----0
 62
     7
370
    25
100
AcDbLine
 10
828.030084
 20
2441.767847
 30
0.0
 11
828.13936
 21
2441.27322
 31
0.0
  0
LINE
  5
585
330
54A
100
AcDbEntity
  8
LC-002-002-----0
 62
     7
370
    25
100
AcDbLine
 10
828.13936
 20
2441.27322
 30
0.0
 11
828.13936
 21
2441.27322
 31
0.0
  0
LINE
  5
586
330
54A
100
AcDbEntity
  8
LC-002-002-----0
 62
     7
370
    25
100
AcDbLine
 10
828.13936
 20
2441.27322
 30
0.0
 11
828.265213
 21
2440.830561
 31
0.0
  0
LINE
  5
587
330
54A
100
AcDbEntity
  8
LC-002-002-----0
 62
     7
370
    25
100
AcDbLine
 10
828.265213
 20
2440.830561
 30
0.0
 11
828.265213
 21
2440.830561
 31
0.0
  0
LINE
  5
588
330
54A
100
AcDbEntity
  8
LC-002-002-----0
 62
     7
370
    25
100
AcDbLine
 10
828.265213
 20
2440.830561
 30
0.0
 11
828.407592
 21
2440.437198
 31
0.0
  0
LINE
  5
589
330
54A
100
AcDbEntity
  8
LC-002-002-----0
 62
     7
370
    25
100
AcDbLine
 10
828.407592
 20
2440.437198
 30
0.0
 11
828.407592
 21
2440.437198
 31
0.0
  0
LINE
  5
58A
330
54A
100
AcDbEntity
  8
LC-002-002-----0
 62
     7
370
    25
100
AcDbLine
 10
828.407592
 20
2440.437198
 30
0.0
 11
828.568025
 21
2440.088662
 31
0.0
  0
LINE
  5
58B
330
54A
100
AcDbEntity
  8
LC-002-002-----0
 62
     7
370
    25
100
AcDbLine
 10
828.568025
 20
2440.088662
 30
0.0
 11
828.568025
 21
2440.088662
 31
0.0
  0
LINE
  5
58C
330
54A
100
AcDbEntity
  8
LC-002-002-----0
 62
     7
370
    25
100
AcDbLine
 10
828.568025
 20
2440.088662
 30
0.0
 11
828.750478
 21
2439.782925
 31
0.0
  0
LINE
  5
58D
330
54A
100
AcDbEntity
  8
LC-002-002-----0
 62
     7
370
    25
100
AcDbLine
 10
828.750478
 20
2439.782925
 30
0.0
 11
828.750478
 21
2439.782925
 31
0.0
  0
LINE
  5
58E
330
54A
100
AcDbEntity
  8
LC-002-002-----0
 62
     7
370
    25
100
AcDbLine
 10
828.750478
 20
2439.782925
 30
0.0
 11
828.960392
 21
2439.521059
 31
0.0
  0
LINE
  5
58F
330
54A
100
AcDbEntity
  8
LC-002-002-----0
 62
     7
370
    25
100
AcDbLine
 10
828.960392
 20
2439.521059
 30
0.0
 11
828.960392
 21
2439.521059
 31
0.0
  0
LINE
  5
590
330
54A
100
AcDbEntity
  8
LC-002-002-----0
 62
     7
370
    25
100
AcDbLine
 10
828.960392
 20
2439.521059
 30
0.0
 11
829.197319
 21
2439.318529
 31
0.0
  0
LINE
  5
591
330
54A
100
AcDbEntity
  8
LC-002-002-----0
 62
     7
370
    25
100
AcDbLine
 10
829.197319
 20
2439.318529
 30
0.0
 11
829.197319
 21
2439.318529
 31
0.0
  0
LINE
  5
592
330
54A
100
AcDbEntity
  8
LC-002-002-----0
 62
     7
370
    25
100
AcDbLine
 10
829.197319
 20
2439.318529
 30
0.0
 11
829.448222
 21
2439.195166
 31
0.0
  0
LINE
  5
593
330
54A
100
AcDbEntity
  8
LC-002-002-----0
 62
     7
370
    25
100
AcDbLine
 10
829.448222
 20
2439.195166
 30
0.0
 11
829.448222
 21
2439.195166
 31
0.0
  0
LINE
  5
594
330
54A
100
AcDbEntity
  8
LC-002-002-----0
 62
     7
370
    25
100
AcDbLine
 10
829.448222
 20
2439.195166
 30
0.0
 11
829.695249
 21
2439.155508
 31
0.0
  0
ENDBLK
  5
54C
330
54A
100
AcDbEntity
  8
0
100
AcDbBlockEnd
  0
BLOCK
  5
5A9
330
5A8
100
AcDbEntity
  8
0
100
AcDbBlockBegin
  2
POLY15
 70
     0
 71
     0
 10
0.0
 20
0.0
 30
0.0
  3
POLY15
  1

  4
POLY15
  0
LINE
  5
5AB
330
5A8
100
AcDbEntity
  8
LC-002-002-----0
 62
     7
370
    25
100
AcDbLine
 10
929.547875
 20
2366.397918
 30
0.0
 11
929.572916
 21
2366.372903
 31
0.0
  0
ENDBLK
  5
5AA
330
5A8
100
AcDbEntity
  8
0
100
AcDbBlockEnd
  0
BLOCK
  5
5FC
330
5FB
100
AcDbEntity
  8
0
100
AcDbBlockBegin
  2
POLY16
 70
     0
 71
     0
 10
0.0
 20
0.0
 30
0.0
  3
POLY16
  1

  4
POLY16
  0
LINE
  5
5FE
330
5FB
100
AcDbEntity
  8
LC-002-002-----0
 62
     7
370
    25
100
AcDbLine
 10
1549.005815
 20
2027.150658
 30
0.0
 11
1548.980799
 21
2027.125618
 31
0.0
  0
ENDBLK
  5
5FD
330
5FB
100
AcDbEntity
  8
0
100
AcDbBlockEnd
  0
BLOCK
  5
610
330
60F
100
AcDbEntity
  8
0
100
AcDbBlockBegin
  2
POLY17
 70
     0
 71
     0
 10
0.0
 20
0.0
 30
0.0
  3
POLY17
  1

  4
POLY17
  0
LINE
  5
612
330
60F
100
AcDbEntity
  8
LC-002-002-----0
 62
     7
370
    25
100
AcDbLine
 10
1592.19328
 20
1901.52
 30
0.0
 11
1592.19328
 21
1901.52
 31
0.0
  0
LINE
  5
613
330
60F
100
AcDbEntity
  8
LC-002-002-----0
 62
     7
370
    25
100
AcDbLine
 10
1592.19328
 20
1901.52
 30
0.0
 11
1592.134342
 21
1902.034773
 31
0.0
  0
LINE
  5
614
330
60F
100
AcDbEntity
  8
LC-002-002-----0
 62
     7
370
    25
100
AcDbLine
 10
1592.134342
 20
1902.034773
 30
0.0
 11
1592.134342
 21
1902.034773
 31
0.0
  0
LINE
  5
615
330
60F
100
AcDbEntity
  8
LC-002-002-----0
 62
     7
370
    25
100
AcDbLine
 10
1592.134342
 20
1902.034773
 30
0.0
 11
1591.960796
 21
1902.516131
 31
0.0
  0
LINE
  5
616
330
60F
100
AcDbEntity
  8
LC-002-002-----0
 62
     7
370
    25
100
AcDbLine
 10
1591.960796
 20
1902.516131
 30
0.0
 11
1591.960796
 21
1902.516131
 31
0.0
  0
LINE
  5
617
330
60F
100
AcDbEntity
  8
LC-002-002-----0
 62
     7
370
    25
100
AcDbLine
 10
1591.960796
 20
1902.516131
 30
0.0
 11
1591.684661
 21
1902.929698
 31
0.0
  0
LINE
  5
618
330
60F
100
AcDbEntity
  8
LC-002-002-----0
 62
     7
370
    25
100
AcDbLine
 10
1591.684661
 20
1902.929698
 30
0.0
 11
1591.684661
 21
1902.929698
 31
0.0
  0
LINE
  5
619
330
60F
100
AcDbEntity
  8
LC-002-002-----0
 62
     7
370
    25
100
AcDbLine
 10
1591.684661
 20
1902.929698
 30
0.0
 11
1591.323315
 21
1903.248644
 31
0.0
  0
LINE
  5
61A
330
60F
100
AcDbEntity
  8
LC-002-002-----0
 62
     7
370
    25
100
AcDbLine
 10
1591.323315
 20
1903.248644
 30
0.0
 11
1591.323315
 21
1903.248644
 31
0.0
  0
LINE
  5
61B
330
60F
100
AcDbEntity
  8
LC-002-002-----0
 62
     7
370
    25
100
AcDbLine
 10
1591.323315
 20
1903.248644
 30
0.0
 11
1590.899928
 21
1903.450607
 31
0.0
  0
LINE
  5
61C
330
60F
100
AcDbEntity
  8
LC-002-002-----0
 62
     7
370
    25
100
AcDbLine
 10
1590.899928
 20
1903.450607
 30
0.0
 11
1590.899928
 21
1903.450607
 31
0.0
  0
LINE
  5
61D
330
60F
100
AcDbEntity
  8
LC-002-002-----0
 62
     7
370
    25
100
AcDbLine
 10
1590.899928
 20
1903.450607
 30
0.0
 11
1590.442446
 21
1903.52
 31
0.0
  0
ENDBLK
  5
611
330
60F
100
AcDbEntity
  8
0
100
AcDbBlockEnd
  0
BLOCK
  5
621
330
620
100
AcDbEntity
  8
0
100
AcDbBlockBegin
  2
POLY18
 70
     0
 71
     0
 10
0.0
 20
0.0
 30
0.0
  3
POLY18
  1

  4
POLY18
  0
LINE
  5
623
330
620
100
AcDbEntity
  8
LC-002-002-----0
 62
     7
370
    25
100
AcDbLine
 10
1568.980799
 20
1901.52
 30
0.0
 11
1568.980799
 21
1901.52
 31
0.0
  0
LINE
  5
624
330
620
100
AcDbEntity
  8
LC-002-002-----0
 62
     7
370
    25
100
AcDbLine
 10
1568.980799
 20
1901.52
 30
0.0
 11
1568.980833
 21
1902.034788
 31
0.0
  0
LINE
  5
625
330
620
100
AcDbEntity
  8
LC-002-002-----0
 62
     7
370
    25
100
AcDbLine
 10
1568.980833
 20
1902.034788
 30
0.0
 11
1568.980833
 21
1902.034788
 31
0.0
  0
LINE
  5
626
330
620
100
AcDbEntity
  8
LC-002-002-----0
 62
     7
370
    25
100
AcDbLine
 10
1568.980833
 20
1902.034788
 30
0.0
 11
1568.980796
 21
1902.516158
 31
0.0
  0
LINE
  5
627
330
620
100
AcDbEntity
  8
LC-002-002-----0
 62
     7
370
    25
100
AcDbLine
 10
1568.980796
 20
1902.516158
 30
0.0
 11
1568.980796
 21
1902.516158
 31
0.0
  0
LINE
  5
628
330
620
100
AcDbEntity
  8
LC-002-002-----0
 62
     7
370
    25
100
AcDbLine
 10
1568.980796
 20
1902.516158
 30
0.0
 11
1568.980802
 21
1902.929728
 31
0.0
  0
LINE
  5
629
330
620
100
AcDbEntity
  8
LC-002-002-----0
 62
     7
370
    25
100
AcDbLine
 10
1568.980802
 20
1902.929728
 30
0.0
 11
1568.980802
 21
1902.929728
 31
0.0
  0
LINE
  5
62A
330
620
100
AcDbEntity
  8
LC-002-002-----0
 62
     7
370
    25
100
AcDbLine
 10
1568.980802
 20
1902.929728
 30
0.0
 11
1568.980777
 21
1903.248665
 31
0.0
  0
LINE
  5
62B
330
620
100
AcDbEntity
  8
LC-002-002-----0
 62
     7
370
    25
100
AcDbLine
 10
1568.980777
 20
1903.248665
 30
0.0
 11
1568.980777
 21
1903.248665
 31
0.0
  0
LINE
  5
62C
330
620
100
AcDbEntity
  8
LC-002-002-----0
 62
     7
370
    25
100
AcDbLine
 10
1568.980777
 20
1903.248665
 30
0.0
 11
1568.980826
 21
1903.450621
 31
0.0
  0
LINE
  5
62D
330
620
100
AcDbEntity
  8
LC-002-002-----0
 62
     7
370
    25
100
AcDbLine
 10
1568.980826
 20
1903.450621
 30
0.0
 11
1568.980826
 21
1903.450621
 31
0.0
  0
LINE
  5
62E
330
620
100
AcDbEntity
  8
LC-002-002-----0
 62
     7
370
    25
100
AcDbLine
 10
1568.980826
 20
1903.450621
 30
0.0
 11
1568.980808
 21
1903.52
 31
0.0
  0
ENDBLK
  5
622
330
620
100
AcDbEntity
  8
0
100
AcDbBlockEnd
  0
BLOCK
  5
632
330
631
100
AcDbEntity
  8
0
100
AcDbBlockBegin
  2
POLY19
 70
     0
 71
     0
 10
0.0
 20
0.0
 30
0.0
  3
POLY19
  1

  4
POLY19
  0
LINE
  5
634
330
631
100
AcDbEntity
  8
LC-002-002-----0
 62
     7
370
    25
100
AcDbLine
 10
1545.768318
 20
1901.52
 30
0.0
 11
1545.768318
 21
1901.52
 31
0.0
  0
LINE
  5
635
330
631
100
AcDbEntity
  8
LC-002-002-----0
 62
     7
370
    25
100
AcDbLine
 10
1545.768318
 20
1901.52
 30
0.0
 11
1545.827256
 21
1902.034773
 31
0.0
  0
LINE
  5
636
330
631
100
AcDbEntity
  8
LC-002-002-----0
 62
     7
370
    25
100
AcDbLine
 10
1545.827256
 20
1902.034773
 30
0.0
 11
1545.827256
 21
1902.034773
 31
0.0
  0
LINE
  5
637
330
631
100
AcDbEntity
  8
LC-002-002-----0
 62
     7
370
    25
100
AcDbLine
 10
1545.827256
 20
1902.034773
 30
0.0
 11
1546.000802
 21
1902.516131
 31
0.0
  0
LINE
  5
638
330
631
100
AcDbEntity
  8
LC-002-002-----0
 62
     7
370
    25
100
AcDbLine
 10
1546.000802
 20
1902.516131
 30
0.0
 11
1546.000802
 21
1902.516131
 31
0.0
  0
LINE
  5
639
330
631
100
AcDbEntity
  8
LC-002-002-----0
 62
     7
370
    25
100
AcDbLine
 10
1546.000802
 20
1902.516131
 30
0.0
 11
1546.276937
 21
1902.929698
 31
0.0
  0
LINE
  5
63A
330
631
100
AcDbEntity
  8
LC-002-002-----0
 62
     7
370
    25
100
AcDbLine
 10
1546.276937
 20
1902.929698
 30
0.0
 11
1546.276937
 21
1902.929698
 31
0.0
  0
LINE
  5
63B
330
631
100
AcDbEntity
  8
LC-002-002-----0
 62
     7
370
    25
100
AcDbLine
 10
1546.276937
 20
1902.929698
 30
0.0
 11
1546.638283
 21
1903.248644
 31
0.0
  0
LINE
  5
63C
330
631
100
AcDbEntity
  8
LC-002-002-----0
 62
     7
370
    25
100
AcDbLine
 10
1546.638283
 20
1903.248644
 30
0.0
 11
1546.638283
 21
1903.248644
 31
0.0
  0
LINE
  5
63D
330
631
100
AcDbEntity
  8
LC-002-002-----0
 62
     7
370
    25
100
AcDbLine
 10
1546.638283
 20
1903.248644
 30
0.0
 11
1547.061669
 21
1903.450607
 31
0.0
  0
LINE
  5
63E
330
631
100
AcDbEntity
  8
LC-002-002-----0
 62
     7
370
    25
100
AcDbLine
 10
1547.061669
 20
1903.450607
 30
0.0
 11
1547.061669
 21
1903.450607
 31
0.0
  0
LINE
  5
63F
330
631
100
AcDbEntity
  8
LC-002-002-----0
 62
     7
370
    25
100
AcDbLine
 10
1547.061669
 20
1903.450607
 30
0.0
 11
1547.519152
 21
1903.52
 31
0.0
  0
ENDBLK
  5
633
330
631
100
AcDbEntity
  8
0
100
AcDbBlockEnd
  0
BLOCK
  5
6A2
330
6A1
100
AcDbEntity
  8
0
100
AcDbBlockBegin
  2
POLY20
 70
     0
 71
     0
 10
0.0
 20
0.0
 30
0.0
  3
POLY20
  1

  4
POLY20
  0
LINE
  5
6A4
330
6A1
100
AcDbEntity
  8
LC-002-002-----0
 62
     7
370
    25
100
AcDbLine
 10
1786.681786
 20
1816.227459
 30
0.0
 11
1786.681786
 21
1816.227459
 31
0.0
  0
LINE
  5
6A5
330
6A1
100
AcDbEntity
  8
LC-002-002-----0
 62
     7
370
    25
100
AcDbLine
 10
1786.681786
 20
1816.227459
 30
0.0
 11
1786.8228
 21
1816.223257
 31
0.0
  0
LINE
  5
6A6
330
6A1
100
AcDbEntity
  8
LC-002-002-----0
 62
     7
370
    25
100
AcDbLine
 10
1786.8228
 20
1816.223257
 30
0.0
 11
1786.8228
 21
1816.223257
 31
0.0
  0
LINE
  5
6A7
330
6A1
100
AcDbEntity
  8
LC-002-002-----0
 62
     7
370
    25
100
AcDbLine
 10
1786.8228
 20
1816.223257
 30
0.0
 11
1786.961858
 21
1816.25992
 31
0.0
  0
LINE
  5
6A8
330
6A1
100
AcDbEntity
  8
LC-002-002-----0
 62
     7
370
    25
100
AcDbLine
 10
1786.961858
 20
1816.25992
 30
0.0
 11
1786.961858
 21
1816.25992
 31
0.0
  0
LINE
  5
6A9
330
6A1
100
AcDbEntity
  8
LC-002-002-----0
 62
     7
370
    25
100
AcDbLine
 10
1786.961858
 20
1816.25992
 30
0.0
 11
1787.085923
 21
1816.335687
 31
0.0
  0
LINE
  5
6AA
330
6A1
100
AcDbEntity
  8
LC-002-002-----0
 62
     7
370
    25
100
AcDbLine
 10
1787.085923
 20
1816.335687
 30
0.0
 11
1787.085923
 21
1816.335687
 31
0.0
  0
LINE
  5
6AB
330
6A1
100
AcDbEntity
  8
LC-002-002-----0
 62
     7
370
    25
100
AcDbLine
 10
1787.085923
 20
1816.335687
 30
0.0
 11
1787.183443
 21
1816.444508
 31
0.0
  0
LINE
  5
6AC
330
6A1
100
AcDbEntity
  8
LC-002-002-----0
 62
     7
370
    25
100
AcDbLine
 10
1787.183443
 20
1816.444508
 30
0.0
 11
1787.183443
 21
1816.444508
 31
0.0
  0
LINE
  5
6AD
330
6A1
100
AcDbEntity
  8
LC-002-002-----0
 62
     7
370
    25
100
AcDbLine
 10
1787.183443
 20
1816.444508
 30
0.0
 11
1787.245142
 21
1816.576733
 31
0.0
  0
LINE
  5
6AE
330
6A1
100
AcDbEntity
  8
LC-002-002-----0
 62
     7
370
    25
100
AcDbLine
 10
1787.245142
 20
1816.576733
 30
0.0
 11
1787.245142
 21
1816.576733
 31
0.0
  0
LINE
  5
6AF
330
6A1
100
AcDbEntity
  8
LC-002-002-----0
 62
     7
370
    25
100
AcDbLine
 10
1787.245142
 20
1816.576733
 30
0.0
 11
1787.266207
 21
1816.719998
 31
0.0
  0
ENDBLK
  5
6A3
330
6A1
100
AcDbEntity
  8
0
100
AcDbBlockEnd
  0
BLOCK
  5
6B2
330
6B1
100
AcDbEntity
  8
0
100
AcDbBlockBegin
  2
POLY21
 70
     0
 71
     0
 10
0.0
 20
0.0
 30
0.0
  3
POLY21
  1

  4
POLY21
  0
LINE
  5
6B4
330
6B1
100
AcDbEntity
  8
LC-002-002-----0
 62
     7
370
    25
100
AcDbLine
 10
1787.266207
 20
1842.32
 30
0.0
 11
1787.266207
 21
1842.32
 31
0.0
  0
LINE
  5
6B5
330
6B1
100
AcDbEntity
  8
LC-002-002-----0
 62
     7
370
    25
100
AcDbLine
 10
1787.266207
 20
1842.32
 30
0.0
 11
1787.199219
 21
1842.57
 31
0.0
  0
LINE
  5
6B6
330
6B1
100
AcDbEntity
  8
LC-002-002-----0
 62
     7
370
    25
100
AcDbLine
 10
1787.199219
 20
1842.57
 30
0.0
 11
1787.199219
 21
1842.57
 31
0.0
  0
LINE
  5
6B7
330
6B1
100
AcDbEntity
  8
LC-002-002-----0
 62
     7
370
    25
100
AcDbLine
 10
1787.199219
 20
1842.57
 30
0.0
 11
1787.016207
 21
1842.753013
 31
0.0
  0
LINE
  5
6B8
330
6B1
100
AcDbEntity
  8
LC-002-002-----0
 62
     7
370
    25
100
AcDbLine
 10
1787.016207
 20
1842.753013
 30
0.0
 11
1787.016207
 21
1842.753013
 31
0.0
  0
LINE
  5
6B9
330
6B1
100
AcDbEntity
  8
LC-002-002-----0
 62
     7
370
    25
100
AcDbLine
 10
1787.016207
 20
1842.753013
 30
0.0
 11
1786.766207
 21
1842.82
 31
0.0
  0
LINE
  5
6BA
330
6B1
100
AcDbEntity
  8
LC-002-002-----0
 62
     7
370
    25
100
AcDbLine
 10
1786.766207
 20
1842.82
 30
0.0
 11
1786.766207
 21
1842.82
 31
0.0
  0
LINE
  5
6BB
330
6B1
100
AcDbEntity
  8
LC-002-002-----0
 62
     7
370
    25
100
AcDbLine
 10
1786.766207
 20
1842.82
 30
0.0
 11
1786.681785
 21
1842.812539
 31
0.0
  0
ENDBLK
  5
6B3
330
6B1
100
AcDbEntity
  8
0
100
AcDbBlockEnd
  0
BLOCK
  5
6D7
330
6D6
100
AcDbEntity
  8
0
100
AcDbBlockBegin
  2
LCDIM15
 70
     0
 71
     0
 10
0.0
 20
0.0
 30
0.0
  3
LCDIM15
  1

  4
LCDIM15
  0
LINE
  5
6D9
330
6D6
100
AcDbEntity
  8
LC-006-003-MTH-0
 62
     7
370
    25
100
AcDbLine
 10
781.195249
 20
2079.52
 30
0.0
 11
781.195249
 21
2147.713104
 31
0.0
  0
LINE
  5
6DA
330
6D6
100
AcDbEntity
  8
LC-006-003-MTH-0
 62
     7
370
    25
100
AcDbLine
 10
1310.695249
 20
2062.52
 30
0.0
 11
1310.695249
 21
2147.713104
 31
0.0
  0
LINE
  5
6DB
330
6D6
100
AcDbEntity
  8
LC-007-003-MTG-0
 62
     7
370
    25
100
AcDbLine
 10
781.195249
 20
2132.713104
 30
0.0
 11
1310.695249
 21
2132.713104
 31
0.0
  0
LINE
  5
6DC
330
6D6
100
AcDbEntity
  8
LC-008-003-----0
 62
     7
370
    25
100
AcDbLine
 10
805.98137
 20
2135.976259
 30
0.0
 11
781.195249
 21
2132.713104
 31
0.0
  0
LINE
  5
6DD
330
6D6
100
AcDbEntity
  8
LC-008-003-----0
 62
     7
370
    25
100
AcDbLine
 10
781.195249
 20
2132.713104
 30
0.0
 11
805.98137
 21
2129.449949
 31
0.0
  0
LINE
  5
6DE
330
6D6
100
AcDbEntity
  8
LC-008-003-----0
 62
     7
370
    25
100
AcDbLine
 10
805.98137
 20
2129.449949
 30
0.0
 11
805.98137
 21
2135.976259
 31
0.0
  0
LINE
  5
6DF
330
6D6
100
AcDbEntity
  8
LC-008-003-----0
 62
     7
370
    25
100
AcDbLine
 10
806.036979
 20
2135.127838
 30
0.0
 11
787.695249
 21
2132.713104
 31
0.0
  0
LINE
  5
6E0
330
6D6
100
AcDbEntity
  8
LC-008-003-----0
 62
     7
370
    25
100
AcDbLine
 10
787.695249
 20
2132.713104
 30
0.0
 11
806.036979
 21
2130.298369
 31
0.0
  0
LINE
  5
6E1
330
6D6
100
AcDbEntity
  8
LC-008-003-----0
 62
     7
370
    25
100
AcDbLine
 10
806.092587
 20
2134.279418
 30
0.0
 11
794.195249
 21
2132.713104
 31
0.0
  0
LINE
  5
6E2
330
6D6
100
AcDbEntity
  8
LC-008-003-----0
 62
     7
370
    25
100
AcDbLine
 10
794.195249
 20
2132.713104
 30
0.0
 11
806.092587
 21
2131.146789
 31
0.0
  0
LINE
  5
6E3
330
6D6
100
AcDbEntity
  8
LC-008-003-----0
 62
     7
370
    25
100
AcDbLine
 10
806.148196
 20
2133.430998
 30
0.0
 11
800.695249
 21
2132.713104
 31
0.0
  0
LINE
  5
6E4
330
6D6
100
AcDbEntity
  8
LC-008-003-----0
 62
     7
370
    25
100
AcDbLine
 10
800.695249
 20
2132.713104
 30
0.0
 11
806.148196
 21
2131.99521
 31
0.0
  0
LINE
  5
6E5
330
6D6
100
AcDbEntity
  8
LC-008-003-----0
 62
     7
370
    25
100
AcDbLine
 10
1285.909127
 20
2129.449949
 30
0.0
 11
1310.695249
 21
2132.713104
 31
0.0
  0
LINE
  5
6E6
330
6D6
100
AcDbEntity
  8
LC-008-003-----0
 62
     7
370
    25
100
AcDbLine
 10
1310.695249
 20
2132.713104
 30
0.0
 11
1285.909127
 21
2135.976259
 31
0.0
  0
LINE
  5
6E7
330
6D6
100
AcDbEntity
  8
LC-008-003-----0
 62
     7
370
    25
100
AcDbLine
 10
1285.909127
 20
2135.976259
 30
0.0
 11
1285.909127
 21
2129.449949
 31
0.0
  0
LINE
  5
6E8
330
6D6
100
AcDbEntity
  8
LC-008-003-----0
 62
     7
370
    25
100
AcDbLine
 10
1285.853518
 20
2130.298369
 30
0.0
 11
1304.195248
 21
2132.713104
 31
0.0
  0
LINE
  5
6E9
330
6D6
100
AcDbEntity
  8
LC-008-003-----0
 62
     7
370
    25
100
AcDbLine
 10
1304.195248
 20
2132.713104
 30
0.0
 11
1285.853518
 21
2135.127838
 31
0.0
  0
LINE
  5
6EA
330
6D6
100
AcDbEntity
  8
LC-008-003-----0
 62
     7
370
    25
100
AcDbLine
 10
1285.79791
 20
2131.146789
 30
0.0
 11
1297.695248
 21
2132.713104
 31
0.0
  0
LINE
  5
6EB
330
6D6
100
AcDbEntity
  8
LC-008-003-----0
 62
     7
370
    25
100
AcDbLine
 10
1297.695248
 20
2132.713104
 30
0.0
 11
1285.79791
 21
2134.279418
 31
0.0
  0
LINE
  5
6EC
330
6D6
100
AcDbEntity
  8
LC-008-003-----0
 62
     7
370
    25
100
AcDbLine
 10
1285.742301
 20
2131.99521
 30
0.0
 11
1291.195248
 21
2132.713104
 31
0.0
  0
LINE
  5
6ED
330
6D6
100
AcDbEntity
  8
LC-008-003-----0
 62
     7
370
    25
100
AcDbLine
 10
1291.195248
 20
2132.713104
 30
0.0
 11
1285.742301
 21
2133.430998
 31
0.0
  0
TEXT
  5
6EE
330
6D6
100
AcDbEntity
  8
LC-008-003-----0
 62
     7
370
    25
100
AcDbText
 10
977.591379
 20
2147.713104
 30
0.0
 40
25.0
  1
529,5
 41
0.7
  7
LCTX0-400-0-0pDIN-Schrift
 72
     1
 11
1015.091379
 21
2147.713104
 31
0.0
100
AcDbText
  0
ENDBLK
  5
6D8
330
6D6
100
AcDbEntity
  8
0
100
AcDbBlockEnd
  0
ENDSEC
  0
SECTION
  2
ENTITIES
  0
INSERT
  5
102
330
1F
100
AcDbEntity
  8
LC-003-230-ZVN-0
 62
     7
370
   211
100
AcDbBlockReference
  2
SYM1
 10
0.0
 20
0.0
 30
0.0
  0
ARC
  5
104
102
{ACAD_REACTORS
330
6FC
102
}
330
1F
100
AcDbEntity
  8
LC-004-002-RND-0
 62
     7
370
    50
100
AcDbCircle
 10
1293.695249
 20
2062.52
 30
0.0
 40
17.0
100
AcDbArc
 50
0.0
 51
90.0
  0
LINE
  5
105
330
1F
100
AcDbEntity
  8
LC-002-002-----0
 62
     7
370
    25
100
AcDbLine
 10
1821.007163
 20
1807.14572
 30
0.0
 11
1821.007163
 21
1851.89428
 31
0.0
  0
LINE
  5
106
102
{ACAD_REACTORS
330
6FC
102
}
330
1F
100
AcDbEntity
  8
LC-002-002-----0
 62
     7
370
    50
100
AcDbLine
 10
327.695249
 20
1579.52
 30
0.0
 11
1293.695249
 21
1579.52
 31
0.0
  0
ARC
  5
107
102
{ACAD_REACTORS
330
6FC
102
}
330
1F
100
AcDbEntity
  8
LC-004-002-RND-0
 62
     7
370
    50
100
AcDbCircle
 10
1293.695249
 20
1596.52
 30
0.0
 40
17.0
100
AcDbArc
 50
270.0
 51
0.0
  0
LINE
  5
108
102
{ACAD_REACTORS
330
6F8
102
}
330
1F
100
AcDbEntity
  8
LC-002-002-----0
 62
     7
370
    50
100
AcDbLine
 10
1817.68606
 20
2046.642429
 30
0.0
 11
1677.371424
 21
2030.348018
 31
0.0
  0
LINE
  5
109
102
{ACAD_REACTORS
330
6FC
102
}
330
1F
100
AcDbEntity
  8
LC-002-002-----0
 62
     7
370
    50
100
AcDbLine
 10
310.695249
 20
2062.52
 30
0.0
 11
310.695249
 21
1596.52
 31
0.0
  0
ARC
  5
10A
102
{ACAD_REACTORS
330
6FC
102
}
330
1F
100
AcDbEntity
  8
LC-004-002-RND-0
 62
     7
370
    50
100
AcDbCircle
 10
327.695249
 20
1596.52
 30
0.0
 40
17.0
100
AcDbArc
 50
180.0
 51
270.0
  0
LINE
  5
10B
102
{ACAD_REACTORS
330
6FC
102
}
330
1F
100
AcDbEntity
  8
LC-002-002-----0
 62
     7
370
    50
100
AcDbLine
 10
1293.695249
 20
2079.52
 30
0.0
 11
327.695249
 21
2079.52
 31
0.0
  0
LINE
  5
10C
102
{ACAD_REACTORS
330
6F8
102
}
330
1F
100
AcDbEntity
  8
LC-002-002-----0
 62
     7
370
    50
100
AcDbLine
 10
1836.637896
 20
2049.450671
 30
0.0
 11
1829.845274
 21
2048.66186
 31
0.0
  0
LINE
  5
10D
102
{ACAD_REACTORS
330
6FC
102
}
330
1F
100
AcDbEntity
  8
LC-002-002-----0
 62
     7
370
    50
100
AcDbLine
 10
1310.695249
 20
1596.52
 30
0.0
 11
1310.695249
 21
2062.52
 31
0.0
  0
LINE
  5
10E
102
{ACAD_REACTORS
330
6FC
102
}
330
1F
100
AcDbEntity
  8
LC-002-002-----0
 62
     7
370
    50
100
AcDbLine
 10
700.010561
 20
1657.915157
 30
0.0
 11
758.379936
 21
1657.915157
 31
0.0
  0
LINE
  5
10F
102
{ACAD_REACTORS
330
6FC
102
}
330
1F
100
AcDbEntity
  8
LC-002-002-----0
 62
     7
370
    50
100
AcDbLine
 10
700.010561
 20
2001.124843
 30
0.0
 11
758.379936
 21
2001.124843
 31
0.0
  0
ARC
  5
110
102
{ACAD_REACTORS
330
6F8
102
}
330
1F
100
AcDbEntity
  8
LC-004-002-RND-0
 62
     7
370
    50
100
AcDbCircle
 10
1676.28726
 20
2016.128033
 30
0.0
 40
22.00000000000008
100
AcDbArc
 50
96.623955
 51
177.5
  0
CIRCLE
  5
111
102
{ACAD_REACTORS
330
6FC
102
}
330
1F
100
AcDbEntity
  8
LC-002-002-----0
 62
     7
370
    50
100
AcDbCircle
 10
907.195249
 20
1829.52
 30
0.0
 40
45.0
  0
CIRCLE
  5
112
102
{ACAD_REACTORS
330
6FC
102
}
330
1F
100
AcDbEntity
  8
LC-002-002-----0
 62
     7
370
    50
100
AcDbCircle
 10
907.195249
 20
1829.52
 30
0.0
 40
57.5
  0
LINE
  5
113
102
{ACAD_REACTORS
330
6FC
102
}
330
1F
100
AcDbEntity
  8
LC-002-002-----0
 62
     7
370
    25
100
AcDbLine
 10
380.103138
 20
1828.530991
 30
0.0
 11
380.103138
 21
1830.509009
 31
0.0
  0
ARC
  5
114
102
{ACAD_REACTORS
330
6F4
102
}
330
1F
100
AcDbEntity
  8
LC-004-002-RND-0
 62
     7
370
    50
100
AcDbCircle
 10
312.986851
 20
2665.962339
 30
0.0
 40
2.000000000000141
100
AcDbArc
 50
127.0
 51
174.5
  0
ARC
  5
115
102
{ACAD_REACTORS
330
6F4
102
}
330
1F
100
AcDbEntity
  8
LC-004-002-RND-0
 62
     7
370
    50
100
AcDbCircle
 10
1308.403646
 20
2665.962339
 30
0.0
 40
2.000000000000011
100
AcDbArc
 50
5.5
 51
53.0
  0
ARC
  5
116
102
{ACAD_REACTORS
330
6F8
102
}
330
1F
100
AcDbEntity
  8
LC-004-002-RND-0
 62
     7
370
    50
100
AcDbCircle
 10
1679.217064
 20
2014.454824
 30
0.0
 40
15.99999999999997
100
AcDbArc
 50
96.623955
 51
177.5
  0
LINE
  5
117
102
{ACAD_REACTORS
330
6FC
102
}
330
1F
100
AcDbEntity
  8
LC-002-002-----0
 62
     7
370
    25
100
AcDbLine
 10
851.165396
 20
1972.322139
 30
0.0
 11
1219.872239
 21
2009.571306
 31
0.0
  0
ARC
  5
118
102
{ACAD_REACTORS
330
6F4
102
}
330
1F
100
AcDbEntity
  8
LC-004-002-RND-0
 62
     7
370
    50
100
AcDbCircle
 10
833.048001
 20
2491.772077
 30
0.0
 40
15.99999999999994
100
AcDbArc
 50
186.0
 51
267.5
  0
ARC
  5
119
102
{ACAD_REACTORS
330
6F4
102
}
330
1F
100
AcDbEntity
  8
LC-004-002-RND-0
 62
     7
370
    50
100
AcDbCircle
 10
832.354926
 20
2488.79948
 30
0.0
 40
21.99999999999996
100
AcDbArc
 50
186.0
 51
267.5
  0
CIRCLE
  5
11A
102
{ACAD_REACTORS
330
6FC
102
}
330
1F
100
AcDbEntity
  8
LC-002-002-----0
 62
     7
370
    50
100
AcDbCircle
 10
746.195249
 20
1829.52
 30
0.0
 40
13.64344108989906
  0
ARC
  5
11B
102
{ACAD_REACTORS
330
6F4
102
}
330
1F
100
AcDbEntity
  8
LC-004-002-RND-0
 62
     7
370
    50
100
AcDbCircle
 10
1238.159871
 20
2499.982108
 30
0.0
 40
21.99999999999993
100
AcDbArc
 50
272.5
 51
354.0
  0
ARC
  5
11C
102
{ACAD_REACTORS
330
6F4
102
}
330
1F
100
AcDbEntity
  8
LC-004-002-RND-0
 62
     7
370
    50
100
AcDbCircle
 10
1237.466795
 20
2502.954706
 30
0.0
 40
15.99999999999998
100
AcDbArc
 50
272.5
 51
354.0
  0
CIRCLE
  5
11D
102
{ACAD_REACTORS
330
6FC
102
}
330
1F
100
AcDbEntity
  8
LC-002-002-----0
 62
     7
370
    25
100
AcDbCircle
 10
746.195249
 20
1829.52
 30
0.0
 40
19.06877617190014
  0
LINE
  5
11E
102
{ACAD_REACTORS
330
6F4
102
}
330
1F
100
AcDbEntity
  8
LC-002-002-----0
 62
     7
370
    50
100
AcDbLine
 10
679.21885
 20
2649.802978
 30
0.0
 11
387.797536
 21
2655.226735
 31
0.0
  0
LINE
  5
11F
102
{ACAD_REACTORS
330
6FC
102
}
330
1F
100
AcDbEntity
  8
LC-002-002-----0
 62
     7
370
    25
100
AcDbLine
 10
1233.078418
 20
1997.632079
 30
0.0
 11
1233.07842
 21
1661.407921
 31
0.0
  0
LINE
  5
120
102
{ACAD_REACTORS
330
6F8
102
}
330
1F
100
AcDbEntity
  8
LC-002-002-----0
 62
     7
370
    25
100
AcDbLine
 10
1657.637896
 20
1887.02
 30
0.0
 11
1657.637896
 21
1772.02
 31
0.0
  0
LINE
  5
121
102
{ACAD_REACTORS
330
6F4
102
}
330
1F
100
AcDbEntity
  8
LC-002-002-----0
 62
     7
370
    50
100
AcDbLine
 10
685.177493
 20
2658.689556
 30
0.0
 11
385.733588
 21
2664.266282
 31
0.0
  0
LINE
  5
122
102
{ACAD_REACTORS
330
6F4
102
}
330
1F
100
AcDbEntity
  8
LC-002-002-----0
 62
     7
370
    50
100
AcDbLine
 10
382.285715
 20
2665.175211
 30
0.0
 11
384.61549
 21
2664.447505
 31
0.0
  0
LINE
  5
123
102
{ACAD_REACTORS
330
6F4
102
}
330
1F
100
AcDbEntity
  8
LC-002-002-----0
 62
     7
370
    50
100
AcDbLine
 10
907.195249
 20
2670.03
 30
0.0
 11
1277.195249
 21
2670.03
 31
0.0
  0
ARC
  5
124
102
{ACAD_REACTORS
330
6FC
102
}
330
1F
100
AcDbEntity
  8
LC-004-002-RND-0
 62
     7
370
    50
100
AcDbCircle
 10
327.695249
 20
2062.52
 30
0.0
 40
17.0
100
AcDbArc
 50
90.0
 51
180.0
  0
LINE
  5
125
102
{ACAD_REACTORS
330
6F4
102
}
330
1F
100
AcDbEntity
  8
LC-002-002-----0
 62
     7
370
    50
100
AcDbLine
 10
793.195249
 20
2670.03
 30
0.0
 11
907.195249
 21
2670.03
 31
0.0
  0
ARC
  5
126
102
{ACAD_REACTORS
330
6FC
102
}
330
1F
100
AcDbEntity
  8
LC-004-002-RND-0
 62
     7
370
    50
100
AcDbCircle
 10
1266.379936
 20
2038.552945
 30
0.0
 40
18.00000000000023
100
AcDbArc
 50
0.0
 51
95.705091
  0
LINE
  5
129
102
{ACAD_REACTORS
330
6FC
102
}
330
1F
100
AcDbEntity
  8
LC-005-006-MLN-0
 62
     7
370
    25
100
AcDbLine
 10
781.195249
 20
2021.02
 30
0.0
 11
781.195249
 21
2082.52
 31
0.0
  0
ARC
  5
12A
102
{ACAD_REACTORS
330
6FC
102
}
330
1F
100
AcDbEntity
  8
LC-004-002-RND-0
 62
     7
370
    50
100
AcDbCircle
 10
1266.379936
 20
1620.487055
 30
0.0
 40
17.99999999999992
100
AcDbArc
 50
264.294909
 51
0.0
  0
LINE
  5
12B
102
{ACAD_REACTORS
330
6F3
102
}
330
1F
100
AcDbEntity
  8
LC-002-002-----0
 62
     7
370
    50
100
AcDbLine
 10
1300.695249
 20
2663.03
 30
0.0
 11
1359.581467
 21
2663.03
 31
0.0
  0
ARC
  5
12C
102
{ACAD_REACTORS
330
6FC
102
}
330
1F
100
AcDbEntity
  8
LC-004-002-RND-0
 62
     7
370
    50
100
AcDbCircle
 10
348.695249
 20
1988.204687
 30
0.0
 40
18.0
100
AcDbArc
 50
90.0
 51
180.0
  0
LINE
  5
12D
102
{ACAD_REACTORS
330
6FC
102
}
330
1F
100
AcDbEntity
  8
LC-005-006-MLN-0
 62
     7
370
    25
100
AcDbLine
 10
796.195249
 20
2041.52
 30
0.0
 11
755.195249
 21
2041.52
 31
0.0
  0
ARC
  5
12E
102
{ACAD_REACTORS
330
6FC
102
}
330
1F
100
AcDbEntity
  8
LC-004-002-RND-0
 62
     7
370
    50
100
AcDbCircle
 10
348.695249
 20
1670.835313
 30
0.0
 40
18.0
100
AcDbArc
 50
180.0
 51
270.0
  0
LINE
  5
12F
102
{ACAD_REACTORS
330
6F3
102
}
330
1F
100
AcDbEntity
  8
LC-002-002-----0
 62
     7
370
    25
100
AcDbLine
 10
1359.581467
 20
2663.03
 30
0.0
 11
1362.575474
 21
2644.334661
 31
0.0
  0
ARC
  5
130
102
{ACAD_REACTORS
330
6FC
102
}
330
1F
100
AcDbEntity
  8
LC-004-002-RND-0
 62
     7
370
    50
100
AcDbCircle
 10
751.546153
 20
1452.835313
 30
0.0
 40
199.9999999999999
100
AcDbArc
 50
84.294909
 51
90.0
  0
ARC
  5
131
102
{ACAD_REACTORS
330
6FC
102
}
330
1F
100
AcDbEntity
  8
LC-004-002-RND-0
 62
     7
370
    50
100
AcDbCircle
 10
751.546153
 20
2206.204687
 30
0.0
 40
200.0
100
AcDbArc
 50
270.0
 51
275.705091
  0
CIRCLE
  5
133
102
{ACAD_REACTORS
330
6FC
102
}
330
1F
100
AcDbEntity
  8
LC-005-006-MLN-0
  6
DASHDOT
 62
     7
370
    25
100
AcDbCircle
 10
781.195249
 20
2041.52
 30
0.0
 40
17.5
  0
ARC
  5
134
102
{ACAD_REACTORS
330
6FC
102
}
330
1F
100
AcDbEntity
  8
LC-002-002-----0
 62
     7
370
    25
100
AcDbCircle
 10
681.310561
 20
1922.209009
 30
0.0
 40
0.7000000000000455
100
AcDbArc
 50
270.0
 51
0.0
  0
LINE
  5
135
102
{ACAD_REACTORS
330
6F3
102
}
330
1F
100
AcDbEntity
  8
LC-002-002-----0
 62
     7
370
    50
100
AcDbLine
 10
1300.695249
 20
2625.03
 30
0.0
 11
1362.733053
 21
2625.03
 31
0.0
  0
ARC
  5
136
102
{ACAD_REACTORS
330
6FC
102
}
330
1F
100
AcDbEntity
  8
LC-002-002-----0
 62
     7
370
    25
100
AcDbCircle
 10
681.310561
 20
1912.830991
 30
0.0
 40
0.7000000000000455
100
AcDbArc
 50
0.0
 51
90.0
  0
LINE
  5
137
102
{ACAD_REACTORS
330
6F3
102
}
330
1F
100
AcDbEntity
  8
LC-002-002-----0
 62
     7
370
    25
100
AcDbLine
 10
1362.575474
 20
2644.334661
 30
0.0
 11
1362.733053
 21
2625.03
 31
0.0
  0
ARC
  5
138
102
{ACAD_REACTORS
330
6FC
102
}
330
1F
100
AcDbEntity
  8
LC-002-002-----0
 62
     7
370
    25
100
AcDbCircle
 10
681.310561
 20
1834.209009
 30
0.0
 40
0.7000000000000455
100
AcDbArc
 50
270.0
 51
0.0
  0
LINE
  5
139
102
{ACAD_REACTORS
330
6F3
102
}
330
1F
100
AcDbEntity
  8
LC-002-002-----0
 62
     7
370
    50
100
AcDbLine
 10
1300.695249
 20
2663.03
 30
0.0
 11
1300.695249
 21
2625.03
 31
0.0
  0
ARC
  5
13A
102
{ACAD_REACTORS
330
6FC
102
}
330
1F
100
AcDbEntity
  8
LC-002-002-----0
 62
     7
370
    25
100
AcDbCircle
 10
681.310561
 20
1824.830991
 30
0.0
 40
0.7000000000000455
100
AcDbArc
 50
0.0
 51
90.0
  0
LINE
  5
13B
102
{ACAD_REACTORS
330
6F3
102
}
330
1F
100
AcDbEntity
  8
LC-002-002-----0
 62
     7
370
    25
100
AcDbLine
 10
233.434676
 20
2663.03
 30
0.0
 11
225.424261
 21
2641.700001
 31
0.0
  0
ARC
  5
13C
102
{ACAD_REACTORS
330
6FC
102
}
330
1F
100
AcDbEntity
  8
LC-002-002-----0
 62
     7
370
    25
100
AcDbCircle
 10
681.310561
 20
1746.209009
 30
0.0
 40
0.7000000000000455
100
AcDbArc
 50
270.0
 51
0.0
  0
LINE
  5
13D
102
{ACAD_REACTORS
330
6F3
102
}
330
1F
100
AcDbEntity
  8
LC-002-002-----0
 62
     7
370
    25
100
AcDbLine
 10
225.424261
 20
2641.700001
 30
0.0
 11
233.434676
 21
2625.03
 31
0.0
  0
ARC
  5
13E
102
{ACAD_REACTORS
330
6FC
102
}
330
1F
100
AcDbEntity
  8
LC-002-002-----0
 62
     7
370
    25
100
AcDbCircle
 10
681.310561
 20
1736.830991
 30
0.0
 40
0.7000000000000455
100
AcDbArc
 50
0.0
 51
90.0
  0
LINE
  5
13F
102
{ACAD_REACTORS
330
6F3
102
}
330
1F
100
AcDbEntity
  8
LC-002-002-----0
 62
     7
370
    50
100
AcDbLine
 10
320.695249
 20
2663.03
 30
0.0
 11
320.695249
 21
2625.03
 31
0.0
  0
LINE
  5
140
102
{ACAD_REACTORS
330
6F3
102
}
330
1F
100
AcDbEntity
  8
LC-002-002-----0
 62
     7
370
    50
100
AcDbLine
 10
320.695249
 20
2663.03
 30
0.0
 11
233.434676
 21
2663.03
 31
0.0
  0
LINE
  5
141
102
{ACAD_REACTORS
330
6F3
102
}
330
1F
100
AcDbEntity
  8
LC-002-002-----0
 62
     7
370
    50
100
AcDbLine
 10
1300.695249
 20
2625.03
 30
0.0
 11
1300.695249
 21
2523.24955
 31
0.0
  0
ARC
  5
142
102
{ACAD_REACTORS
330
6FC
102
}
330
1F
100
AcDbEntity
  8
LC-004-002-RND-0
 62
     7
370
    25
100
AcDbCircle
 10
350.058559
 20
1990.124386
 30
0.0
 40
10.0
100
AcDbArc
 50
90.0
 51
180.0
  0
ARC
  5
143
102
{ACAD_REACTORS
330
6FC
102
}
330
1F
100
AcDbEntity
  8
LC-004-002-RND-0
 62
     7
370
    25
100
AcDbCircle
 10
350.058559
 20
1668.915614
 30
0.0
 40
10.0
100
AcDbArc
 50
180.0
 51
270.0
  0
LINE
  5
144
102
{ACAD_REACTORS
330
6F3
102
}
330
1F
100
AcDbEntity
  8
LC-002-002-----0
 62
     7
370
    50
100
AcDbLine
 10
320.695249
 20
2625.03
 30
0.0
 11
233.434676
 21
2625.03
 31
0.0
  0
LINE
  5
145
102
{ACAD_REACTORS
330
6FC
102
}
330
1F
100
AcDbEntity
  8
LC-002-002-----0
 62
     7
370
    25
100
AcDbLine
 10
764.695465
 20
1989.070404
 30
0.0
 11
764.695465
 21
1833.982144
 31
0.0
  0
LINE
  5
146
102
{ACAD_REACTORS
330
6FC
102
}
330
1F
100
AcDbEntity
  8
LC-002-002-----0
 62
     7
370
    25
100
AcDbLine
 10
701.66249
 20
1997.079749
 30
0.0
 11
756.696823
 21
1997.070403
 31
0.0
  0
LINE
  5
147
102
{ACAD_REACTORS
330
6F3
102
}
330
1F
100
AcDbEntity
  8
LC-002-002-----0
 62
     7
370
    50
100
AcDbLine
 10
1281.695249
 20
2625.03
 30
0.0
 11
1281.695249
 21
2523.24955
 31
0.0
  0
LINE
  5
148
102
{ACAD_REACTORS
330
6FC
102
}
330
1F
100
AcDbEntity
  8
LC-002-002-----0
 62
     7
370
    25
100
AcDbLine
 10
685.910273
 20
1828.530991
 30
0.0
 11
685.910273
 21
1830.509009
 31
0.0
  0
LINE
  5
149
102
{ACAD_REACTORS
330
6F3
102
}
330
1F
100
AcDbEntity
  8
LC-002-002-----0
 62
     7
370
    50
100
AcDbLine
 10
1281.695249
 20
2625.03
 30
0.0
 11
1300.695249
 21
2625.03
 31
0.0
  0
ARC
  5
14A
102
{ACAD_REACTORS
330
6FC
102
}
330
1F
100
AcDbEntity
  8
LC-002-002-----0
 62
     7
370
    25
100
AcDbCircle
 10
682.910273
 20
1830.509009
 30
0.0
 40
3.0
100
AcDbArc
 50
0.0
 51
90.0
  0
ARC
  5
14B
102
{ACAD_REACTORS
330
6F4
102
}
330
1F
100
AcDbEntity
  8
LC-004-002-RND-0
 62
     7
370
    50
100
AcDbCircle
 10
377.5154
 20
2649.90288
 30
0.0
 40
15.99999999999991
100
AcDbArc
 50
72.6538
 51
88.92
  0
ARC
  5
14C
102
{ACAD_REACTORS
330
6F4
102
}
330
1F
100
AcDbEntity
  8
LC-004-002-RND-0
 62
     7
370
    50
100
AcDbCircle
 10
385.808069
 20
2668.265588
 30
0.0
 40
4.000000000000139
100
AcDbArc
 50
252.6538
 51
268.933069
  0
ARC
  5
14D
102
{ACAD_REACTORS
330
6FC
102
}
330
1F
100
AcDbEntity
  8
LC-002-002-----0
 62
     7
370
    25
100
AcDbCircle
 10
682.910273
 20
1828.530991
 30
0.0
 40
3.0
100
AcDbArc
 50
270.0
 51
0.0
  0
LINE
  5
14E
102
{ACAD_REACTORS
330
6FC
102
}
330
1F
100
AcDbEntity
  8
LC-002-002-----0
 62
     7
370
    25
100
AcDbLine
 10
682.910273
 20
1833.509009
 30
0.0
 11
383.103138
 21
1833.509009
 31
0.0
  0
LINE
  5
14F
102
{ACAD_REACTORS
330
6FC
102
}
330
1F
100
AcDbEntity
  8
LC-002-002-----0
 62
     7
370
    25
100
AcDbLine
 10
682.910273
 20
1825.530991
 30
0.0
 11
383.103138
 21
1825.530991
 31
0.0
  0
ARC
  5
150
102
{ACAD_REACTORS
330
6F4
102
}
330
1F
100
AcDbEntity
  8
LC-004-002-RND-0
 62
     7
370
    50
100
AcDbCircle
 10
388.355781
 20
2685.221541
 30
0.0
 40
29.99999999999985
100
AcDbArc
 50
253.267931
 51
268.933769
  0
LINE
  5
151
102
{ACAD_REACTORS
330
6F4
102
}
330
1F
100
AcDbEntity
  8
LC-002-002-----0
 62
     7
370
    50
100
AcDbLine
 10
723.820968
 20
2638.399266
 30
0.0
 11
768.569529
 21
2638.399266
 31
0.0
  0
ARC
  5
152
102
{ACAD_REACTORS
330
6FC
102
}
330
1F
100
AcDbEntity
  8
LC-004-002-RND-0
 62
     7
370
    25
100
AcDbCircle
 10
701.661132
 20
1989.079749
 30
0.0
 40
7.999999999999807
100
AcDbArc
 50
89.990271
 51
180.0
  0
ARC
  5
153
102
{ACAD_REACTORS
330
6FC
102
}
330
1F
100
AcDbEntity
  8
LC-004-002-RND-0
 62
     7
370
    25
100
AcDbCircle
 10
756.695465
 20
1989.070404
 30
0.0
 40
8.0
100
AcDbArc
 50
0.0
 51
89.990271
  0
ARC
  5
154
102
{ACAD_REACTORS
330
6FC
102
}
330
1F
100
AcDbEntity
  8
LC-002-002-----0
 62
     7
370
    25
100
AcDbCircle
 10
383.103138
 20
1830.509009
 30
0.0
 40
3.0
100
AcDbArc
 50
90.0
 51
180.0
  0
LINE
  5
155
102
{ACAD_REACTORS
330
6FC
102
}
330
1F
100
AcDbEntity
  8
LC-002-002-----0
 62
     7
370
    25
100
AcDbLine
 10
1219.872243
 20
1649.468694
 30
0.0
 11
851.165397
 21
1686.717814
 31
0.0
  0
LINE
  5
156
102
{ACAD_REACTORS
330
6FC
102
}
330
1F
100
AcDbEntity
  8
LC-002-002-----0
 62
     7
370
    25
100
AcDbLine
 10
837.673118
 20
1701.641848
 30
0.0
 11
837.673119
 21
1957.398105
 31
0.0
  0
ARC
  5
157
102
{ACAD_REACTORS
330
6FC
102
}
330
1F
100
AcDbEntity
  8
LC-004-002-RND-0
 62
     7
370
    50
100
AcDbCircle
 10
700.010561
 20
1983.124843
 30
0.0
 40
18.0
100
AcDbArc
 50
90.0
 51
180.0
  0
ARC
  5
158
102
{ACAD_REACTORS
330
6FC
102
}
330
1F
100
AcDbEntity
  8
LC-004-002-RND-0
 62
     7
370
    50
100
AcDbCircle
 10
758.379936
 20
1982.965592
 30
0.0
 40
18.0
100
AcDbArc
 50
0.0
 51
90.0
  0
ARC
  5
159
102
{ACAD_REACTORS
330
6FC
102
}
330
1F
100
AcDbEntity
  8
LC-002-002-----0
 62
     7
370
    25
100
AcDbCircle
 10
383.103138
 20
1828.530991
 30
0.0
 40
3.0
100
AcDbArc
 50
180.0
 51
270.0
  0
LINE
  5
15A
102
{ACAD_REACTORS
330
6FC
102
}
330
1F
100
AcDbEntity
  8
LC-002-002-----0
 62
     7
370
    25
100
AcDbLine
 10
693.661132
 20
1989.079749
 30
0.0
 11
693.661132
 21
1829.52
 31
0.0
  0
ARC
  5
15B
102
{ACAD_REACTORS
330
6FC
102
}
330
1F
100
AcDbEntity
  8
LC-004-002-RND-0
 62
     7
370
    25
100
AcDbCircle
 10
852.673119
 20
1957.398105
 30
0.0
 40
15.0
100
AcDbArc
 50
95.76882
 51
180.0
  0
LINE
  5
15C
102
{ACAD_REACTORS
330
6F4
102
}
330
1F
100
AcDbEntity
  8
LC-002-002-----0
 62
     7
370
    25
100
AcDbLine
 10
849.695249
 20
2475.03
 30
0.0
 11
964.695249
 21
2475.03
 31
0.0
  0
ARC
  5
15D
102
{ACAD_REACTORS
330
6F4
102
}
330
1F
100
AcDbEntity
  8
LC-002-002-----0
 62
     7
370
    50
100
AcDbCircle
 10
376.839918
 20
2646.915081
 30
0.0
 40
10.00000000000025
100
AcDbArc
 50
73.267931
 51
88.92
  0
LINE
  5
15E
102
{ACAD_REACTORS
330
6F4
102
}
330
1F
100
AcDbEntity
  8
LC-002-002-----0
 62
     7
370
    50
100
AcDbLine
 10
1284.379936
 20
2670.03
 30
0.0
 11
1277.195249
 21
2670.03
 31
0.0
  0
LINE
  5
15F
102
{ACAD_REACTORS
330
6F4
102
}
330
1F
100
AcDbEntity
  8
LC-005-006-MLN-0
 62
     7
370
    25
100
AcDbLine
 10
907.195249
 20
2457.975131
 30
0.0
 11
907.195249
 21
2478.03
 31
0.0
  0
ARC
  5
160
102
{ACAD_REACTORS
330
6FC
102
}
330
1F
100
AcDbEntity
  8
LC-004-002-RND-0
 62
     7
370
    25
100
AcDbCircle
 10
852.673118
 20
1701.641848
 30
0.0
 40
15.0
100
AcDbArc
 50
180.0
 51
264.231188
  0
ARC
  5
161
102
{ACAD_REACTORS
330
6FC
102
}
330
1F
100
AcDbEntity
  8
LC-004-002-RND-0
 62
     7
370
    25
100
AcDbCircle
 10
1221.07842
 20
1661.407921
 30
0.0
 40
12.0000000000001
100
AcDbArc
 50
264.231188
 51
0.0
  0
ARC
  5
162
102
{ACAD_REACTORS
330
6FC
102
}
330
1F
100
AcDbEntity
  8
LC-004-002-RND-0
 62
     7
370
    25
100
AcDbCircle
 10
1221.078418
 20
1997.632079
 30
0.0
 40
12.0
100
AcDbArc
 50
0.0
 51
95.76882
  0
ARC
  5
163
102
{ACAD_REACTORS
330
6FC
102
}
330
1F
100
AcDbEntity
  8
LC-004-002-RND-0
 62
     7
370
    25
100
AcDbCircle
 10
815.091
 20
1990.903641
 30
0.0
 40
13.99999999999999
100
AcDbArc
 50
95.705091
 51
180.0
  0
ARC
  5
164
102
{ACAD_REACTORS
330
6FC
102
}
330
1F
100
AcDbEntity
  8
LC-004-002-RND-0
 62
     7
370
    25
100
AcDbCircle
 10
806.390388
 20
1991.522111
 30
0.0
 40
14.00000000000044
100
AcDbArc
 50
95.705091
 51
180.000002
  0
ARC
  5
165
102
{ACAD_REACTORS
330
6FC
102
}
330
1F
100
AcDbEntity
  8
LC-004-002-RND-0
 62
     7
370
    50
100
AcDbCircle
 10
804.010561
 20
1987.60153
 30
0.0
 40
17.99999999999992
100
AcDbArc
 50
95.705091
 51
180.0
  0
ARC
  5
166
102
{ACAD_REACTORS
330
6FC
102
}
330
1F
100
AcDbEntity
  8
LC-004-002-RND-0
 62
     7
370
    25
100
AcDbCircle
 10
1256.248455
 20
2037.350441
 30
0.0
 40
12.0
100
AcDbArc
 50
0.0
 51
95.705091
  0
ARC
  5
167
102
{ACAD_REACTORS
330
6FC
102
}
330
1F
100
AcDbEntity
  8
LC-004-002-RND-0
 62
     7
370
    25
100
AcDbCircle
 10
1266.000091
 20
2040.433316
 30
0.0
 40
11.99999999999977
100
AcDbArc
 50
0.0
 51
95.705091
  0
ARC
  5
168
102
{ACAD_REACTORS
330
6F8
102
}
330
1F
100
AcDbEntity
  8
LC-004-002-RND-0
 62
     7
370
    50
100
AcDbCircle
 10
1848.570235
 20
2077.228398
 30
0.0
 40
2.000000000000174
100
AcDbArc
 50
37.0
 51
84.5
  0
LINE
  5
169
102
{ACAD_REACTORS
330
6FC
102
}
330
1F
100
AcDbEntity
  8
LC-002-002-----0
 62
     7
370
    50
100
AcDbLine
 10
751.546153
 20
1652.835313
 30
0.0
 11
348.695249
 21
1652.835313
 31
0.0
  0
LINE
  5
16A
102
{ACAD_REACTORS
330
6FC
102
}
330
1F
100
AcDbEntity
  8
LC-002-002-----0
 62
     7
370
    50
100
AcDbLine
 10
1264.590589
 20
1602.576214
 30
0.0
 11
771.427785
 21
1651.844661
 31
0.0
  0
LINE
  5
16B
102
{ACAD_REACTORS
330
6F8
102
}
330
1F
100
AcDbEntity
  8
LC-002-002-----0
 62
     7
370
    50
100
AcDbLine
 10
1819.179631
 20
2054.944705
 30
0.0
 11
1826.506064
 21
2056.252778
 31
0.0
  0
LINE
  5
16C
102
{ACAD_REACTORS
330
6FC
102
}
330
1F
100
AcDbEntity
  8
LC-002-002-----0
 62
     7
370
    50
100
AcDbLine
 10
1284.379936
 20
1620.487055
 30
0.0
 11
1284.379936
 21
2038.552945
 31
0.0
  0
ARC
  5
16D
102
{ACAD_REACTORS
330
6F8
102
}
330
1F
100
AcDbEntity
  8
LC-004-002-RND-0
 62
     7
370
    50
100
AcDbCircle
 10
1833.536553
 20
2016.875472
 30
0.0
 40
40.0000000000002
100
AcDbArc
 50
96.623955
 51
100.123018
  0
LINE
  5
16E
102
{ACAD_REACTORS
330
6FC
102
}
330
1F
100
AcDbEntity
  8
LC-002-002-----0
 62
     7
370
    50
100
AcDbLine
 10
1264.590589
 20
2056.463786
 30
0.0
 11
771.427785
 21
2007.195339
 31
0.0
  0
ARC
  5
16F
102
{ACAD_REACTORS
330
6F8
102
}
330
1F
100
AcDbEntity
  8
LC-004-002-RND-0
 62
     7
370
    50
100
AcDbCircle
 10
1812.149142
 20
2094.322011
 30
0.0
 40
40.00000000000023
100
AcDbArc
 50
276.623955
 51
280.123018
  0
LINE
  5
170
102
{ACAD_REACTORS
330
6FC
102
}
330
1F
100
AcDbEntity
  8
LC-002-002-----0
 62
     7
370
    50
100
AcDbLine
 10
751.546153
 20
2006.204687
 30
0.0
 11
348.695249
 21
2006.204687
 31
0.0
  0
LINE
  5
171
102
{ACAD_REACTORS
330
6FC
102
}
330
1F
100
AcDbEntity
  8
LC-002-002-----0
 62
     7
370
    50
100
AcDbLine
 10
330.695249
 20
1988.204687
 30
0.0
 11
330.695249
 21
1670.835313
 31
0.0
  0
LINE
  5
172
102
{ACAD_REACTORS
330
6FC
102
}
330
1F
100
AcDbEntity
  8
LC-002-002-----0
 62
     7
370
    25
100
AcDbLine
 10
792.390398
 20
1667.517889
 30
0.0
 11
792.390388
 21
1991.522111
 31
0.0
  0
LINE
  5
173
102
{ACAD_REACTORS
330
6FC
102
}
330
1F
100
AcDbEntity
  8
LC-002-002-----0
 62
     7
370
    50
100
AcDbLine
 10
682.010561
 20
1675.911662
 30
0.0
 11
682.010561
 21
1736.830991
 31
0.0
  0
LINE
  5
174
102
{ACAD_REACTORS
330
6FC
102
}
330
1F
100
AcDbEntity
  8
LC-002-002-----0
 62
     7
370
    25
100
AcDbLine
 10
692.956614
 20
1659.37854
 30
0.0
 11
458.917144
 21
1658.915614
 31
0.0
  0
LINE
  5
175
102
{ACAD_REACTORS
330
6FC
102
}
330
1F
100
AcDbEntity
  8
LC-002-002-----0
 62
     7
370
    25
100
AcDbLine
 10
350.058559
 20
2000.124386
 30
0.0
 11
458.917144
 21
2000.124386
 31
0.0
  0
LINE
  5
176
102
{ACAD_REACTORS
330
6FC
102
}
330
1F
100
AcDbEntity
  8
LC-002-002-----0
 62
     7
370
    25
100
AcDbLine
 10
458.917144
 20
2000.124386
 30
0.0
 11
692.954205
 21
1999.660664
 31
0.0
  0
LINE
  5
177
102
{ACAD_REACTORS
330
6FC
102
}
330
1F
100
AcDbEntity
  8
LC-002-002-----0
 62
     7
370
    50
100
AcDbLine
 10
682.010561
 20
1922.209009
 30
0.0
 11
682.010561
 21
1983.124843
 31
0.0
  0
LINE
  5
178
102
{ACAD_REACTORS
330
6FC
102
}
330
1F
100
AcDbEntity
  8
LC-002-002-----0
 62
     7
370
    50
100
AcDbLine
 10
682.010561
 20
1834.209009
 30
0.0
 11
682.010561
 21
1912.830991
 31
0.0
  0
LINE
  5
179
102
{ACAD_REACTORS
330
6FC
102
}
330
1F
100
AcDbEntity
  8
LC-002-002-----0
 62
     7
370
    50
100
AcDbLine
 10
682.010561
 20
1746.209009
 30
0.0
 11
682.010561
 21
1824.830991
 31
0.0
  0
LINE
  5
17A
102
{ACAD_REACTORS
330
6FC
102
}
330
1F
100
AcDbEntity
  8
LC-002-002-----0
 62
     7
370
    25
100
AcDbLine
 10
1268.248455
 20
1621.689559
 30
0.0
 11
1268.248455
 21
2037.350441
 31
0.0
  0
LINE
  5
17B
102
{ACAD_REACTORS
330
6FC
102
}
330
1F
100
AcDbEntity
  8
LC-002-002-----0
 62
     7
370
    50
100
AcDbLine
 10
776.379936
 20
1675.920378
 30
0.0
 11
776.379936
 21
1982.965592
 31
0.0
  0
LINE
  5
17C
102
{ACAD_REACTORS
330
6FC
102
}
330
1F
100
AcDbEntity
  8
LC-002-002-----0
 62
     7
370
    50
100
AcDbLine
 10
786.010561
 20
1987.60153
 30
0.0
 11
786.010561
 21
1671.43847
 31
0.0
  0
LINE
  5
17D
102
{ACAD_REACTORS
330
6FC
102
}
330
1F
100
AcDbEntity
  8
LC-002-002-----0
 62
     7
370
    25
100
AcDbLine
 10
801.091
 20
1990.903641
 30
0.0
 11
801.091
 21
1668.136359
 31
0.0
  0
LINE
  5
17E
102
{ACAD_REACTORS
330
6FC
102
}
330
1F
100
AcDbEntity
  8
LC-002-002-----0
 62
     7
370
    25
100
AcDbLine
 10
1278.000091
 20
1618.606684
 30
0.0
 11
1278.000091
 21
2040.433316
 31
0.0
  0
LINE
  5
17F
102
{ACAD_REACTORS
330
6FC
102
}
330
1F
100
AcDbEntity
  8
LC-002-002-----0
 62
     7
370
    25
100
AcDbLine
 10
340.058559
 20
1990.124386
 30
0.0
 11
340.058559
 21
1668.915614
 31
0.0
  0
LINE
  5
180
102
{ACAD_REACTORS
330
6FC
102
}
330
1F
100
AcDbEntity
  8
LC-002-002-----0
 62
     7
370
    25
100
AcDbLine
 10
350.058559
 20
1658.915614
 30
0.0
 11
458.917144
 21
1658.915614
 31
0.0
  0
LINE
  5
181
102
{ACAD_REACTORS
330
6F4
102
}
330
1F
100
AcDbEntity
  8
LC-002-002-----0
 62
     7
370
    50
100
AcDbLine
 10
1306.328958
 20
2670.03
 30
0.0
 11
1309.607276
 21
2667.55961
 31
0.0
  0
LINE
  5
182
102
{ACAD_REACTORS
330
6F4
102
}
330
1F
100
AcDbEntity
  8
LC-002-002-----0
 62
     7
370
    50
100
AcDbLine
 10
1310.394439
 20
2666.15403
 30
0.0
 11
1310.695249
 21
2663.03
 31
0.0
  0
LINE
  5
183
102
{ACAD_REACTORS
330
6F4
102
}
330
1F
100
AcDbEntity
  8
LC-002-002-----0
 62
     7
370
    50
100
AcDbLine
 10
1298.695249
 20
2663.03
 30
0.0
 11
1310.695249
 21
2663.03
 31
0.0
  0
LINE
  5
184
102
{ACAD_REACTORS
330
6F4
102
}
330
1F
100
AcDbEntity
  8
LC-002-002-----0
 62
     7
370
    50
100
AcDbLine
 10
1298.695249
 20
2662.524487
 30
0.0
 11
1298.695249
 21
2663.03
 31
0.0
  0
ARC
  5
185
102
{ACAD_REACTORS
330
6F4
102
}
330
1F
100
AcDbEntity
  8
LC-002-002-----0
 62
     7
370
    50
100
AcDbCircle
 10
1298.485312
 20
2658.53
 30
0.0
 40
3.999999999999902
100
AcDbArc
 50
86.991502
 51
90.0
  0
LINE
  5
186
102
{ACAD_REACTORS
330
6F4
102
}
330
1F
100
AcDbEntity
  8
LC-002-002-----0
 62
     7
370
    50
100
AcDbLine
 10
1297.771565
 20
2662.53
 30
0.0
 11
1298.485312
 21
2662.53
 31
0.0
  0
ARC
  5
187
102
{ACAD_REACTORS
330
6F4
102
}
330
1F
100
AcDbEntity
  8
LC-002-002-----0
 62
     7
370
    50
100
AcDbCircle
 10
1297.771565
 20
2660.53
 30
0.0
 40
2.0
100
AcDbArc
 50
90.0
 51
175.0
  0
LINE
  5
188
102
{ACAD_REACTORS
330
6F4
102
}
330
1F
100
AcDbEntity
  8
LC-002-002-----0
 62
     7
370
    50
100
AcDbLine
 10
1295.315044
 20
2655.399266
 30
0.0
 11
1295.779175
 21
2660.704311
 31
0.0
  0
ARC
  5
189
102
{ACAD_REACTORS
330
6F4
102
}
330
1F
100
AcDbEntity
  8
LC-002-002-----0
 62
     7
370
    50
100
AcDbCircle
 10
1293.820752
 20
2655.53
 30
0.0
 40
1.5
100
AcDbArc
 50
270.0
 51
355.0
  0
LINE
  5
18A
102
{ACAD_REACTORS
330
6F4
102
}
330
1F
100
AcDbEntity
  8
LC-002-002-----0
 62
     7
370
    50
100
AcDbLine
 10
1283.996057
 20
2654.03
 30
0.0
 11
1293.820752
 21
2654.03
 31
0.0
  0
ARC
  5
18B
102
{ACAD_REACTORS
330
6F4
102
}
330
1F
100
AcDbEntity
  8
LC-002-002-----0
 62
     7
370
    50
100
AcDbCircle
 10
1283.996057
 20
2652.03
 30
0.0
 40
2.0
100
AcDbArc
 50
90.0
 51
174.0
  0
LINE
  5
18C
102
{ACAD_REACTORS
330
6F4
102
}
330
1F
100
AcDbEntity
  8
LC-002-002-----0
 62
     7
370
    50
100
AcDbLine
 10
1281.141577
 20
2644.004985
 30
0.0
 11
1282.007013
 21
2652.239057
 31
0.0
  0
ARC
  5
18D
102
{ACAD_REACTORS
330
6F4
102
}
330
1F
100
AcDbEntity
  8
LC-002-002-----0
 62
     7
370
    50
100
AcDbCircle
 10
1273.185402
 20
2644.841213
 30
0.0
 40
7.999999999999867
100
AcDbArc
 50
319.339111
 51
354.0
  0
ARC
  5
18E
102
{ACAD_REACTORS
330
6F4
102
}
330
1F
100
AcDbEntity
  8
LC-002-002-----0
 62
     7
370
    50
100
AcDbCircle
 10
1271.668243
 20
2646.144375
 30
0.0
 40
10.00000000000024
100
AcDbArc
 50
293.742899
 51
319.339111
  0
ARC
  5
18F
102
{ACAD_REACTORS
330
6F4
102
}
330
1F
100
AcDbEntity
  8
LC-002-002-----0
 62
     7
370
    50
100
AcDbCircle
 10
1276.499842
 20
2635.160038
 30
0.0
 40
2.000000000000334
100
AcDbArc
 50
113.742899
 51
174.0
  0
LINE
  5
190
102
{ACAD_REACTORS
330
6F4
102
}
330
1F
100
AcDbEntity
  8
LC-002-002-----0
 62
     7
370
    50
100
AcDbLine
 10
1260.039352
 20
2497.682482
 30
0.0
 11
1274.510799
 21
2635.369095
 31
0.0
  0
LINE
  5
191
102
{ACAD_REACTORS
330
6F4
102
}
330
1F
100
AcDbEntity
  8
LC-002-002-----0
 62
     7
370
    50
100
AcDbLine
 10
975.291173
 20
2466.484054
 30
0.0
 11
1239.119497
 21
2478.003047
 31
0.0
  0
ARC
  5
192
102
{ACAD_REACTORS
330
6F4
102
}
330
1F
100
AcDbEntity
  8
LC-002-002-----0
 62
     7
370
    50
100
AcDbCircle
 10
975.50927
 20
2461.488813
 30
0.0
 40
5.000000000000061
100
AcDbArc
 50
92.5
 51
165.0
  0
LINE
  5
193
102
{ACAD_REACTORS
330
6F4
102
}
330
1F
100
AcDbEntity
  8
LC-002-002-----0
 62
     7
370
    50
100
AcDbLine
 10
970.592446
 20
2462.457493
 30
0.0
 11
970.679641
 21
2462.782908
 31
0.0
  0
ARC
  5
194
102
{ACAD_REACTORS
330
6F4
102
}
330
1F
100
AcDbEntity
  8
LC-002-002-----0
 62
     7
370
    50
100
AcDbCircle
 10
968.660595
 20
2462.975131
 30
0.0
 40
2.0
100
AcDbArc
 50
270.0
 51
345.0
  0
LINE
  5
195
102
{ACAD_REACTORS
330
6F4
102
}
330
1F
100
AcDbEntity
  8
LC-002-002-----0
 62
     7
370
    50
100
AcDbLine
 10
845.729903
 20
2460.975131
 30
0.0
 11
968.660595
 21
2460.975131
 31
0.0
  0
ARC
  5
196
102
{ACAD_REACTORS
330
6F4
102
}
330
1F
100
AcDbEntity
  8
LC-002-002-----0
 62
     7
370
    50
100
AcDbCircle
 10
845.729903
 20
2462.975131
 30
0.0
 40
2.00000000000012
100
AcDbArc
 50
195.0
 51
270.0
  0
LINE
  5
197
330
1F
100
AcDbEntity
  8
LC-002-002-----0
 62
     7
370
    50
100
AcDbLine
 10
843.798051
 20
2462.457493
 30
0.0
 11
843.710856
 21
2462.782908
 31
0.0
  0
ARC
  5
198
102
{ACAD_REACTORS
330
6F4
102
}
330
1F
100
AcDbEntity
  8
LC-002-002-----0
 62
     7
370
    50
100
AcDbCircle
 10
838.881227
 20
2461.488813
 30
0.0
 40
5.000000000000013
100
AcDbArc
 50
15.0
 51
87.5
  0
LINE
  5
199
102
{ACAD_REACTORS
330
6F4
102
}
330
1F
100
AcDbEntity
  8
LC-002-002-----0
 62
     7
370
    50
100
AcDbLine
 10
839.099324
 20
2466.484054
 30
0.0
 11
831.395299
 21
2466.820419
 31
0.0
  0
LINE
  5
19A
102
{ACAD_REACTORS
330
6F4
102
}
330
1F
100
AcDbEntity
  8
LC-002-002-----0
 62
     7
370
    50
100
AcDbLine
 10
810.475444
 20
2486.499854
 30
0.0
 11
794.828656
 21
2635.369095
 31
0.0
  0
ARC
  5
19B
102
{ACAD_REACTORS
330
6F4
102
}
330
1F
100
AcDbEntity
  8
LC-002-002-----0
 62
     7
370
    50
100
AcDbCircle
 10
792.839612
 20
2635.160038
 30
0.0
 40
2.000000000000043
100
AcDbArc
 50
6.0
 51
66.257101
  0
ARC
  5
19C
102
{ACAD_REACTORS
330
6F4
102
}
330
1F
100
AcDbEntity
  8
LC-002-002-----0
 62
     7
370
    50
100
AcDbCircle
 10
797.671211
 20
2646.144375
 30
0.0
 40
9.999999999999959
100
AcDbArc
 50
186.0
 51
246.257101
  0
LINE
  5
19D
102
{ACAD_REACTORS
330
6F4
102
}
330
1F
100
AcDbEntity
  8
LC-002-002-----0
 62
     7
370
    50
100
AcDbLine
 10
787.573218
 20
2646.552642
 30
0.0
 11
787.725992
 21
2645.09909
 31
0.0
  0
ARC
  5
19E
102
{ACAD_REACTORS
330
6F4
102
}
330
1F
100
AcDbEntity
  8
LC-002-002-----0
 62
     7
370
    50
100
AcDbCircle
 10
782.600608
 20
2646.03
 30
0.0
 40
5.000000000000012
100
AcDbArc
 50
6.0
 51
90.0
  0
LINE
  5
19F
102
{ACAD_REACTORS
330
6F4
102
}
330
1F
100
AcDbEntity
  8
LC-002-002-----0
 62
     7
370
    50
100
AcDbLine
 10
779.789889
 20
2651.03
 30
0.0
 11
782.600608
 21
2651.03
 31
0.0
  0
ARC
  5
1A0
102
{ACAD_REACTORS
330
6F4
102
}
330
1F
100
AcDbEntity
  8
LC-002-002-----0
 62
     7
370
    50
100
AcDbCircle
 10
779.789889
 20
2646.03
 30
0.0
 40
5.0
100
AcDbArc
 50
90.0
 51
172.647333
  0
ARC
  5
1A1
102
{ACAD_REACTORS
330
6F4
102
}
330
1F
100
AcDbEntity
  8
LC-002-002-----0
 62
     7
370
    50
100
AcDbCircle
 10
764.913229
 20
2647.949645
 30
0.0
 40
10.00000058219981
100
AcDbArc
 50
297.834588
 51
352.644806
  0
ARC
  5
1A2
102
{ACAD_REACTORS
330
6F4
102
}
330
1F
100
AcDbEntity
  8
LC-002-002-----0
 62
     7
370
    50
100
AcDbCircle
 10
771.916867
 20
2634.685061
 30
0.0
 40
4.999999999999782
100
AcDbArc
 50
117.833178
 51
132.025998
  0
ARC
  5
1A3
102
{ACAD_REACTORS
330
6F4
102
}
330
1F
100
AcDbEntity
  8
LC-002-002-----0
 62
     7
370
    50
100
AcDbCircle
 10
720.47363
 20
2634.685061
 30
0.0
 40
4.999999999999966
100
AcDbArc
 50
47.974002
 51
88.8
  0
LINE
  5
1A4
102
{ACAD_REACTORS
330
6F4
102
}
330
1F
100
AcDbEntity
  8
LC-002-002-----0
 62
     7
370
    50
100
AcDbLine
 10
692.817334
 20
2640.265474
 30
0.0
 11
720.578342
 21
2639.683964
 31
0.0
  0
ARC
  5
1A5
102
{ACAD_REACTORS
330
6F4
102
}
330
1F
100
AcDbEntity
  8
LC-002-002-----0
 62
     7
370
    50
100
AcDbCircle
 10
693.026758
 20
2650.263281
 30
0.0
 40
10.00000000009993
100
AcDbArc
 50
201.080311
 51
268.797324
  0
ARC
  5
1A6
102
{ACAD_REACTORS
330
6F4
102
}
330
1F
100
AcDbEntity
  8
LC-002-002-----0
 62
     7
370
    50
100
AcDbCircle
 10
679.123989
 20
2644.903896
 30
0.0
 40
4.900000000000217
100
AcDbArc
 50
21.086498
 51
88.890713
  0
LINE
  5
1A7
102
{ACAD_REACTORS
330
6F4
102
}
330
1F
100
AcDbEntity
  8
LC-002-002-----0
 62
     7
370
    50
100
AcDbLine
 10
347.048017
 20
2657.478488
 30
0.0
 11
377.028403
 21
2656.913304
 31
0.0
  0
ARC
  5
1A8
102
{ACAD_REACTORS
330
6F4
102
}
330
1F
100
AcDbEntity
  8
LC-002-002-----0
 62
     7
370
    50
100
AcDbCircle
 10
346.953775
 20
2652.479376
 30
0.0
 40
5.000000000000215
100
AcDbArc
 50
88.92
 51
149.520374
  0
ARC
  5
1A9
102
{ACAD_REACTORS
330
6F4
102
}
330
1F
100
AcDbEntity
  8
LC-002-002-----0
 62
     7
370
    50
100
AcDbCircle
 10
340.921108
 20
2656.03
 30
0.0
 40
2.0
100
AcDbArc
 50
270.0
 51
329.520374
  0
LINE
  5
1AA
102
{ACAD_REACTORS
330
6F4
102
}
330
1F
100
AcDbEntity
  8
LC-002-002-----0
 62
     7
370
    50
100
AcDbLine
 10
327.569745
 20
2654.03
 30
0.0
 11
340.921108
 21
2654.03
 31
0.0
  0
ARC
  5
1AB
102
{ACAD_REACTORS
330
6F4
102
}
330
1F
100
AcDbEntity
  8
LC-002-002-----0
 62
     7
370
    50
100
AcDbCircle
 10
327.569745
 20
2655.53
 30
0.0
 40
1.500000000000007
100
AcDbArc
 50
185.0
 51
270.0
  0
LINE
  5
1AC
102
{ACAD_REACTORS
330
6F4
102
}
330
1F
100
AcDbEntity
  8
LC-002-002-----0
 62
     7
370
    50
100
AcDbLine
 10
326.075453
 20
2655.399266
 30
0.0
 11
325.611322
 21
2660.704311
 31
0.0
  0
ARC
  5
1AD
102
{ACAD_REACTORS
330
6F4
102
}
330
1F
100
AcDbEntity
  8
LC-002-002-----0
 62
     7
370
    50
100
AcDbCircle
 10
323.618933
 20
2660.53
 30
0.0
 40
2.00000000000002
100
AcDbArc
 50
5.0
 51
90.0
  0
LINE
  5
1AE
102
{ACAD_REACTORS
330
6F4
102
}
330
1F
100
AcDbEntity
  8
LC-002-002-----0
 62
     7
370
    50
100
AcDbLine
 10
323.618933
 20
2662.53
 30
0.0
 11
322.905185
 21
2662.53
 31
0.0
  0
ARC
  5
1AF
102
{ACAD_REACTORS
330
6F4
102
}
330
1F
100
AcDbEntity
  8
LC-002-002-----0
 62
     7
370
    50
100
AcDbCircle
 10
322.905185
 20
2658.53
 30
0.0
 40
4.0
100
AcDbArc
 50
90.0
 51
93.008498
  0
LINE
  5
1B0
102
{ACAD_REACTORS
330
6F4
102
}
330
1F
100
AcDbEntity
  8
LC-002-002-----0
 62
     7
370
    50
100
AcDbLine
 10
322.695249
 20
2662.524487
 30
0.0
 11
322.695249
 21
2663.03
 31
0.0
  0
LINE
  5
1B1
102
{ACAD_REACTORS
330
6F4
102
}
330
1F
100
AcDbEntity
  8
LC-002-002-----0
 62
     7
370
    50
100
AcDbLine
 10
310.695249
 20
2663.03
 30
0.0
 11
322.695249
 21
2663.03
 31
0.0
  0
LINE
  5
1B2
102
{ACAD_REACTORS
330
6F4
102
}
330
1F
100
AcDbEntity
  8
LC-002-002-----0
 62
     7
370
    50
100
AcDbLine
 10
310.996058
 20
2666.15403
 30
0.0
 11
310.695249
 21
2663.03
 31
0.0
  0
LINE
  5
1B3
102
{ACAD_REACTORS
330
6F4
102
}
330
1F
100
AcDbEntity
  8
LC-002-002-----0
 62
     7
370
    50
100
AcDbLine
 10
315.061539
 20
2670.03
 30
0.0
 11
311.783221
 21
2667.55961
 31
0.0
  0
LINE
  5
1B4
102
{ACAD_REACTORS
330
6F4
102
}
330
1F
100
AcDbEntity
  8
LC-002-002-----0
 62
     7
370
    50
100
AcDbLine
 10
315.061539
 20
2670.03
 30
0.0
 11
330.695249
 21
2670.03
 31
0.0
  0
LINE
  5
1B5
102
{ACAD_REACTORS
330
6F4
102
}
330
1F
100
AcDbEntity
  8
LC-002-002-----0
 62
     7
370
    50
100
AcDbLine
 10
330.695249
 20
2670.03
 30
0.0
 11
338.667948
 21
2666.88947
 31
0.0
  0
ARC
  5
1B6
102
{ACAD_REACTORS
330
6F4
102
}
330
1F
100
AcDbEntity
  8
LC-002-002-----0
 62
     7
370
    50
100
AcDbCircle
 10
340.133953
 20
2670.611141
 30
0.0
 40
4.000000000000242
100
AcDbArc
 50
248.5
 51
268.92
  0
LINE
  5
1B7
102
{ACAD_REACTORS
330
6F4
102
}
330
1F
100
AcDbEntity
  8
LC-002-002-----0
 62
     7
370
    50
100
AcDbLine
 10
340.058559
 20
2666.611851
 30
0.0
 11
377.816975
 21
2665.900037
 31
0.0
  0
ARC
  5
1B8
102
{ACAD_REACTORS
330
6F4
102
}
330
1F
100
AcDbEntity
  8
LC-002-002-----0
 62
     7
370
    50
100
AcDbCircle
 10
685.138764
 20
2656.689931
 30
0.0
 40
1.999999999999776
100
AcDbArc
 50
67.312184
 51
88.890432
  0
LINE
  5
1B9
102
{ACAD_REACTORS
330
6F4
102
}
330
1F
100
AcDbEntity
  8
LC-002-002-----0
 62
     7
370
    50
100
AcDbLine
 10
688.416849
 20
2657.487236
 30
0.0
 11
685.910184
 21
2658.535171
 31
0.0
  0
ARC
  5
1BA
102
{ACAD_REACTORS
330
6F4
102
}
330
1F
100
AcDbEntity
  8
LC-002-002-----0
 62
     7
370
    50
100
AcDbCircle
 10
687.64543
 20
2655.641996
 30
0.0
 40
2.000000000000043
100
AcDbArc
 50
6.0
 51
67.312184
  0
LINE
  5
1BB
102
{ACAD_REACTORS
330
6F4
102
}
330
1F
100
AcDbEntity
  8
LC-002-002-----0
 62
     7
370
    50
100
AcDbLine
 10
689.634474
 20
2655.851053
 30
0.0
 11
689.952325
 21
2652.826897
 31
0.0
  0
ARC
  5
1BC
102
{ACAD_REACTORS
330
6F4
102
}
330
1F
100
AcDbEntity
  8
LC-002-002-----0
 62
     7
370
    50
100
AcDbCircle
 10
693.930413
 20
2653.24501
 30
0.0
 40
3.999999999999987
100
AcDbArc
 50
186.007989
 51
268.792032
  0
LINE
  5
1BD
102
{ACAD_REACTORS
330
6F4
102
}
330
1F
100
AcDbEntity
  8
LC-002-002-----0
 62
     7
370
    50
100
AcDbLine
 10
727.126472
 20
2648.548775
 30
0.0
 11
693.846643
 21
2649.245888
 31
0.0
  0
ARC
  5
1BE
102
{ACAD_REACTORS
330
6F4
102
}
330
1F
100
AcDbEntity
  8
LC-002-002-----0
 62
     7
370
    50
100
AcDbCircle
 10
727.10553
 20
2647.548994
 30
0.0
 40
0.9999999999999875
100
AcDbArc
 50
6.660187
 51
88.8
  0
ARC
  5
1BF
102
{ACAD_REACTORS
330
6F4
102
}
330
1F
100
AcDbEntity
  8
LC-002-002-----0
 62
     7
370
    50
100
AcDbCircle
 10
728.893383
 20
2647.757759
 30
0.0
 40
0.8000000000000487
100
AcDbArc
 50
186.68007
 51
254.999999
  0
LINE
  5
1C0
102
{ACAD_REACTORS
330
6F4
102
}
330
1F
100
AcDbEntity
  8
LC-002-002-----0
 62
     7
370
    50
100
AcDbLine
 10
729.330726
 20
2646.812352
 30
0.0
 11
728.686327
 21
2646.985018
 31
0.0
  0
ARC
  5
1C1
102
{ACAD_REACTORS
330
6F4
102
}
330
1F
100
AcDbEntity
  8
LC-002-002-----0
 62
     7
370
    50
100
AcDbCircle
 10
728.942497
 20
2645.363464
 30
0.0
 40
1.500000000000032
100
AcDbArc
 50
5.0
 51
75.0
  0
LINE
  5
1C2
102
{ACAD_REACTORS
330
6F4
102
}
330
1F
100
AcDbEntity
  8
LC-002-002-----0
 62
     7
370
    50
100
AcDbLine
 10
731.057515
 20
2638.399266
 30
0.0
 11
730.436789
 21
2645.494197
 31
0.0
  0
LINE
  5
1C3
102
{ACAD_REACTORS
330
6F4
102
}
330
1F
100
AcDbEntity
  8
LC-002-002-----0
 62
     7
370
    50
100
AcDbLine
 10
761.332982
 20
2638.399266
 30
0.0
 11
761.953708
 21
2645.494197
 31
0.0
  0
ARC
  5
1C4
102
{ACAD_REACTORS
330
6F4
102
}
330
1F
100
AcDbEntity
  8
LC-002-002-----0
 62
     7
370
    50
100
AcDbCircle
 10
763.448
 20
2645.363464
 30
0.0
 40
1.499999999999964
100
AcDbArc
 50
105.0
 51
175.0
  0
LINE
  5
1C5
102
{ACAD_REACTORS
330
6F4
102
}
330
1F
100
AcDbEntity
  8
LC-002-002-----0
 62
     7
370
    50
100
AcDbLine
 10
763.059771
 20
2646.812352
 30
0.0
 11
763.70417
 21
2646.985018
 31
0.0
  0
ARC
  5
1C6
102
{ACAD_REACTORS
330
6F4
102
}
330
1F
100
AcDbEntity
  8
LC-002-002-----0
 62
     7
370
    50
100
AcDbCircle
 10
763.497114
 20
2647.757759
 30
0.0
 40
0.8000000000000641
100
AcDbArc
 50
285.000001
 51
356.660102
  0
ARC
  5
1C7
102
{ACAD_REACTORS
330
6F4
102
}
330
1F
100
AcDbEntity
  8
LC-002-002-----0
 62
     7
370
    50
100
AcDbCircle
 10
765.291368
 20
2647.614061
 30
0.0
 40
1.000000077899867
100
AcDbArc
 50
100.448742
 51
175.421547
  0
ARC
  5
1C8
102
{ACAD_REACTORS
330
6F4
102
}
330
1F
100
AcDbEntity
  8
LC-002-002-----0
 62
     7
370
    50
100
AcDbCircle
 10
764.385064
 20
2652.531241
 30
0.0
 40
3.999999999999818
100
AcDbArc
 50
280.445219
 51
353.991948
  0
LINE
  5
1C9
102
{ACAD_REACTORS
330
6F4
102
}
330
1F
100
AcDbEntity
  8
LC-002-002-----0
 62
     7
370
    50
100
AcDbLine
 10
768.753828
 20
2655.830165
 30
0.0
 11
768.363152
 21
2652.113127
 31
0.0
  0
ARC
  5
1CA
102
{ACAD_REACTORS
330
6F4
102
}
330
1F
100
AcDbEntity
  8
LC-002-002-----0
 62
     7
370
    50
100
AcDbCircle
 10
770.742872
 20
2655.621109
 30
0.0
 40
2.000000000000046
100
AcDbArc
 50
111.801409
 51
174.0
  0
LINE
  5
1CB
102
{ACAD_REACTORS
330
6F4
102
}
330
1F
100
AcDbEntity
  8
LC-002-002-----0
 62
     7
370
    50
100
AcDbLine
 10
776.379936
 20
2660.03
 30
0.0
 11
770.000091
 21
2657.478062
 31
0.0
  0
LINE
  5
1CC
102
{ACAD_REACTORS
330
6F4
102
}
330
1F
100
AcDbEntity
  8
LC-002-002-----0
 62
     7
370
    50
100
AcDbLine
 10
786.010561
 20
2660.03
 30
0.0
 11
776.379936
 21
2660.03
 31
0.0
  0
LINE
  5
1CD
102
{ACAD_REACTORS
330
6F4
102
}
330
1F
100
AcDbEntity
  8
LC-002-002-----0
 62
     7
370
    50
100
AcDbLine
 10
792.390406
 20
2657.478062
 30
0.0
 11
786.010561
 21
2660.03
 31
0.0
  0
ARC
  5
1CE
102
{ACAD_REACTORS
330
6F4
102
}
330
1F
100
AcDbEntity
  8
LC-002-002-----0
 62
     7
370
    50
100
AcDbCircle
 10
791.647625
 20
2655.621109
 30
0.0
 40
2.000000000000043
100
AcDbArc
 50
6.0
 51
68.198591
  0
LINE
  5
1CF
102
{ACAD_REACTORS
330
6F4
102
}
330
1F
100
AcDbEntity
  8
LC-002-002-----0
 62
     7
370
    50
100
AcDbLine
 10
793.636669
 20
2655.830165
 30
0.0
 11
794.519221
 21
2647.433244
 31
0.0
  0
ARC
  5
1D0
102
{ACAD_REACTORS
330
6F4
102
}
330
1F
100
AcDbEntity
  8
LC-002-002-----0
 62
     7
370
    50
100
AcDbCircle
 10
796.508265
 20
2647.642301
 30
0.0
 40
2.000000000000029
100
AcDbArc
 50
186.0
 51
251.35
  0
LINE
  5
1D1
102
{ACAD_REACTORS
330
6F4
102
}
330
1F
100
AcDbEntity
  8
LC-002-002-----0
 62
     7
370
    50
100
AcDbLine
 10
799.741528
 20
2644.440204
 30
0.0
 11
795.868692
 21
2645.747321
 31
0.0
  0
ARC
  5
1D2
102
{ACAD_REACTORS
330
6F4
102
}
330
1F
100
AcDbEntity
  8
LC-002-002-----0
 62
     7
370
    50
100
AcDbCircle
 10
799.101956
 20
2642.545225
 30
0.0
 40
1.999999999999995
100
AcDbArc
 50
6.0
 51
71.35
  0
LINE
  5
1D3
102
{ACAD_REACTORS
330
6F4
102
}
330
1F
100
AcDbEntity
  8
LC-002-002-----0
 62
     7
370
    50
100
AcDbLine
 10
817.135651
 20
2490.099622
 30
0.0
 11
801.091
 21
2642.754282
 31
0.0
  0
LINE
  5
1D4
102
{ACAD_REACTORS
330
6F4
102
}
330
1F
100
AcDbEntity
  8
LC-002-002-----0
 62
     7
370
    50
100
AcDbLine
 10
848.643878
 20
2475.075904
 30
0.0
 11
832.350091
 21
2475.787306
 31
0.0
  0
ARC
  5
1D5
102
{ACAD_REACTORS
330
6F4
102
}
330
1F
100
AcDbEntity
  8
LC-002-002-----0
 62
     7
370
    50
100
AcDbCircle
 10
848.591535
 20
2473.877046
 30
0.0
 40
1.199999999999996
100
AcDbArc
 50
5.0
 51
87.5
  0
LINE
  5
1D6
102
{ACAD_REACTORS
330
6F4
102
}
330
1F
100
AcDbEntity
  8
LC-002-002-----0
 62
     7
370
    50
100
AcDbLine
 10
849.803349
 20
2473.794407
 30
0.0
 11
849.786969
 21
2473.981633
 31
0.0
  0
ARC
  5
1D7
102
{ACAD_REACTORS
330
6F4
102
}
330
1F
100
AcDbEntity
  8
LC-002-002-----0
 62
     7
370
    50
100
AcDbCircle
 10
850.799544
 20
2473.881563
 30
0.0
 40
1.000000000000006
100
AcDbArc
 50
185.0
 51
260.0
  0
LINE
  5
1D8
102
{ACAD_REACTORS
330
6F4
102
}
330
1F
100
AcDbEntity
  8
LC-002-002-----0
 62
     7
370
    50
100
AcDbLine
 10
866.764451
 20
2470.051092
 30
0.0
 11
850.625895
 21
2472.896755
 31
0.0
  0
ARC
  5
1D9
102
{ACAD_REACTORS
330
6F4
102
}
330
1F
100
AcDbEntity
  8
LC-002-002-----0
 62
     7
370
    50
100
AcDbCircle
 10
867.632692
 20
2474.975131
 30
0.0
 40
4.999999999999821
100
AcDbArc
 50
260.0
 51
270.0
  0
LINE
  5
1DA
102
{ACAD_REACTORS
330
6F4
102
}
330
1F
100
AcDbEntity
  8
LC-002-002-----0
 62
     7
370
    50
100
AcDbLine
 10
867.632692
 20
2469.975131
 30
0.0
 11
946.757805
 21
2469.975131
 31
0.0
  0
ARC
  5
1DB
102
{ACAD_REACTORS
330
6F4
102
}
330
1F
100
AcDbEntity
  8
LC-002-002-----0
 62
     7
370
    50
100
AcDbCircle
 10
946.757805
 20
2474.975131
 30
0.0
 40
5.0
100
AcDbArc
 50
270.0
 51
280.0
  0
LINE
  5
1DC
102
{ACAD_REACTORS
330
6F4
102
}
330
1F
100
AcDbEntity
  8
LC-002-002-----0
 62
     7
370
    50
100
AcDbLine
 10
947.626046
 20
2470.051092
 30
0.0
 11
963.764602
 21
2472.896755
 31
0.0
  0
ARC
  5
1DD
102
{ACAD_REACTORS
330
6F4
102
}
330
1F
100
AcDbEntity
  8
LC-002-002-----0
 62
     7
370
    50
100
AcDbCircle
 10
963.590953
 20
2473.881563
 30
0.0
 40
1.000000000000103
100
AcDbArc
 50
280.0
 51
355.0
  0
LINE
  5
1DE
102
{ACAD_REACTORS
330
6F4
102
}
330
1F
100
AcDbEntity
  8
LC-002-002-----0
 62
     7
370
    50
100
AcDbLine
 10
964.587148
 20
2473.794407
 30
0.0
 11
964.603528
 21
2473.981633
 31
0.0
  0
ARC
  5
1DF
102
{ACAD_REACTORS
330
6F4
102
}
330
1F
100
AcDbEntity
  8
LC-002-002-----0
 62
     7
370
    50
100
AcDbCircle
 10
965.798962
 20
2473.877046
 30
0.0
 40
1.199999999999617
100
AcDbArc
 50
92.5
 51
175.0
  0
LINE
  5
1E0
102
{ACAD_REACTORS
330
6F4
102
}
330
1F
100
AcDbEntity
  8
LC-002-002-----0
 62
     7
370
    50
100
AcDbLine
 10
965.746619
 20
2475.075904
 30
0.0
 11
1238.164705
 21
2486.969934
 31
0.0
  0
LINE
  5
1E1
102
{ACAD_REACTORS
330
6F4
102
}
330
1F
100
AcDbEntity
  8
LC-002-002-----0
 62
     7
370
    50
100
AcDbLine
 10
1253.379145
 20
2501.28225
 30
0.0
 11
1268.248455
 21
2642.754282
 31
0.0
  0
ARC
  5
1E2
102
{ACAD_REACTORS
330
6F4
102
}
330
1F
100
AcDbEntity
  8
LC-002-002-----0
 62
     7
370
    50
100
AcDbCircle
 10
1270.237499
 20
2642.545225
 30
0.0
 40
1.999999999999835
100
AcDbArc
 50
108.65
 51
174.0
  0
LINE
  5
1E3
102
{ACAD_REACTORS
330
6F4
102
}
330
1F
100
AcDbEntity
  8
LC-002-002-----0
 62
     7
370
    50
100
AcDbLine
 10
1269.597926
 20
2644.440204
 30
0.0
 11
1273.470762
 21
2645.747321
 31
0.0
  0
ARC
  5
1E4
102
{ACAD_REACTORS
330
6F4
102
}
330
1F
100
AcDbEntity
  8
LC-002-002-----0
 62
     7
370
    50
100
AcDbCircle
 10
1272.83119
 20
2647.642301
 30
0.0
 40
2.000000000000266
100
AcDbArc
 50
288.65
 51
354.0
  0
LINE
  5
1E5
102
{ACAD_REACTORS
330
6F4
102
}
330
1F
100
AcDbEntity
  8
LC-002-002-----0
 62
     7
370
    50
100
AcDbLine
 10
1276.753828
 20
2665.830165
 30
0.0
 11
1274.820234
 21
2647.433244
 31
0.0
  0
ARC
  5
1E6
102
{ACAD_REACTORS
330
6F4
102
}
330
1F
100
AcDbEntity
  8
LC-002-002-----0
 62
     7
370
    50
100
AcDbCircle
 10
1278.742872
 20
2665.621109
 30
0.0
 40
2.000000000000004
100
AcDbArc
 50
111.801409
 51
174.0
  0
LINE
  5
1E7
102
{ACAD_REACTORS
330
6F4
102
}
330
1F
100
AcDbEntity
  8
LC-002-002-----0
 62
     7
370
    50
100
AcDbLine
 10
1284.379936
 20
2670.03
 30
0.0
 11
1278.000091
 21
2667.478062
 31
0.0
  0
LINE
  5
1E8
102
{ACAD_REACTORS
330
6F4
102
}
330
1F
100
AcDbEntity
  8
LC-002-002-----0
 62
     7
370
    50
100
AcDbLine
 10
1284.379936
 20
2670.03
 30
0.0
 11
1306.328958
 21
2670.03
 31
0.0
  0
LINE
  5
1E9
102
{ACAD_REACTORS
330
6F8
102
}
330
1F
100
AcDbEntity
  8
LC-002-002-----0
 62
     7
370
    50
100
AcDbLine
 10
1843.637896
 20
2067.52
 30
0.0
 11
1845.637896
 21
2067.52
 31
0.0
  0
LINE
  5
1EA
102
{ACAD_REACTORS
330
6F8
102
}
330
1F
100
AcDbEntity
  8
LC-002-002-----0
 62
     7
370
    50
100
AcDbLine
 10
1836.637896
 20
2062.517239
 30
0.0
 11
1836.637896
 21
2057.504433
 31
0.0
  0
LINE
  5
1EB
102
{ACAD_REACTORS
330
6F8
102
}
330
1F
100
AcDbEntity
  8
LC-002-002-----0
 62
     7
370
    50
100
AcDbLine
 10
1836.637896
 20
2062.634101
 30
0.0
 11
1836.637896
 21
2062.517239
 31
0.0
  0
LINE
  5
1EC
102
{ACAD_REACTORS
330
6F8
102
}
330
1F
100
AcDbEntity
  8
LC-002-002-----0
 62
     7
370
    50
100
AcDbLine
 10
1836.637896
 20
2062.651724
 30
0.0
 11
1836.637896
 21
2062.634101
 31
0.0
  0
LINE
  5
1ED
102
{ACAD_REACTORS
330
6F8
102
}
330
1F
100
AcDbEntity
  8
LC-002-002-----0
 62
     7
370
    50
100
AcDbLine
 10
1836.637896
 20
2062.865197
 30
0.0
 11
1836.637896
 21
2062.651724
 31
0.0
  0
ARC
  5
1EE
102
{ACAD_REACTORS
330
6F8
102
}
330
1F
100
AcDbEntity
  8
LC-002-002-----0
 62
     7
370
    50
100
AcDbCircle
 10
1841.637896
 20
2068.965083
 30
0.0
 40
2.000000000000136
100
AcDbArc
 50
274.999997
 51
313.854904
  0
LINE
  5
1EF
102
{ACAD_REACTORS
330
6F8
102
}
330
1F
100
AcDbEntity
  8
LC-002-002-----0
 62
     7
370
    50
100
AcDbLine
 10
1836.637896
 20
2065.14549
 30
0.0
 11
1836.637896
 21
2063.9302
 31
0.0
  0
ARC
  5
1F0
102
{ACAD_REACTORS
330
6F8
102
}
330
1F
100
AcDbEntity
  8
LC-002-002-----0
 62
     7
370
    50
100
AcDbCircle
 10
1838.137896
 20
2065.145503
 30
0.0
 40
1.499999999999777
100
AcDbArc
 50
95.0
 51
180.0
  0
LINE
  5
1F1
102
{ACAD_REACTORS
330
6F8
102
}
330
1F
100
AcDbEntity
  8
LC-002-002-----0
 62
     7
370
    50
100
AcDbLine
 10
1836.637896
 20
2063.936052
 30
0.0
 11
1836.637896
 21
2063.825872
 31
0.0
  0
LINE
  5
1F2
102
{ACAD_REACTORS
330
6F8
102
}
330
1F
100
AcDbEntity
  8
LC-002-002-----0
 62
     7
370
    50
100
AcDbLine
 10
1836.637896
 20
2065.141449
 30
0.0
 11
1836.637896
 21
2063.9302
 31
0.0
  0
LINE
  5
1F3
102
{ACAD_REACTORS
330
6F8
102
}
330
1F
100
AcDbEntity
  8
LC-002-002-----0
 62
     7
370
    50
100
AcDbLine
 10
1852.637896
 20
2054.52
 30
0.0
 11
1852.637896
 21
1604.52
 31
0.0
  0
LINE
  5
1F4
102
{ACAD_REACTORS
330
6F8
102
}
330
1F
100
AcDbEntity
  8
LC-002-002-----0
 62
     7
370
    50
100
AcDbLine
 10
1845.637896
 20
2079.52
 30
0.0
 11
1845.637896
 21
2067.52
 31
0.0
  0
LINE
  5
1F5
102
{ACAD_REACTORS
330
6F8
102
}
330
1F
100
AcDbEntity
  8
LC-002-002-----0
 62
     7
370
    50
100
AcDbLine
 10
1848.761927
 20
2079.21919
 30
0.0
 11
1845.637896
 21
2079.52
 31
0.0
  0
LINE
  5
1F6
102
{ACAD_REACTORS
330
6F8
102
}
330
1F
100
AcDbEntity
  8
LC-002-002-----0
 62
     7
370
    50
100
AcDbLine
 10
1852.637896
 20
2054.52
 30
0.0
 11
1852.637896
 21
2075.153709
 31
0.0
  0
LINE
  5
1F7
102
{ACAD_REACTORS
330
6F8
102
}
330
1F
100
AcDbEntity
  8
LC-002-002-----0
 62
     7
370
    50
100
AcDbLine
 10
1852.637896
 20
2075.153709
 30
0.0
 11
1850.167506
 21
2078.432028
 31
0.0
  0
LINE
  5
1F8
102
{ACAD_REACTORS
330
6F8
102
}
330
1F
100
AcDbEntity
  8
LC-002-002-----0
 62
     7
370
    50
100
AcDbLine
 10
1836.637896
 20
2059.286801
 30
0.0
 11
1836.637896
 21
2057.504433
 31
0.0
  0
LINE
  5
1F9
102
{ACAD_REACTORS
330
6F8
102
}
330
1F
100
AcDbEntity
  8
LC-002-002-----0
 62
     7
370
    50
100
AcDbLine
 10
1841.812208
 20
2066.972694
 30
0.0
 11
1838.007163
 21
2066.639795
 31
0.0
  0
LINE
  5
1FA
102
{ACAD_REACTORS
330
6F8
102
}
330
1F
100
AcDbEntity
  8
LC-002-002-----0
 62
     7
370
    50
100
AcDbLine
 10
1654.308199
 20
1641.952341
 30
0.0
 11
1649.09195
 21
1761.424075
 31
0.0
  0
LINE
  5
1FB
102
{ACAD_REACTORS
330
6F8
102
}
330
1F
100
AcDbEntity
  8
LC-002-002-----0
 62
     7
370
    50
100
AcDbLine
 10
1836.637896
 20
2057.504433
 30
0.0
 11
1828.922454
 21
2056.608457
 31
0.0
  0
LINE
  5
1FC
102
{ACAD_REACTORS
330
6F8
102
}
330
1F
100
AcDbEntity
  8
LC-002-002-----0
 62
     7
370
    50
100
AcDbLine
 10
1816.763241
 20
2054.589026
 30
0.0
 11
1673.749505
 21
2037.981175
 31
0.0
  0
LINE
  5
1FD
102
{ACAD_REACTORS
330
6F8
102
}
330
1F
100
AcDbEntity
  8
LC-002-002-----0
 62
     7
370
    50
100
AcDbLine
 10
1649.09195
 20
1897.615925
 30
0.0
 11
1654.308199
 21
2017.087659
 31
0.0
  0
LINE
  5
1FE
102
{ACAD_REACTORS
330
6F8
102
}
330
1F
100
AcDbEntity
  8
LC-002-002-----0
 62
     7
370
    50
100
AcDbLine
 10
1836.637897
 20
2063.9302
 30
0.0
 11
1836.637896
 21
2063.599376
 31
0.0
  0
LINE
  5
1FF
102
{ACAD_REACTORS
330
6F8
102
}
330
1F
100
AcDbEntity
  8
LC-002-002-----0
 62
     7
370
    50
100
AcDbLine
 10
1836.637896
 20
2063.599376
 30
0.0
 11
1836.637896
 21
2062.645503
 31
0.0
  0
LINE
  5
200
102
{ACAD_REACTORS
330
6F8
102
}
330
1F
100
AcDbEntity
  8
LC-002-002-----0
 62
     7
370
    50
100
AcDbLine
 10
1836.637896
 20
2062.645503
 30
0.0
 11
1836.637896
 21
2062.628302
 31
0.0
  0
LINE
  5
201
102
{ACAD_REACTORS
330
6F8
102
}
330
1F
100
AcDbEntity
  8
LC-002-002-----0
 62
     7
370
    50
100
AcDbLine
 10
1836.637896
 20
2062.628302
 30
0.0
 11
1836.637896
 21
2059.286801
 31
0.0
  0
LINE
  5
202
102
{ACAD_REACTORS
330
6F8
102
}
330
1F
100
AcDbEntity
  8
LC-002-002-----0
 62
     7
370
    50
100
AcDbLine
 10
1843.020559
 20
2067.52
 30
0.0
 11
1843.637896
 21
2067.52
 31
0.0
  0
LINE
  5
203
102
{ACAD_REACTORS
330
6FC
102
}
330
1F
100
AcDbEntity
  8
LC-002-002-----0
 62
     7
370
    25
100
AcDbLine
 10
380.103138
 20
1916.530991
 30
0.0
 11
380.103138
 21
1918.509009
 31
0.0
  0
ARC
  5
204
102
{ACAD_REACTORS
330
6FC
102
}
330
1F
100
AcDbEntity
  8
LC-002-002-----0
 62
     7
370
    25
100
AcDbCircle
 10
383.103138
 20
1918.509009
 30
0.0
 40
3.0
100
AcDbArc
 50
90.0
 51
180.0
  0
ARC
  5
205
102
{ACAD_REACTORS
330
6FC
102
}
330
1F
100
AcDbEntity
  8
LC-002-002-----0
 62
     7
370
    25
100
AcDbCircle
 10
383.103138
 20
1916.530991
 30
0.0
 40
3.0
100
AcDbArc
 50
180.0
 51
270.0
  0
LINE
  5
206
102
{ACAD_REACTORS
330
6FC
102
}
330
1F
100
AcDbEntity
  8
LC-002-002-----0
 62
     7
370
    25
100
AcDbLine
 10
682.910273
 20
1921.509009
 30
0.0
 11
383.103138
 21
1921.509009
 31
0.0
  0
LINE
  5
207
102
{ACAD_REACTORS
330
6FC
102
}
330
1F
100
AcDbEntity
  8
LC-002-002-----0
 62
     7
370
    25
100
AcDbLine
 10
682.910273
 20
1913.530991
 30
0.0
 11
383.103138
 21
1913.530991
 31
0.0
  0
ARC
  5
208
102
{ACAD_REACTORS
330
6FC
102
}
330
1F
100
AcDbEntity
  8
LC-002-002-----0
 62
     7
370
    25
100
AcDbCircle
 10
682.910273
 20
1918.509009
 30
0.0
 40
3.0
100
AcDbArc
 50
0.0
 51
90.0
  0
LINE
  5
209
102
{ACAD_REACTORS
330
6FC
102
}
330
1F
100
AcDbEntity
  8
LC-002-002-----0
 62
     7
370
    25
100
AcDbLine
 10
685.910273
 20
1916.530991
 30
0.0
 11
685.910273
 21
1918.509009
 31
0.0
  0
ARC
  5
20A
102
{ACAD_REACTORS
330
6FC
102
}
330
1F
100
AcDbEntity
  8
LC-002-002-----0
 62
     7
370
    25
100
AcDbCircle
 10
682.910273
 20
1916.530991
 30
0.0
 40
3.0
100
AcDbArc
 50
270.0
 51
0.0
  0
LINE
  5
20B
102
{ACAD_REACTORS
330
6FC
102
}
330
1F
100
AcDbEntity
  8
LC-002-002-----0
 62
     7
370
    25
100
AcDbLine
 10
682.910273
 20
1745.509009
 30
0.0
 11
383.103138
 21
1745.509009
 31
0.0
  0
LINE
  5
20C
102
{ACAD_REACTORS
330
6FC
102
}
330
1F
100
AcDbEntity
  8
LC-002-002-----0
 62
     7
370
    25
100
AcDbLine
 10
682.910273
 20
1737.530991
 30
0.0
 11
383.103138
 21
1737.530991
 31
0.0
  0
LINE
  5
20D
102
{ACAD_REACTORS
330
6FC
102
}
330
1F
100
AcDbEntity
  8
LC-002-002-----0
 62
     7
370
    25
100
AcDbLine
 10
380.103138
 20
1740.530991
 30
0.0
 11
380.103138
 21
1742.509009
 31
0.0
  0
ARC
  5
20E
102
{ACAD_REACTORS
330
6FC
102
}
330
1F
100
AcDbEntity
  8
LC-002-002-----0
 62
     7
370
    25
100
AcDbCircle
 10
383.103138
 20
1742.509009
 30
0.0
 40
3.0
100
AcDbArc
 50
90.0
 51
180.0
  0
ARC
  5
20F
102
{ACAD_REACTORS
330
6FC
102
}
330
1F
100
AcDbEntity
  8
LC-002-002-----0
 62
     7
370
    25
100
AcDbCircle
 10
383.103138
 20
1740.530991
 30
0.0
 40
3.0
100
AcDbArc
 50
180.0
 51
270.0
  0
ARC
  5
210
102
{ACAD_REACTORS
330
6FC
102
}
330
1F
100
AcDbEntity
  8
LC-002-002-----0
 62
     7
370
    25
100
AcDbCircle
 10
682.910273
 20
1742.509009
 30
0.0
 40
3.0
100
AcDbArc
 50
0.0
 51
90.0
  0
LINE
  5
211
102
{ACAD_REACTORS
330
6FC
102
}
330
1F
100
AcDbEntity
  8
LC-002-002-----0
 62
     7
370
    25
100
AcDbLine
 10
685.910273
 20
1740.530991
 30
0.0
 11
685.910273
 21
1742.509009
 31
0.0
  0
ARC
  5
212
102
{ACAD_REACTORS
330
6FC
102
}
330
1F
100
AcDbEntity
  8
LC-002-002-----0
 62
     7
370
    25
100
AcDbCircle
 10
682.910273
 20
1740.530991
 30
0.0
 40
3.0
100
AcDbArc
 50
270.0
 51
0.0
  0
LINE
  5
213
102
{ACAD_REACTORS
330
6F8
102
}
330
1F
100
AcDbEntity
  8
LC-005-006-MLN-0
 62
     7
370
    25
100
AcDbLine
 10
1640.583027
 20
1829.52
 30
0.0
 11
1660.637896
 21
1829.52
 31
0.0
  0
ARC
  5
214
102
{ACAD_REACTORS
330
6FC
102
}
330
1F
100
AcDbEntity
  8
LC-004-002-RND-0
 62
     7
370
    25
100
AcDbCircle
 10
806.390388
 20
1667.517889
 30
0.0
 40
14.00000000000001
100
AcDbArc
 50
179.999998
 51
264.294909
  0
ARC
  5
215
102
{ACAD_REACTORS
330
6FC
102
}
330
1F
100
AcDbEntity
  8
LC-004-002-RND-0
 62
     7
370
    50
100
AcDbCircle
 10
804.010561
 20
1671.43847
 30
0.0
 40
17.99999999999989
100
AcDbArc
 50
180.0
 51
264.294909
  0
ARC
  5
216
102
{ACAD_REACTORS
330
6FC
102
}
330
1F
100
AcDbEntity
  8
LC-004-002-RND-0
 62
     7
370
    25
100
AcDbCircle
 10
815.091
 20
1668.136359
 30
0.0
 40
14.0
100
AcDbArc
 50
180.0
 51
264.294909
  0
ARC
  5
217
102
{ACAD_REACTORS
330
6FC
102
}
330
1F
100
AcDbEntity
  8
LC-004-002-RND-0
 62
     7
370
    50
100
AcDbCircle
 10
758.379936
 20
1676.074408
 30
0.0
 40
18.0
100
AcDbArc
 50
270.0
 51
0.0
  0
ARC
  5
218
102
{ACAD_REACTORS
330
6FC
102
}
330
1F
100
AcDbEntity
  8
LC-004-002-RND-0
 62
     7
370
    25
100
AcDbCircle
 10
756.695465
 20
1669.969596
 30
0.0
 40
8.000000000000034
100
AcDbArc
 50
270.009729
 51
0.0
  0
LINE
  5
219
102
{ACAD_REACTORS
330
6FC
102
}
330
1F
100
AcDbEntity
  8
LC-002-002-----0
 62
     7
370
    25
100
AcDbLine
 10
764.695465
 20
1669.969596
 30
0.0
 11
764.695465
 21
1825.057856
 31
0.0
  0
LINE
  5
21A
102
{ACAD_REACTORS
330
6FC
102
}
330
1F
100
AcDbEntity
  8
LC-002-002-----0
 62
     7
370
    25
100
AcDbLine
 10
701.66249
 20
1661.960251
 30
0.0
 11
756.696823
 21
1661.969597
 31
0.0
  0
ARC
  5
21B
102
{ACAD_REACTORS
330
6FC
102
}
330
1F
100
AcDbEntity
  8
LC-004-002-RND-0
 62
     7
370
    25
100
AcDbCircle
 10
701.661132
 20
1669.960251
 30
0.0
 40
8.0
100
AcDbArc
 50
180.0
 51
270.009729
  0
LINE
  5
21C
102
{ACAD_REACTORS
330
6FC
102
}
330
1F
100
AcDbEntity
  8
LC-002-002-----0
 62
     7
370
    25
100
AcDbLine
 10
693.661132
 20
1669.960251
 30
0.0
 11
693.661132
 21
1829.52
 31
0.0
  0
ARC
  5
21D
102
{ACAD_REACTORS
330
6FC
102
}
330
1F
100
AcDbEntity
  8
LC-004-002-RND-0
 62
     7
370
    50
100
AcDbCircle
 10
700.010561
 20
1675.915157
 30
0.0
 40
18.0
100
AcDbArc
 50
180.0
 51
270.0
  0
ARC
  5
21E
102
{ACAD_REACTORS
330
6FC
102
}
330
1F
100
AcDbEntity
  8
LC-004-002-RND-0
 62
     7
370
    25
100
AcDbCircle
 10
1256.248455
 20
1621.689559
 30
0.0
 40
12.00000000000003
100
AcDbArc
 50
264.294909
 51
0.0
  0
ARC
  5
21F
102
{ACAD_REACTORS
330
6FC
102
}
330
1F
100
AcDbEntity
  8
LC-004-002-RND-0
 62
     7
370
    25
100
AcDbCircle
 10
1266.000091
 20
1618.606684
 30
0.0
 40
11.9999999999998
100
AcDbArc
 50
264.294909
 51
0.0
  0
ARC
  5
220
102
{ACAD_REACTORS
330
6F8
102
}
330
1F
100
AcDbEntity
  8
LC-002-002-----0
 62
     7
370
    50
100
AcDbCircle
 10
1656.484942
 20
1888.123713
 30
0.0
 40
1.199999999999948
100
AcDbArc
 50
275.0
 51
357.5
  0
LINE
  5
221
102
{ACAD_REACTORS
330
6F8
102
}
330
1F
100
AcDbEntity
  8
LC-002-002-----0
 62
     7
370
    50
100
AcDbLine
 10
1656.402303
 20
1886.9119
 30
0.0
 11
1656.589529
 21
1886.92828
 31
0.0
  0
ARC
  5
222
102
{ACAD_REACTORS
330
6F8
102
}
330
1F
100
AcDbEntity
  8
LC-002-002-----0
 62
     7
370
    50
100
AcDbCircle
 10
1656.489459
 20
1885.915705
 30
0.0
 40
1.000000000000067
100
AcDbArc
 50
95.0
 51
170.0
  0
LINE
  5
223
102
{ACAD_REACTORS
330
6F8
102
}
330
1F
100
AcDbEntity
  8
LC-002-002-----0
 62
     7
370
    50
100
AcDbLine
 10
1652.658989
 20
1869.950798
 30
0.0
 11
1655.504651
 21
1886.089353
 31
0.0
  0
ARC
  5
224
102
{ACAD_REACTORS
330
6F8
102
}
330
1F
100
AcDbEntity
  8
LC-002-002-----0
 62
     7
370
    50
100
AcDbCircle
 10
1657.583027
 20
1869.082557
 30
0.0
 40
5.000000000000097
100
AcDbArc
 50
170.0
 51
180.0
  0
LINE
  5
225
102
{ACAD_REACTORS
330
6F8
102
}
330
1F
100
AcDbEntity
  8
LC-002-002-----0
 62
     7
370
    50
100
AcDbLine
 10
1652.583027
 20
1789.957443
 30
0.0
 11
1652.583027
 21
1869.082557
 31
0.0
  0
ARC
  5
226
102
{ACAD_REACTORS
330
6F8
102
}
330
1F
100
AcDbEntity
  8
LC-002-002-----0
 62
     7
370
    50
100
AcDbCircle
 10
1657.583027
 20
1789.957443
 30
0.0
 40
5.0
100
AcDbArc
 50
180.0
 51
190.0
  0
LINE
  5
227
102
{ACAD_REACTORS
330
6F8
102
}
330
1F
100
AcDbEntity
  8
LC-002-002-----0
 62
     7
370
    50
100
AcDbLine
 10
1652.658989
 20
1789.089202
 30
0.0
 11
1655.504651
 21
1772.950647
 31
0.0
  0
ARC
  5
228
102
{ACAD_REACTORS
330
6F8
102
}
330
1F
100
AcDbEntity
  8
LC-002-002-----0
 62
     7
370
    50
100
AcDbCircle
 10
1656.489459
 20
1773.124295
 30
0.0
 40
1.000000000000125
100
AcDbArc
 50
190.0
 51
265.0
  0
LINE
  5
229
102
{ACAD_REACTORS
330
6F8
102
}
330
1F
100
AcDbEntity
  8
LC-002-002-----0
 62
     7
370
    50
100
AcDbLine
 10
1656.402303
 20
1772.1281
 30
0.0
 11
1656.589529
 21
1772.11172
 31
0.0
  0
ARC
  5
22A
102
{ACAD_REACTORS
330
6F8
102
}
330
1F
100
AcDbEntity
  8
LC-002-002-----0
 62
     7
370
    50
100
AcDbCircle
 10
1656.484942
 20
1770.916287
 30
0.0
 40
1.19999999999993
100
AcDbArc
 50
2.5
 51
85.0
  0
ARC
  5
22B
102
{ACAD_REACTORS
330
6F8
102
}
330
1F
100
AcDbEntity
  8
LC-002-002-----0
 62
     7
370
    50
100
AcDbCircle
 10
1644.096709
 20
1761.205978
 30
0.0
 40
5.000000000000061
100
AcDbArc
 50
2.5
 51
75.0
  0
LINE
  5
22C
102
{ACAD_REACTORS
330
6F8
102
}
330
1F
100
AcDbEntity
  8
LC-002-002-----0
 62
     7
370
    50
100
AcDbLine
 10
1645.390804
 20
1766.035608
 30
0.0
 11
1645.065389
 21
1766.122802
 31
0.0
  0
ARC
  5
22D
102
{ACAD_REACTORS
330
6F8
102
}
330
1F
100
AcDbEntity
  8
LC-002-002-----0
 62
     7
370
    50
100
AcDbCircle
 10
1645.583027
 20
1768.054654
 30
0.0
 40
2.0
100
AcDbArc
 50
180.0
 51
255.0
  0
LINE
  5
22E
102
{ACAD_REACTORS
330
6F8
102
}
330
1F
100
AcDbEntity
  8
LC-002-002-----0
 62
     7
370
    50
100
AcDbLine
 10
1643.583027
 20
1768.054654
 30
0.0
 11
1643.583027
 21
1890.985346
 31
0.0
  0
ARC
  5
22F
102
{ACAD_REACTORS
330
6F8
102
}
330
1F
100
AcDbEntity
  8
LC-002-002-----0
 62
     7
370
    50
100
AcDbCircle
 10
1645.583027
 20
1890.985346
 30
0.0
 40
2.000000000000061
100
AcDbArc
 50
105.0
 51
180.0
  0
LINE
  5
230
102
{ACAD_REACTORS
330
6F8
102
}
330
1F
100
AcDbEntity
  8
LC-002-002-----0
 62
     7
370
    50
100
AcDbLine
 10
1645.065389
 20
1892.917198
 30
0.0
 11
1645.390804
 21
1893.004392
 31
0.0
  0
ARC
  5
231
102
{ACAD_REACTORS
330
6F8
102
}
330
1F
100
AcDbEntity
  8
LC-002-002-----0
 62
     7
370
    50
100
AcDbCircle
 10
1644.096709
 20
1897.834022
 30
0.0
 40
5.000000000000124
100
AcDbArc
 50
285.0
 51
357.5
  0
LINE
  5
232
102
{ACAD_REACTORS
330
6F8
102
}
330
1F
100
AcDbEntity
  8
LC-002-002-----0
 62
     7
370
    50
100
AcDbLine
 10
1657.6838
 20
1888.07137
 30
0.0
 11
1663.232292
 21
2015.152734
 31
0.0
  0
LINE
  5
233
102
{ACAD_REACTORS
330
6F8
102
}
330
1F
100
AcDbEntity
  8
LC-002-002-----0
 62
     7
370
    50
100
AcDbLine
 10
1657.6838
 20
1770.96863
 30
0.0
 11
1663.232292
 21
1643.887266
 31
0.0
  0
ARC
  5
234
102
{ACAD_REACTORS
330
6F8
102
}
330
1F
100
AcDbEntity
  8
LC-004-002-RND-0
 62
     7
370
    50
100
AcDbCircle
 10
1848.570235
 20
1581.811602
 30
0.0
 40
2.000000000000215
100
AcDbArc
 50
275.5
 51
323.0
  0
LINE
  5
235
102
{ACAD_REACTORS
330
6F8
102
}
330
1F
100
AcDbEntity
  8
LC-002-002-----0
 62
     7
370
    50
100
AcDbLine
 10
1843.637896
 20
1591.52
 30
0.0
 11
1845.637896
 21
1591.52
 31
0.0
  0
LINE
  5
236
102
{ACAD_REACTORS
330
6F8
102
}
330
1F
100
AcDbEntity
  8
LC-002-002-----0
 62
     7
370
    50
100
AcDbLine
 10
1836.637896
 20
1596.522761
 30
0.0
 11
1836.637896
 21
1599.752695
 31
0.0
  0
LINE
  5
237
102
{ACAD_REACTORS
330
6F8
102
}
330
1F
100
AcDbEntity
  8
LC-002-002-----0
 62
     7
370
    50
100
AcDbLine
 10
1836.637896
 20
1596.405899
 30
0.0
 11
1836.637896
 21
1596.522761
 31
0.0
  0
LINE
  5
238
102
{ACAD_REACTORS
330
6F8
102
}
330
1F
100
AcDbEntity
  8
LC-002-002-----0
 62
     7
370
    50
100
AcDbLine
 10
1836.637896
 20
1596.388276
 30
0.0
 11
1836.637896
 21
1596.405899
 31
0.0
  0
LINE
  5
239
102
{ACAD_REACTORS
330
6F8
102
}
330
1F
100
AcDbEntity
  8
LC-002-002-----0
 62
     7
370
    50
100
AcDbLine
 10
1836.637896
 20
1596.174803
 30
0.0
 11
1836.637896
 21
1596.388276
 31
0.0
  0
ARC
  5
23A
102
{ACAD_REACTORS
330
6F8
102
}
330
1F
100
AcDbEntity
  8
LC-002-002-----0
 62
     7
370
    50
100
AcDbCircle
 10
1841.637896
 20
1590.074917
 30
0.0
 40
2.000000000000073
100
AcDbArc
 50
46.145096
 51
85.000003
  0
LINE
  5
23B
102
{ACAD_REACTORS
330
6F8
102
}
330
1F
100
AcDbEntity
  8
LC-002-002-----0
 62
     7
370
    50
100
AcDbLine
 10
1836.637896
 20
1593.89451
 30
0.0
 11
1836.637896
 21
1595.1098
 31
0.0
  0
ARC
  5
23C
102
{ACAD_REACTORS
330
6F8
102
}
330
1F
100
AcDbEntity
  8
LC-002-002-----0
 62
     7
370
    50
100
AcDbCircle
 10
1838.137896
 20
1593.894497
 30
0.0
 40
1.499999999999773
100
AcDbArc
 50
180.0
 51
265.0
  0
LINE
  5
23D
102
{ACAD_REACTORS
330
6F8
102
}
330
1F
100
AcDbEntity
  8
LC-002-002-----0
 62
     7
370
    50
100
AcDbLine
 10
1836.637896
 20
1595.103948
 30
0.0
 11
1836.637896
 21
1595.214128
 31
0.0
  0
LINE
  5
23E
102
{ACAD_REACTORS
330
6F8
102
}
330
1F
100
AcDbEntity
  8
LC-002-002-----0
 62
     7
370
    50
100
AcDbLine
 10
1836.637896
 20
1593.898551
 30
0.0
 11
1836.637896
 21
1595.1098
 31
0.0
  0
LINE
  5
23F
102
{ACAD_REACTORS
330
6F8
102
}
330
1F
100
AcDbEntity
  8
LC-002-002-----0
 62
     7
370
    50
100
AcDbLine
 10
1845.637896
 20
1579.52
 30
0.0
 11
1845.637896
 21
1591.52
 31
0.0
  0
LINE
  5
240
102
{ACAD_REACTORS
330
6F8
102
}
330
1F
100
AcDbEntity
  8
LC-002-002-----0
 62
     7
370
    50
100
AcDbLine
 10
1848.761927
 20
1579.82081
 30
0.0
 11
1845.637896
 21
1579.52
 31
0.0
  0
LINE
  5
241
102
{ACAD_REACTORS
330
6F8
102
}
330
1F
100
AcDbEntity
  8
LC-002-002-----0
 62
     7
370
    50
100
AcDbLine
 10
1852.637896
 20
1604.52
 30
0.0
 11
1852.637896
 21
1583.886291
 31
0.0
  0
LINE
  5
242
102
{ACAD_REACTORS
330
6F8
102
}
330
1F
100
AcDbEntity
  8
LC-002-002-----0
 62
     7
370
    50
100
AcDbLine
 10
1852.637896
 20
1583.886291
 30
0.0
 11
1850.167506
 21
1580.607972
 31
0.0
  0
LINE
  5
243
102
{ACAD_REACTORS
330
6F8
102
}
330
1F
100
AcDbEntity
  8
LC-002-002-----0
 62
     7
370
    50
100
AcDbLine
 10
1841.812208
 20
1592.067306
 30
0.0
 11
1838.007163
 21
1592.400205
 31
0.0
  0
LINE
  5
244
102
{ACAD_REACTORS
330
6F8
102
}
330
1F
100
AcDbEntity
  8
LC-002-002-----0
 62
     7
370
    50
100
AcDbLine
 10
1836.637897
 20
1595.1098
 30
0.0
 11
1836.637896
 21
1595.440624
 31
0.0
  0
LINE
  5
245
102
{ACAD_REACTORS
330
6F8
102
}
330
1F
100
AcDbEntity
  8
LC-002-002-----0
 62
     7
370
    50
100
AcDbLine
 10
1836.637896
 20
1595.440624
 30
0.0
 11
1836.637896
 21
1596.394497
 31
0.0
  0
LINE
  5
246
102
{ACAD_REACTORS
330
6F8
102
}
330
1F
100
AcDbEntity
  8
LC-002-002-----0
 62
     7
370
    50
100
AcDbLine
 10
1836.637896
 20
1596.394497
 30
0.0
 11
1836.637896
 21
1596.411698
 31
0.0
  0
LINE
  5
247
102
{ACAD_REACTORS
330
6F8
102
}
330
1F
100
AcDbEntity
  8
LC-002-002-----0
 62
     7
370
    50
100
AcDbLine
 10
1836.637896
 20
1596.411698
 30
0.0
 11
1836.637896
 21
1601.535567
 31
0.0
  0
LINE
  5
248
102
{ACAD_REACTORS
330
6F8
102
}
330
1F
100
AcDbEntity
  8
LC-002-002-----0
 62
     7
370
    50
100
AcDbLine
 10
1843.020559
 20
1591.52
 30
0.0
 11
1843.637896
 21
1591.52
 31
0.0
  0
LINE
  5
249
102
{ACAD_REACTORS
330
700
102
}
330
1F
100
AcDbEntity
  8
LC-002-002-----0
 62
     7
370
    25
100
AcDbLine
 10
1843.637896
 20
2013.11464
 30
0.0
 11
1843.637896
 21
2028.776146
 31
0.0
  0
ARC
  5
24A
102
{ACAD_REACTORS
330
700
102
}
330
1F
100
AcDbEntity
  8
LC-002-002-----0
 62
     7
370
    25
100
AcDbCircle
 10
1838.637896
 20
2013.11464
 30
0.0
 40
5.000000000000036
100
AcDbArc
 50
276.0
 51
0.0
  0
LINE
  5
24B
102
{ACAD_REACTORS
330
700
102
}
330
1F
100
AcDbEntity
  8
LC-002-002-----0
 62
     7
370
    25
100
AcDbLine
 10
1839.160539
 20
2008.142031
 30
0.0
 11
1834.234602
 21
2007.624294
 31
0.0
  0
ARC
  5
24C
102
{ACAD_REACTORS
330
700
102
}
330
1F
100
AcDbEntity
  8
LC-002-002-----0
 62
     7
370
    25
100
AcDbCircle
 10
1835.279887
 20
1997.679075
 30
0.0
 40
10.00000000000007
100
AcDbArc
 50
96.0
 51
178.8
  0
LINE
  5
24D
102
{ACAD_REACTORS
330
700
102
}
330
1F
100
AcDbEntity
  8
LC-002-002-----0
 62
     7
370
    25
100
AcDbLine
 10
1825.28208
 20
1997.888499
 30
0.0
 11
1822.291861
 21
1855.136907
 31
0.0
  0
ARC
  5
24E
102
{ACAD_REACTORS
330
700
102
}
330
1F
100
AcDbEntity
  8
LC-002-002-----0
 62
     7
370
    25
100
AcDbCircle
 10
1817.292957
 20
1855.241619
 30
0.0
 40
4.999999999999856
100
AcDbArc
 50
317.974002
 51
358.8
  0
ARC
  5
24F
102
{ACAD_REACTORS
330
700
102
}
330
1F
100
AcDbEntity
  8
LC-002-002-----0
 62
     7
370
    25
100
AcDbCircle
 10
1817.292957
 20
1803.798381
 30
0.0
 40
5.000000000000092
100
AcDbArc
 50
1.2
 51
42.025998
  0
LINE
  5
250
102
{ACAD_REACTORS
330
700
102
}
330
1F
100
AcDbEntity
  8
LC-002-002-----0
 62
     7
370
    25
100
AcDbLine
 10
1825.28208
 20
1661.151501
 30
0.0
 11
1822.291861
 21
1803.903093
 31
0.0
  0
ARC
  5
251
102
{ACAD_REACTORS
330
700
102
}
330
1F
100
AcDbEntity
  8
LC-002-002-----0
 62
     7
370
    25
100
AcDbCircle
 10
1835.279887
 20
1661.360925
 30
0.0
 40
9.999999999999798
100
AcDbArc
 50
181.2
 51
264.0
  0
LINE
  5
252
102
{ACAD_REACTORS
330
700
102
}
330
1F
100
AcDbEntity
  8
LC-002-002-----0
 62
     7
370
    25
100
AcDbLine
 10
1839.160539
 20
1650.897969
 30
0.0
 11
1834.234602
 21
1651.415706
 31
0.0
  0
ARC
  5
253
102
{ACAD_REACTORS
330
700
102
}
330
1F
100
AcDbEntity
  8
LC-002-002-----0
 62
     7
370
    25
100
AcDbCircle
 10
1838.637896
 20
1645.92536
 30
0.0
 40
5.0
100
AcDbArc
 50
0.0
 51
84.0
  0
LINE
  5
254
102
{ACAD_REACTORS
330
700
102
}
330
1F
100
AcDbEntity
  8
LC-002-002-----0
 62
     7
370
    25
100
AcDbLine
 10
1843.637896
 20
1627.288649
 30
0.0
 11
1843.637896
 21
1645.92536
 31
0.0
  0
LINE
  5
255
102
{ACAD_REACTORS
330
700
102
}
330
1F
100
AcDbEntity
  8
LC-002-002-----0
 62
     7
370
    25
100
AcDbLine
 10
1850.161292
 20
1656.137452
 30
0.0
 11
1852.637896
 21
1652.835313
 31
0.0
  0
ARC
  5
256
102
{ACAD_REACTORS
330
700
102
}
330
1F
100
AcDbEntity
  8
LC-002-002-----0
 62
     7
370
    25
100
AcDbCircle
 10
1848.561292
 20
1654.937452
 30
0.0
 40
1.999999999999863
100
AcDbArc
 50
36.869898
 51
84.0
  0
LINE
  5
257
102
{ACAD_REACTORS
330
700
102
}
330
1F
100
AcDbEntity
  8
LC-002-002-----0
 62
     7
370
    25
100
AcDbLine
 10
1848.770349
 20
1656.926496
 30
0.0
 11
1837.847943
 21
1658.074487
 31
0.0
  0
ARC
  5
258
102
{ACAD_REACTORS
330
700
102
}
330
1F
100
AcDbEntity
  8
LC-002-002-----0
 62
     7
370
    25
100
AcDbCircle
 10
1838.266057
 20
1662.052574
 30
0.0
 40
4.000000000000063
100
AcDbArc
 50
181.2
 51
264.0
  0
LINE
  5
259
102
{ACAD_REACTORS
330
700
102
}
330
1F
100
AcDbEntity
  8
LC-002-002-----0
 62
     7
370
    25
100
AcDbLine
 10
1831.156671
 20
1810.451224
 30
0.0
 11
1834.266934
 21
1661.968805
 31
0.0
  0
ARC
  5
25A
102
{ACAD_REACTORS
330
700
102
}
330
1F
100
AcDbEntity
  8
LC-002-002-----0
 62
     7
370
    25
100
AcDbCircle
 10
1830.15689
 20
1810.430281
 30
0.0
 40
1.000000000000064
100
AcDbArc
 50
1.2
 51
83.339813
  0
ARC
  5
25B
102
{ACAD_REACTORS
330
700
102
}
330
1F
100
AcDbEntity
  8
LC-002-002-----0
 62
     7
370
    25
100
AcDbCircle
 10
1830.365655
 20
1812.218134
 30
0.0
 40
0.7999999999998252
100
AcDbArc
 50
195.0
 51
263.339813
  0
LINE
  5
25C
102
{ACAD_REACTORS
330
700
102
}
330
1F
100
AcDbEntity
  8
LC-002-002-----0
 62
     7
370
    25
100
AcDbLine
 10
1829.420249
 20
1812.655477
 30
0.0
 11
1829.592915
 21
1812.011079
 31
0.0
  0
ARC
  5
25D
102
{ACAD_REACTORS
330
700
102
}
330
1F
100
AcDbEntity
  8
LC-002-002-----0
 62
     7
370
    25
100
AcDbCircle
 10
1827.97136
 20
1812.267249
 30
0.0
 40
1.500000000000002
100
AcDbArc
 50
15.0
 51
85.0
  0
LINE
  5
25E
102
{ACAD_REACTORS
330
700
102
}
330
1F
100
AcDbEntity
  8
LC-002-002-----0
 62
     7
370
    25
100
AcDbLine
 10
1821.007163
 20
1814.382267
 30
0.0
 11
1828.102094
 21
1813.761541
 31
0.0
  0
LINE
  5
25F
102
{ACAD_REACTORS
330
700
102
}
330
1F
100
AcDbEntity
  8
LC-002-002-----0
 62
     7
370
    25
100
AcDbLine
 10
1821.007163
 20
1844.657733
 30
0.0
 11
1828.102094
 21
1845.278459
 31
0.0
  0
ARC
  5
260
102
{ACAD_REACTORS
330
700
102
}
330
1F
100
AcDbEntity
  8
LC-002-002-----0
 62
     7
370
    25
100
AcDbCircle
 10
1827.97136
 20
1846.772751
 30
0.0
 40
1.499999999999987
100
AcDbArc
 50
275.0
 51
345.0
  0
LINE
  5
261
102
{ACAD_REACTORS
330
700
102
}
330
1F
100
AcDbEntity
  8
LC-002-002-----0
 62
     7
370
    25
100
AcDbLine
 10
1829.420249
 20
1846.384523
 30
0.0
 11
1829.592915
 21
1847.028921
 31
0.0
  0
ARC
  5
262
102
{ACAD_REACTORS
330
700
102
}
330
1F
100
AcDbEntity
  8
LC-002-002-----0
 62
     7
370
    25
100
AcDbCircle
 10
1830.365655
 20
1846.821866
 30
0.0
 40
0.7999999999998997
100
AcDbArc
 50
96.660187
 51
165.0
  0
ARC
  5
263
102
{ACAD_REACTORS
330
700
102
}
330
1F
100
AcDbEntity
  8
LC-002-002-----0
 62
     7
370
    25
100
AcDbCircle
 10
1830.15689
 20
1848.609719
 30
0.0
 40
0.9999999999999611
100
AcDbArc
 50
276.660187
 51
358.8
  0
LINE
  5
264
102
{ACAD_REACTORS
330
700
102
}
330
1F
100
AcDbEntity
  8
LC-002-002-----0
 62
     7
370
    25
100
AcDbLine
 10
1831.156671
 20
1848.588776
 30
0.0
 11
1834.266934
 21
1997.071195
 31
0.0
  0
ARC
  5
265
102
{ACAD_REACTORS
330
700
102
}
330
1F
100
AcDbEntity
  8
LC-002-002-----0
 62
     7
370
    25
100
AcDbCircle
 10
1838.266057
 20
1996.987426
 30
0.0
 40
4.000000000000038
100
AcDbArc
 50
96.0
 51
178.8
  0
LINE
  5
266
102
{ACAD_REACTORS
330
700
102
}
330
1F
100
AcDbEntity
  8
LC-002-002-----0
 62
     7
370
    25
100
AcDbLine
 10
1848.770349
 20
2002.113504
 30
0.0
 11
1837.847943
 21
2000.965513
 31
0.0
  0
ARC
  5
267
102
{ACAD_REACTORS
330
700
102
}
330
1F
100
AcDbEntity
  8
LC-002-002-----0
 62
     7
370
    25
100
AcDbCircle
 10
1848.561292
 20
2004.102548
 30
0.0
 40
2.000000000000019
100
AcDbArc
 50
276.0
 51
323.130102
  0
LINE
  5
268
102
{ACAD_REACTORS
330
700
102
}
330
1F
100
AcDbEntity
  8
LC-002-002-----0
 62
     7
370
    25
100
AcDbLine
 10
1852.637896
 20
2006.204687
 30
0.0
 11
1850.161292
 21
2002.902548
 31
0.0
  0
ARC
  5
269
102
{ACAD_REACTORS
330
6F8
102
}
330
1F
100
AcDbEntity
  8
LC-004-002-RND-0
 62
     7
370
    50
100
AcDbCircle
 10
1813.071962
 20
2086.375414
 30
0.0
 40
40.00000000000001
100
AcDbArc
 50
276.623955
 51
280.123018
  0
LINE
  5
26A
102
{ACAD_REACTORS
330
6F8
102
}
330
1F
100
AcDbEntity
  8
LC-002-002-----0
 62
     7
370
    50
100
AcDbLine
 10
1820.102451
 20
2046.998108
 30
0.0
 11
1827.428884
 21
2048.306181
 31
0.0
  0
ARC
  5
26B
102
{ACAD_REACTORS
330
6F8
102
}
330
1F
100
AcDbEntity
  8
LC-004-002-RND-0
 62
     7
370
    50
100
AcDbCircle
 10
1834.459372
 20
2008.928875
 30
0.0
 40
40.00000000000043
100
AcDbArc
 50
96.623955
 51
100.123018
  0
LINE
  5
26C
102
{ACAD_REACTORS
330
6F8
102
}
330
1F
100
AcDbEntity
  8
LC-002-002-----0
 62
     7
370
    50
100
AcDbLine
 10
1817.68606
 20
1612.397571
 30
0.0
 11
1677.371424
 21
1628.691982
 31
0.0
  0
LINE
  5
26D
102
{ACAD_REACTORS
330
6F8
102
}
330
1F
100
AcDbEntity
  8
LC-002-002-----0
 62
     7
370
    50
100
AcDbLine
 10
1836.637896
 20
1609.589329
 30
0.0
 11
1829.845274
 21
1610.37814
 31
0.0
  0
ARC
  5
26E
102
{ACAD_REACTORS
330
6F8
102
}
330
1F
100
AcDbEntity
  8
LC-004-002-RND-0
 62
     7
370
    50
100
AcDbCircle
 10
1676.28726
 20
1642.911967
 30
0.0
 40
22.00000000000008
100
AcDbArc
 50
182.5
 51
263.376045
  0
ARC
  5
26F
102
{ACAD_REACTORS
330
6F8
102
}
330
1F
100
AcDbEntity
  8
LC-004-002-RND-0
 62
     7
370
    50
100
AcDbCircle
 10
1679.217064
 20
1644.585176
 30
0.0
 40
16.00000000000006
100
AcDbArc
 50
182.5
 51
263.376045
  0
LINE
  5
270
102
{ACAD_REACTORS
330
6F8
102
}
330
1F
100
AcDbEntity
  8
LC-002-002-----0
 62
     7
370
    50
100
AcDbLine
 10
1819.179631
 20
1604.095295
 30
0.0
 11
1826.506064
 21
1602.787222
 31
0.0
  0
ARC
  5
271
102
{ACAD_REACTORS
330
6F8
102
}
330
1F
100
AcDbEntity
  8
LC-004-002-RND-0
 62
     7
370
    50
100
AcDbCircle
 10
1833.536553
 20
1642.164528
 30
0.0
 40
40.00000000000021
100
AcDbArc
 50
259.876982
 51
263.376045
  0
ARC
  5
272
102
{ACAD_REACTORS
330
6F8
102
}
330
1F
100
AcDbEntity
  8
LC-004-002-RND-0
 62
     7
370
    50
100
AcDbCircle
 10
1812.149142
 20
1564.717989
 30
0.0
 40
40.00000000000029
100
AcDbArc
 50
79.876982
 51
83.376045
  0
LINE
  5
273
102
{ACAD_REACTORS
330
6F8
102
}
330
1F
100
AcDbEntity
  8
LC-002-002-----0
 62
     7
370
    50
100
AcDbLine
 10
1836.637896
 20
1601.535567
 30
0.0
 11
1828.922454
 21
1602.431543
 31
0.0
  0
LINE
  5
274
102
{ACAD_REACTORS
330
6F8
102
}
330
1F
100
AcDbEntity
  8
LC-002-002-----0
 62
     7
370
    50
100
AcDbLine
 10
1816.763241
 20
1604.450974
 30
0.0
 11
1673.749505
 21
1621.058825
 31
0.0
  0
ARC
  5
275
102
{ACAD_REACTORS
330
6F8
102
}
330
1F
100
AcDbEntity
  8
LC-004-002-RND-0
 62
     7
370
    50
100
AcDbCircle
 10
1813.071962
 20
1572.664586
 30
0.0
 40
40.00000000000006
100
AcDbArc
 50
79.876982
 51
83.376045
  0
LINE
  5
276
102
{ACAD_REACTORS
330
6F8
102
}
330
1F
100
AcDbEntity
  8
LC-002-002-----0
 62
     7
370
    50
100
AcDbLine
 10
1820.102451
 20
1612.041892
 30
0.0
 11
1827.428884
 21
1610.733819
 31
0.0
  0
ARC
  5
277
102
{ACAD_REACTORS
330
6F8
102
}
330
1F
100
AcDbEntity
  8
LC-004-002-RND-0
 62
     7
370
    50
100
AcDbCircle
 10
1834.459372
 20
1650.111125
 30
0.0
 40
40.00000000000048
100
AcDbArc
 50
259.876982
 51
263.376045
  0
INSERT
  5
294
102
{ACAD_REACTORS
330
6FC
102
}
330
1F
100
AcDbEntity
  8
LC-008-003-----0
 62
     7
370
    25
100
AcDbBlockReference
  2
LCDIM1
 10
0.0
 20
0.0
 30
0.0
  0
INSERT
  5
2AE
102
{ACAD_REACTORS
330
6FC
102
}
330
1F
100
AcDbEntity
  8
LC-008-003-----0
 62
     7
370
    25
100
AcDbBlockReference
  2
LCDIM2
 10
0.0
 20
0.0
 30
0.0
  0
INSERT
  5
2C8
102
{ACAD_REACTORS
330
6F4
102
}
330
1F
100
AcDbEntity
  8
LC-008-003-----0
 62
     7
370
    25
100
AcDbBlockReference
  2
LCDIM3
 10
0.0
 20
0.0
 30
0.0
  0
LINE
  5
2C9
102
{ACAD_REACTORS
330
6F4
102
}
330
1F
100
AcDbEntity
  8
LC-002-002-----0
 62
     7
370
    50
100
AcDbLine
 10
793.195249
 20
2670.03
 30
0.0
 11
330.695249
 21
2670.03
 31
0.0
  0
CIRCLE
  5
2CA
102
{ACAD_REACTORS
330
6FC
102
}
330
1F
100
AcDbEntity
  8
LC-005-006-MLN-0
  6
DASHDOT
 62
     7
370
    25
100
AcDbCircle
 10
775.695249
 20
1617.52
 30
0.0
 40
17.5
  0
INSERT
  5
2E4
102
{ACAD_REACTORS
330
6FC
102
}
330
1F
100
AcDbEntity
  8
LC-008-003-----0
 62
     7
370
    25
100
AcDbBlockReference
  2
LCDIM4
 10
0.0
 20
0.0
 30
0.0
  0
INSERT
  5
2FE
102
{ACAD_REACTORS
330
6F4
102
}
330
1F
100
AcDbEntity
  8
LC-008-003-----0
 62
     7
370
    25
100
AcDbBlockReference
  2
LCDIM5
 10
0.0
 20
0.0
 30
0.0
  0
LINE
  5
2FF
102
{ACAD_REACTORS
330
6F3
102
}
330
1F
100
AcDbEntity
  8
LC-002-002-----0
 62
     7
370
    50
100
AcDbLine
 10
700.695249
 20
2625.03
 30
0.0
 11
700.695249
 21
2523.24955
 31
0.0
  0
LINE
  5
300
102
{ACAD_REACTORS
330
6F3
102
}
330
1F
100
AcDbEntity
  8
LC-002-002-----0
 62
     7
370
    50
100
AcDbLine
 10
719.695249
 20
2625.03
 30
0.0
 11
719.695249
 21
2523.24955
 31
0.0
  0
LINE
  5
301
102
{ACAD_REACTORS
330
6F3
102
}
330
1F
100
AcDbEntity
  8
LC-002-002-----0
 62
     7
370
    50
100
AcDbLine
 10
700.695249
 20
2625.03
 30
0.0
 11
719.695249
 21
2625.03
 31
0.0
  0
INSERT
  5
31B
102
{ACAD_REACTORS
330
6F3
102
}
330
1F
100
AcDbEntity
  8
LC-008-003-----0
 62
     7
370
    25
100
AcDbBlockReference
  2
LCDIM6
 10
0.0
 20
0.0
 30
0.0
  0
INSERT
  5
324
102
{ACAD_REACTORS
330
6F3
102
}
330
1F
100
AcDbEntity
  8
LC-009-005-----0
 62
     7
370
    25
100
AcDbBlockReference
  2
*X18
 10
0.0
 20
0.0
 30
0.0
  0
INSERT
  5
32C
102
{ACAD_REACTORS
330
6F3
102
}
330
1F
100
AcDbEntity
  8
LC-009-005-----0
 62
     7
370
    25
100
AcDbBlockReference
  2
*X29
 10
0.0
 20
0.0
 30
0.0
  0
INSERT
  5
339
102
{ACAD_REACTORS
330
6F3
102
}
330
1F
100
AcDbEntity
  8
LC-009-005-----0
 62
     7
370
    25
100
AcDbBlockReference
  2
*X310
 10
0.0
 20
0.0
 30
0.0
  0
LINE
  5
33A
102
{ACAD_REACTORS
330
6F8
102
}
330
1F
100
AcDbEntity
  8
LC-002-002-----0
 62
     7
370
    50
100
AcDbLine
 10
1852.637896
 20
2058.244308
 30
0.0
 11
1850.085958
 21
2051.864462
 31
0.0
  0
ARC
  5
33B
102
{ACAD_REACTORS
330
6F8
102
}
330
1F
100
AcDbEntity
  8
LC-002-002-----0
 62
     7
370
    50
100
AcDbCircle
 10
1848.229005
 20
2052.607244
 30
0.0
 40
2.000000000000043
100
AcDbArc
 50
276.0
 51
338.198591
  0
LINE
  5
33C
102
{ACAD_REACTORS
330
6F8
102
}
330
1F
100
AcDbEntity
  8
LC-002-002-----0
 62
     7
370
    50
100
AcDbLine
 10
1848.438062
 20
2050.6182
 30
0.0
 11
1836.637896
 21
2049.377953
 31
0.0
  0
LINE
  5
33D
102
{ACAD_REACTORS
330
6F8
102
}
330
1F
100
AcDbEntity
  8
LC-002-002-----0
 62
     7
370
    50
100
AcDbLine
 10
1852.637896
 20
1600.795692
 30
0.0
 11
1850.085958
 21
1607.175538
 31
0.0
  0
ARC
  5
33E
102
{ACAD_REACTORS
330
6F8
102
}
330
1F
100
AcDbEntity
  8
LC-002-002-----0
 62
     7
370
    50
100
AcDbCircle
 10
1848.229005
 20
1606.432756
 30
0.0
 40
2.000000000000004
100
AcDbArc
 50
21.801409
 51
84.0
  0
LINE
  5
33F
102
{ACAD_REACTORS
330
6F8
102
}
330
1F
100
AcDbEntity
  8
LC-002-002-----0
 62
     7
370
    50
100
AcDbLine
 10
1848.438062
 20
1608.4218
 30
0.0
 11
1836.637896
 21
1609.662047
 31
0.0
  0
INSERT
  5
359
102
{ACAD_REACTORS
330
6F8
102
}
330
1F
100
AcDbEntity
  8
LC-008-003-----0
 62
     7
370
    25
100
AcDbBlockReference
  2
LCDIM7
 10
0.0
 20
0.0
 30
0.0
  0
LINE
  5
35A
102
{ACAD_REACTORS
330
6FA
102
}
330
1F
100
AcDbEntity
  8
LC-002-002-----0
 62
     7
370
    50
100
AcDbLine
 10
338.498057
 20
997.041654
 30
0.0
 11
338.498057
 21
767.041654
 31
0.0
  0
LINE
  5
35B
102
{ACAD_REACTORS
330
6FA
102
}
330
1F
100
AcDbEntity
  8
LC-002-002-----0
 62
     7
370
    50
100
AcDbLine
 10
343.498057
 20
762.041654
 30
0.0
 11
823.498057
 21
762.041654
 31
0.0
  0
LINE
  5
35C
102
{ACAD_REACTORS
330
6FA
102
}
330
1F
100
AcDbEntity
  8
LC-002-002-----0
 62
     7
370
    50
100
AcDbLine
 10
828.498057
 20
767.041654
 30
0.0
 11
828.498057
 21
997.041654
 31
0.0
  0
LINE
  5
35D
102
{ACAD_REACTORS
330
6FA
102
}
330
1F
100
AcDbEntity
  8
LC-002-002-----0
 62
     7
370
    50
100
AcDbLine
 10
823.498057
 20
1002.041654
 30
0.0
 11
343.498057
 21
1002.041654
 31
0.0
  0
ARC
  5
35E
102
{ACAD_REACTORS
330
6FA
102
}
330
1F
100
AcDbEntity
  8
LC-004-002-RND-0
 62
     7
370
    50
100
AcDbCircle
 10
343.498057
 20
997.041654
 30
0.0
 40
5.0
100
AcDbArc
 50
90.0
 51
180.0
  0
ARC
  5
35F
102
{ACAD_REACTORS
330
6FA
102
}
330
1F
100
AcDbEntity
  8
LC-004-002-RND-0
 62
     7
370
    50
100
AcDbCircle
 10
343.498057
 20
767.041654
 30
0.0
 40
5.0
100
AcDbArc
 50
180.0
 51
270.0
  0
ARC
  5
360
102
{ACAD_REACTORS
330
6FA
102
}
330
1F
100
AcDbEntity
  8
LC-004-002-RND-0
 62
     7
370
    50
100
AcDbCircle
 10
823.498057
 20
997.041654
 30
0.0
 40
5.0
100
AcDbArc
 50
0.0
 51
90.0
  0
ARC
  5
361
102
{ACAD_REACTORS
330
6FA
102
}
330
1F
100
AcDbEntity
  8
LC-004-002-RND-0
 62
     7
370
    50
100
AcDbCircle
 10
823.498057
 20
767.041654
 30
0.0
 40
5.0
100
AcDbArc
 50
270.0
 51
0.0
  0
LINE
  5
362
102
{ACAD_REACTORS
330
6FA
102
}
330
1F
100
AcDbEntity
  8
LC-002-002-----0
  6
DASHDOT
 62
     7
370
    25
100
AcDbLine
 10
828.498057
 20
734.910114
 30
0.0
 11
828.498057
 21
1043.402371
 31
0.0
  0
INSERT
  5
37C
102
{ACAD_REACTORS
330
6FA
102
}
330
1F
100
AcDbEntity
  8
LC-008-003-----0
 62
     7
370
    25
100
AcDbBlockReference
  2
LCDIM8
 10
0.0
 20
0.0
 30
0.0
  0
INSERT
  5
396
102
{ACAD_REACTORS
330
6FA
102
}
330
1F
100
AcDbEntity
  8
LC-008-003-----0
 62
     7
370
    25
100
AcDbBlockReference
  2
LCDIM9
 10
0.0
 20
0.0
 30
0.0
  0
LINE
  5
397
102
{ACAD_REACTORS
330
6FA
102
}
330
1F
100
AcDbEntity
  8
LC-002-002-----0
  6
DASHDOT
 62
     7
370
    25
100
AcDbLine
 10
818.998057
 20
734.910114
 30
0.0
 11
818.998057
 21
1043.402371
 31
0.0
  0
LINE
  5
398
102
{ACAD_REACTORS
330
6FA
102
}
330
1F
100
AcDbEntity
  8
LC-002-002-----0
  6
DASHDOT
 62
     7
370
    25
100
AcDbLine
 10
528.498057
 20
734.910114
 30
0.0
 11
528.498057
 21
1043.402371
 31
0.0
  0
LINE
  5
399
102
{ACAD_REACTORS
330
6FA
102
}
330
1F
100
AcDbEntity
  8
LC-002-002-----0
  6
DASHDOT
 62
     7
370
    25
100
AcDbLine
 10
537.998057
 20
734.910114
 30
0.0
 11
537.998057
 21
1043.402371
 31
0.0
  0
INSERT
  5
3B3
102
{ACAD_REACTORS
330
6FA
102
}
330
1F
100
AcDbEntity
  8
LC-008-003-----0
 62
     7
370
    25
100
AcDbBlockReference
  2
LCDIM10
 10
0.0
 20
0.0
 30
0.0
  0
TEXT
  5
3B5
102
{ACAD_REACTORS
330
6FA
102
}
330
1F
100
AcDbEntity
  8
LC-010-004-----0
 62
     7
370
    35
100
AcDbText
 10
353.632461
 20
1120.616516
 30
0.0
 40
35.0
  1
Ausschnitt übergreifend 1:20
 41
0.8
  7
LCTX0-400-0-0pDIN-Schrift
100
AcDbText
  0
LINE
  5
3B6
102
{ACAD_REACTORS
330
6FB
102
}
330
1F
100
AcDbEntity
  8
LC-002-002-----0
 62
     7
370
    50
100
AcDbLine
 10
1551.350285
 20
790.29
 30
0.0
 11
1792.850285
 21
790.29
 31
0.0
  0
ARC
  5
3B7
102
{ACAD_REACTORS
330
6FB
102
}
330
1F
100
AcDbEntity
  8
LC-002-002-----0
 62
     7
370
    50
100
AcDbCircle
 10
1792.850285
 20
795.29
 30
0.0
 40
5.0
100
AcDbArc
 50
270.0
 51
0.0
  0
LINE
  5
3B8
102
{ACAD_REACTORS
330
6FB
102
}
330
1F
100
AcDbEntity
  8
LC-002-002-----0
 62
     7
370
    50
100
AcDbLine
 10
1797.850285
 20
795.29
 30
0.0
 11
1797.850285
 21
1028.29
 31
0.0
  0
ARC
  5
3B9
102
{ACAD_REACTORS
330
6FB
102
}
330
1F
100
AcDbEntity
  8
LC-002-002-----0
 62
     7
370
    50
100
AcDbCircle
 10
1792.850285
 20
1028.29
 30
0.0
 40
5.0
100
AcDbArc
 50
0.0
 51
90.0
  0
LINE
  5
3BA
102
{ACAD_REACTORS
330
6FB
102
}
330
1F
100
AcDbEntity
  8
LC-002-002-----0
 62
     7
370
    50
100
AcDbLine
 10
1792.850285
 20
1033.29
 30
0.0
 11
1309.850285
 21
1033.29
 31
0.0
  0
ARC
  5
3BB
102
{ACAD_REACTORS
330
6FB
102
}
330
1F
100
AcDbEntity
  8
LC-002-002-----0
 62
     7
370
    50
100
AcDbCircle
 10
1309.850285
 20
1028.29
 30
0.0
 40
5.0
100
AcDbArc
 50
90.0
 51
180.0
  0
LINE
  5
3BC
102
{ACAD_REACTORS
330
6FB
102
}
330
1F
100
AcDbEntity
  8
LC-002-002-----0
 62
     7
370
    50
100
AcDbLine
 10
1304.850285
 20
1028.29
 30
0.0
 11
1304.850285
 21
795.29
 31
0.0
  0
ARC
  5
3BD
102
{ACAD_REACTORS
330
6FB
102
}
330
1F
100
AcDbEntity
  8
LC-002-002-----0
 62
     7
370
    50
100
AcDbCircle
 10
1309.850285
 20
795.29
 30
0.0
 40
5.0
100
AcDbArc
 50
180.0
 51
270.0
  0
LINE
  5
3BE
102
{ACAD_REACTORS
330
6FB
102
}
330
1F
100
AcDbEntity
  8
LC-002-002-----0
 62
     7
370
    50
100
AcDbLine
 10
1309.850285
 20
790.29
 30
0.0
 11
1551.350285
 21
790.29
 31
0.0
  0
LINE
  5
3BF
102
{ACAD_REACTORS
330
6FB
102
}
330
1F
100
AcDbEntity
  8
LC-005-006-MLN-0
 62
     7
370
    25
100
AcDbLine
 10
1301.850285
 20
911.79
 30
0.0
 11
1800.850285
 21
911.79
 31
0.0
  0
LINE
  5
3C0
102
{ACAD_REACTORS
330
6FB
102
}
330
1F
100
AcDbEntity
  8
LC-005-006-MLN-0
 62
     7
370
    25
100
AcDbLine
 10
1551.350285
 20
787.29
 30
0.0
 11
1551.350285
 21
1036.29
 31
0.0
  0
INSERT
  5
3DA
102
{ACAD_REACTORS
330
6FB
102
}
330
1F
100
AcDbEntity
  8
LC-008-003-----0
 62
     7
370
    25
100
AcDbBlockReference
  2
LCDIM11
 10
0.0
 20
0.0
 30
0.0
  0
INSERT
  5
3F4
102
{ACAD_REACTORS
330
6FB
102
}
330
1F
100
AcDbEntity
  8
LC-008-003-----0
 62
     7
370
    25
100
AcDbBlockReference
  2
LCDIM12
 10
0.0
 20
0.0
 30
0.0
  0
INSERT
  5
403
102
{ACAD_REACTORS
330
6FB
102
}
330
1F
100
AcDbEntity
  8
LC-008-003-----0
 62
     7
370
    25
100
AcDbBlockReference
  2
LCDIM13
 10
0.0
 20
0.0
 30
0.0
  0
TEXT
  5
404
102
{ACAD_REACTORS
330
6FB
102
}
330
1F
100
AcDbEntity
  8
LC-010-004-----0
 62
     7
370
    35
100
AcDbText
 10
1317.178249
 20
1091.143957
 30
0.0
 40
35.0
  1
Ausschnitt Unterbau  1:20
 41
0.8
  7
LCTX0-400-0-0pDIN-Schrift
100
AcDbText
  0
INSERT
  5
413
102
{ACAD_REACTORS
330
6FA
102
}
330
1F
100
AcDbEntity
  8
LC-008-003-----0
 62
     7
370
    25
100
AcDbBlockReference
  2
LCDIM14
 10
0.0
 20
0.0
 30
0.0
  0
TEXT
  5
414
330
1F
100
AcDbEntity
  8
LC-010-004-----0
 62
     7
370
    18
100
AcDbText
 10
1187.853215
 20
478.722561
 30
0.0
 40
17.5
  1
Art.Nr. 
 41
0.8
  7
LCTX0-400-0-0pDIN-Schrift
100
AcDbText
  0
TEXT
  5
415
330
1F
100
AcDbEntity
  8
LC-010-004-----0
 62
     7
370
    25
100
AcDbText
 10
1266.320205
 20
474.972561
 30
0.0
 40
25.0
  1
582
 41
0.8
  7
LCTX0-400-0-0pDIN-Schrift
100
AcDbText
  0
TEXT
  5
416
330
1F
100
AcDbEntity
  8
LC-010-004-----0
 62
     7
370
    18
100
AcDbText
 10
1707.330024
 20
560.801911
 30
0.0
 40
17.5
  1
Material: 
 41
0.8
  7
LCTX0-400-0-0pDIN-Schrift
100
AcDbText
  0
TEXT
  5
417
330
1F
100
AcDbEntity
  8
LC-010-004-----0
 62
     7
370
    25
100
AcDbText
 10
1803.545046
 20
557.051911
 30
0.0
 40
25.0
  1
Cristalite
 41
0.8
  7
LCTX0-400-0-0pDIN-Schrift
100
AcDbText
  0
LINE
  5
418
102
{ACAD_REACTORS
330
6FE
102
}
330
1F
100
AcDbEntity
  8
LC-002-002-----0
 62
     7
370
    25
100
AcDbLine
 10
852.195249
 20
2460.975131
 30
0.0
 11
962.195249
 21
2460.975131
 31
0.0
  0
LINE
  5
419
102
{ACAD_REACTORS
330
6FE
102
}
330
1F
100
AcDbEntity
  8
LC-002-002-----0
 62
     7
370
    25
100
AcDbLine
 10
962.195249
 20
2456.975131
 30
0.0
 11
962.195249
 21
2460.975131
 31
0.0
  0
LINE
  5
41A
102
{ACAD_REACTORS
330
6FE
102
}
330
1F
100
AcDbEntity
  8
LC-002-002-----0
 62
     7
370
    25
100
AcDbLine
 10
944.695249
 20
2418.33245
 30
0.0
 11
869.695249
 21
2418.33245
 31
0.0
  0
LINE
  5
41B
102
{ACAD_REACTORS
330
6FE
102
}
330
1F
100
AcDbEntity
  8
LC-002-002-----0
 62
     7
370
    25
100
AcDbLine
 10
946.700212
 20
2420.83245
 30
0.0
 11
944.695249
 21
2420.83245
 31
0.0
  0
LINE
  5
41C
102
{ACAD_REACTORS
330
6FE
102
}
330
1F
100
AcDbEntity
  8
LC-002-002-----0
 62
     7
370
    25
100
AcDbLine
 10
846.940519
 20
2423.580131
 30
0.0
 11
847.195249
 21
2423.580131
 31
0.0
  0
LINE
  5
41D
102
{ACAD_REACTORS
330
6FE
102
}
330
1F
100
AcDbEntity
  8
LC-002-002-----0
 62
     7
370
    25
100
AcDbLine
 10
847.195249
 20
2423.625131
 30
0.0
 11
866.092649
 21
2423.625131
 31
0.0
  0
LINE
  5
41E
102
{ACAD_REACTORS
330
6FD
102
}
330
1F
100
AcDbEntity
  8
LC-002-002-----0
 62
     7
370
    25
100
AcDbLine
 10
827.695249
 20
2426.234968
 30
0.0
 11
774.594788
 21
2426.234968
 31
0.0
  0
LINE
  5
41F
102
{ACAD_REACTORS
330
6FD
102
}
330
1F
100
AcDbEntity
  8
LC-002-002-----0
 62
     7
370
    25
100
AcDbLine
 10
761.397804
 20
2458.707409
 30
0.0
 11
762.095257
 21
2438.734958
 31
0.0
  0
LINE
  5
420
102
{ACAD_REACTORS
330
6FD
102
}
330
1F
100
AcDbEntity
  8
LC-002-002-----0
 62
     7
370
    25
100
AcDbLine
 10
754.595257
 20
2473.734968
 30
0.0
 11
754.595257
 21
2479.734968
 31
0.0
  0
LINE
  5
421
102
{ACAD_REACTORS
330
6FD
102
}
330
1F
100
AcDbEntity
  8
LC-002-002-----0
 62
     7
370
    25
100
AcDbLine
 10
827.695249
 20
2451.234968
 30
0.0
 11
787.531766
 21
2451.234968
 31
0.0
  0
LINE
  5
422
102
{ACAD_REACTORS
330
6FE
102
}
330
1F
100
AcDbEntity
  8
LC-002-002-----0
 62
     7
370
    25
100
AcDbLine
 10
847.195249
 20
2453.825131
 30
0.0
 11
852.212662
 21
2453.825131
 31
0.0
  0
LINE
  5
423
102
{ACAD_REACTORS
330
6FE
102
}
330
1F
100
AcDbEntity
  8
LC-002-002-----0
 62
     7
370
    25
100
AcDbLine
 10
846.940519
 20
2453.870131
 30
0.0
 11
847.195249
 21
2453.870131
 31
0.0
  0
LINE
  5
424
102
{ACAD_REACTORS
330
6FE
102
}
330
1F
100
AcDbEntity
  8
LC-002-002-----0
 62
     7
370
    25
100
AcDbLine
 10
854.256762
 20
2456.975131
 30
0.0
 11
852.195249
 21
2456.975131
 31
0.0
  0
LINE
  5
425
102
{ACAD_REACTORS
330
6FD
102
}
330
1F
100
AcDbEntity
  8
LC-002-002-----0
 62
     7
370
    25
100
AcDbLine
 10
754.595257
 20
2479.734968
 30
0.0
 11
794.595257
 21
2479.734968
 31
0.0
  0
LINE
  5
426
102
{ACAD_REACTORS
330
6FD
102
}
330
1F
100
AcDbEntity
  8
LC-002-002-----0
 62
     7
370
    25
100
AcDbLine
 10
794.595257
 20
2473.734968
 30
0.0
 11
794.595257
 21
2479.734968
 31
0.0
  0
LINE
  5
427
102
{ACAD_REACTORS
330
6FD
102
}
330
1F
100
AcDbEntity
  8
LC-002-002-----0
 62
     7
370
    25
100
AcDbLine
 10
787.79271
 20
2458.707409
 30
0.0
 11
787.531674
 21
2451.23234
 31
0.0
  0
LINE
  5
428
102
{ACAD_REACTORS
330
6FE
102
}
330
1F
100
AcDbEntity
  8
LC-002-002-----0
 62
     7
370
    25
100
AcDbLine
 10
842.317884
 20
2423.580131
 30
0.0
 11
843.088296
 21
2422.100183
 31
0.0
  0
LINE
  5
429
102
{ACAD_REACTORS
330
6FE
102
}
330
1F
100
AcDbEntity
  8
LC-002-002-----0
 62
     7
370
    25
100
AcDbLine
 10
843.858762
 20
2423.580131
 30
0.0
 11
844.629175
 21
2422.100183
 31
0.0
  0
LINE
  5
42A
102
{ACAD_REACTORS
330
6FE
102
}
330
1F
100
AcDbEntity
  8
LC-002-002-----0
 62
     7
370
    25
100
AcDbLine
 10
845.399641
 20
2423.580131
 30
0.0
 11
846.170053
 21
2422.100183
 31
0.0
  0
LINE
  5
42B
102
{ACAD_REACTORS
330
6FE
102
}
330
1F
100
AcDbEntity
  8
LC-002-002-----0
 62
     7
370
    25
100
AcDbLine
 10
843.08835
 20
2455.350079
 30
0.0
 11
843.858762
 21
2453.870131
 31
0.0
  0
LINE
  5
42C
102
{ACAD_REACTORS
330
6FE
102
}
330
1F
100
AcDbEntity
  8
LC-002-002-----0
 62
     7
370
    25
100
AcDbLine
 10
844.629229
 20
2455.350079
 30
0.0
 11
845.399641
 21
2453.870131
 31
0.0
  0
LINE
  5
42D
102
{ACAD_REACTORS
330
6FE
102
}
330
1F
100
AcDbEntity
  8
LC-002-002-----0
 62
     7
370
    25
100
AcDbLine
 10
846.170107
 20
2455.350079
 30
0.0
 11
846.940519
 21
2453.870131
 31
0.0
  0
LINE
  5
42E
102
{ACAD_REACTORS
330
6FE
102
}
330
1F
100
AcDbEntity
  8
LC-002-002-----0
 62
     7
370
    25
100
AcDbLine
 10
852.195249
 20
2453.761963
 30
0.0
 11
852.195249
 21
2456.975131
 31
0.0
  0
LINE
  5
42F
102
{ACAD_REACTORS
330
6FE
102
}
330
1F
100
AcDbEntity
  8
LC-002-002-----0
 62
     7
370
    25
100
AcDbLine
 10
842.317884
 20
2453.870131
 30
0.0
 11
843.088296
 21
2455.350079
 31
0.0
  0
LINE
  5
430
102
{ACAD_REACTORS
330
6FE
102
}
330
1F
100
AcDbEntity
  8
LC-002-002-----0
 62
     7
370
    25
100
AcDbLine
 10
843.858762
 20
2453.870131
 30
0.0
 11
844.629175
 21
2455.350079
 31
0.0
  0
LINE
  5
431
102
{ACAD_REACTORS
330
6FE
102
}
330
1F
100
AcDbEntity
  8
LC-002-002-----0
 62
     7
370
    25
100
AcDbLine
 10
845.399641
 20
2453.870131
 30
0.0
 11
846.170053
 21
2455.350079
 31
0.0
  0
LINE
  5
432
102
{ACAD_REACTORS
330
6FE
102
}
330
1F
100
AcDbEntity
  8
LC-002-002-----0
 62
     7
370
    25
100
AcDbLine
 10
869.695249
 20
2420.83245
 30
0.0
 11
869.695249
 21
2418.33245
 31
0.0
  0
LINE
  5
433
102
{ACAD_REACTORS
330
6FE
102
}
330
1F
100
AcDbEntity
  8
LC-002-002-----0
 62
     7
370
    25
100
AcDbLine
 10
843.08835
 20
2422.100183
 30
0.0
 11
843.858762
 21
2423.580131
 31
0.0
  0
LINE
  5
434
102
{ACAD_REACTORS
330
6FE
102
}
330
1F
100
AcDbEntity
  8
LC-002-002-----0
 62
     7
370
    25
100
AcDbLine
 10
844.629229
 20
2422.100183
 30
0.0
 11
845.399641
 21
2423.580131
 31
0.0
  0
LINE
  5
435
102
{ACAD_REACTORS
330
6FE
102
}
330
1F
100
AcDbEntity
  8
LC-002-002-----0
 62
     7
370
    25
100
AcDbLine
 10
846.170107
 20
2422.100183
 30
0.0
 11
846.940519
 21
2423.580131
 31
0.0
  0
LINE
  5
436
102
{ACAD_REACTORS
330
6FE
102
}
330
1F
100
AcDbEntity
  8
LC-002-002-----0
 62
     7
370
    25
100
AcDbLine
 10
949.944638
 20
2425.162224
 30
0.0
 11
951.694613
 21
2426.172573
 31
0.0
  0
LINE
  5
437
102
{ACAD_REACTORS
330
6FE
102
}
330
1F
100
AcDbEntity
  8
LC-002-002-----0
 62
     7
370
    25
100
AcDbLine
 10
944.695249
 20
2420.83245
 30
0.0
 11
944.695249
 21
2418.33245
 31
0.0
  0
LINE
  5
438
102
{ACAD_REACTORS
330
6FE
102
}
330
1F
100
AcDbEntity
  8
LC-002-002-----0
 62
     7
370
    25
100
AcDbLine
 10
954.695249
 20
2431.369092
 30
0.0
 11
954.695249
 21
2446.83245
 31
0.0
  0
LINE
  5
439
102
{ACAD_REACTORS
330
6FE
102
}
330
1F
100
AcDbEntity
  8
LC-002-002-----0
 62
     7
370
    25
100
AcDbLine
 10
962.195249
 20
2456.514908
 30
0.0
 11
962.195249
 21
2456.975131
 31
0.0
  0
ARC
  5
43A
102
{ACAD_REACTORS
330
6FE
102
}
330
1F
100
AcDbEntity
  8
LC-002-002-----0
 62
     7
370
    25
100
AcDbCircle
 10
958.695249
 20
2446.83245
 30
0.0
 40
4.000000000000309
100
AcDbArc
 50
104.492147
 51
180.0
  0
ARC
  5
43B
102
{ACAD_REACTORS
330
6FE
102
}
330
1F
100
AcDbEntity
  8
LC-002-002-----0
 62
     7
370
    25
100
AcDbCircle
 10
956.195249
 20
2456.514908
 30
0.0
 40
6.000000000000098
100
AcDbArc
 50
284.469452
 51
0.0
  0
ARC
  5
43C
102
{ACAD_REACTORS
330
6FE
102
}
330
1F
100
AcDbEntity
  8
LC-002-002-----0
 62
     7
370
    25
100
AcDbCircle
 10
948.695249
 20
2431.369092
 30
0.0
 40
5.999999999999863
100
AcDbArc
 50
299.988476
 51
0.0
  0
ARC
  5
43D
102
{ACAD_REACTORS
330
6FE
102
}
330
1F
100
AcDbEntity
  8
LC-002-002-----0
 62
     7
370
    25
100
AcDbCircle
 10
952.445249
 20
2420.83245
 30
0.0
 40
5.000000000000414
100
AcDbArc
 50
120.016153
 51
172.072225
  0
ARC
  5
43E
102
{ACAD_REACTORS
330
6FE
102
}
330
1F
100
AcDbEntity
  8
LC-002-002-----0
 62
     7
370
    25
100
AcDbCircle
 10
861.945249
 20
2420.83245
 30
0.0
 40
5.000000000000032
100
AcDbArc
 50
7.927775
 51
33.954632
  0
ARC
  5
43F
102
{ACAD_REACTORS
330
6FE
102
}
330
1F
100
AcDbEntity
  8
LC-002-002-----0
 62
     7
370
    25
100
AcDbCircle
 10
946.700686
 20
2421.63245
 30
0.0
 40
0.8000000000001819
100
AcDbArc
 50
270.0
 51
352.062606
  0
ARC
  5
440
102
{ACAD_REACTORS
330
6FE
102
}
330
1F
100
AcDbEntity
  8
LC-002-002-----0
 62
     7
370
    25
100
AcDbCircle
 10
867.689811
 20
2421.63245
 30
0.0
 40
0.7999999999998813
100
AcDbArc
 50
187.937394
 51
270.0
  0
ARC
  5
441
102
{ACAD_REACTORS
330
6FD
102
}
330
1F
100
AcDbEntity
  8
LC-002-002-----0
 62
     7
370
    25
100
AcDbCircle
 10
774.595257
 20
2473.734968
 30
0.0
 40
19.99999999999994
100
AcDbArc
 50
311.290426
 51
0.0
  0
ARC
  5
442
102
{ACAD_REACTORS
330
6FD
102
}
330
1F
100
AcDbEntity
  8
LC-002-002-----0
 62
     7
370
    25
100
AcDbCircle
 10
774.595257
 20
2473.734968
 30
0.0
 40
20.0
100
AcDbArc
 50
180.0
 51
228.709438
  0
ARC
  5
443
102
{ACAD_REACTORS
330
6FD
102
}
330
1F
100
AcDbEntity
  8
LC-002-002-----0
 62
     7
370
    25
100
AcDbCircle
 10
774.595257
 20
2438.734968
 30
0.0
 40
12.5
100
AcDbArc
 50
180.0
 51
270.0
  0
INSERT
  5
44D
102
{ACAD_REACTORS
330
6FE
102
}
330
1F
100
AcDbEntity
  8
LC-002-002-----0
 62
     7
370
    25
100
AcDbBlockReference
  2
POLY1
 10
0.0
 20
0.0
 30
0.0
  0
INSERT
  5
457
102
{ACAD_REACTORS
330
6FE
102
}
330
1F
100
AcDbEntity
  8
LC-002-002-----0
 62
     7
370
    25
100
AcDbBlockReference
  2
POLY2
 10
0.0
 20
0.0
 30
0.0
  0
INSERT
  5
465
102
{ACAD_REACTORS
330
6FE
102
}
330
1F
100
AcDbEntity
  8
LC-002-002-----0
 62
     7
370
    25
100
AcDbBlockReference
  2
POLY3
 10
0.0
 20
0.0
 30
0.0
  0
INSERT
  5
473
102
{ACAD_REACTORS
330
6FE
102
}
330
1F
100
AcDbEntity
  8
LC-002-002-----0
 62
     7
370
    25
100
AcDbBlockReference
  2
POLY4
 10
0.0
 20
0.0
 30
0.0
  0
INSERT
  5
49D
102
{ACAD_REACTORS
330
6FD
102
}
330
1F
100
AcDbEntity
  8
LC-002-002-----0
 62
     7
370
    25
100
AcDbBlockReference
  2
POLY5
 10
0.0
 20
0.0
 30
0.0
  0
INSERT
  5
4AB
102
{ACAD_REACTORS
330
6FE
102
}
330
1F
100
AcDbEntity
  8
LC-002-002-----0
 62
     7
370
    25
100
AcDbBlockReference
  2
POLY6
 10
0.0
 20
0.0
 30
0.0
  0
LINE
  5
4AC
102
{ACAD_REACTORS
330
6FE
102
}
330
1F
100
AcDbEntity
  8
LC-002-002-----0
 62
     7
370
    25
100
AcDbLine
 10
862.159636
 20
2446.83245
 30
0.0
 11
862.159636
 21
2438.725131
 31
0.0
  0
LINE
  5
4AD
102
{ACAD_REACTORS
330
6FE
102
}
330
1F
100
AcDbEntity
  8
LC-002-002-----0
 62
     7
370
    25
100
AcDbLine
 10
842.195249
 20
2418.725131
 30
0.0
 11
840.195249
 21
2418.725131
 31
0.0
  0
LINE
  5
4AE
102
{ACAD_REACTORS
330
6FE
102
}
330
1F
100
AcDbEntity
  8
LC-002-002-----0
 62
     7
370
    25
100
AcDbLine
 10
839.445247
 20
2420.767893
 30
0.0
 11
827.706014
 21
2420.767893
 31
0.0
  0
LINE
  5
4AF
102
{ACAD_REACTORS
330
6FE
102
}
330
1F
100
AcDbEntity
  8
LC-002-002-----0
 62
     7
370
    25
100
AcDbLine
 10
839.945249
 20
2421.840355
 30
0.0
 11
829.695249
 21
2421.840355
 31
0.0
  0
LINE
  5
4B0
102
{ACAD_REACTORS
330
6FE
102
}
330
1F
100
AcDbEntity
  8
LC-002-002-----0
 62
     7
370
    25
100
AcDbLine
 10
839.945249
 20
2438.294754
 30
0.0
 11
829.695249
 21
2438.294754
 31
0.0
  0
LINE
  5
4B1
102
{ACAD_REACTORS
330
6FE
102
}
330
1F
100
AcDbEntity
  8
LC-002-002-----0
 62
     7
370
    25
100
AcDbLine
 10
839.945249
 20
2439.155508
 30
0.0
 11
829.695249
 21
2439.155508
 31
0.0
  0
LINE
  5
4B2
102
{ACAD_REACTORS
330
6FE
102
}
330
1F
100
AcDbEntity
  8
LC-002-002-----0
 62
     7
370
    25
100
AcDbLine
 10
839.945249
 20
2455.609908
 30
0.0
 11
829.695249
 21
2455.609908
 31
0.0
  0
LINE
  5
4B3
102
{ACAD_REACTORS
330
6FE
102
}
330
1F
100
AcDbEntity
  8
LC-002-002-----0
 62
     7
370
    25
100
AcDbLine
 10
839.445247
 20
2456.682369
 30
0.0
 11
827.706014
 21
2456.682369
 31
0.0
  0
LINE
  5
4B4
102
{ACAD_REACTORS
330
6FE
102
}
330
1F
100
AcDbEntity
  8
LC-002-002-----0
 62
     7
370
    25
100
AcDbLine
 10
842.195249
 20
2458.725131
 30
0.0
 11
840.195249
 21
2458.725131
 31
0.0
  0
LINE
  5
4B5
102
{ACAD_REACTORS
330
6FE
102
}
330
1F
100
AcDbEntity
  8
LC-002-002-----0
 62
     7
370
    25
100
AcDbLine
 10
840.195152
 20
2418.725228
 30
0.0
 11
839.445261
 21
2419.475119
 31
0.0
  0
LINE
  5
4B6
102
{ACAD_REACTORS
330
6FE
102
}
330
1F
100
AcDbEntity
  8
LC-002-002-----0
 62
     7
370
    25
100
AcDbLine
 10
827.695249
 20
2420.975321
 30
0.0
 11
827.695249
 21
2456.474941
 31
0.0
  0
LINE
  5
4B7
102
{ACAD_REACTORS
330
6FE
102
}
330
1F
100
AcDbEntity
  8
LC-002-002-----0
 62
     7
370
    25
100
AcDbLine
 10
839.445107
 20
2423.027648
 30
0.0
 11
839.445107
 21
2436.924544
 31
0.0
  0
LINE
  5
4B8
102
{ACAD_REACTORS
330
6FE
102
}
330
1F
100
AcDbEntity
  8
LC-002-002-----0
 62
     7
370
    25
100
AcDbLine
 10
839.445107
 20
2440.525718
 30
0.0
 11
839.445107
 21
2454.422614
 31
0.0
  0
LINE
  5
4B9
102
{ACAD_REACTORS
330
6FE
102
}
330
1F
100
AcDbEntity
  8
LC-002-002-----0
 62
     7
370
    25
100
AcDbLine
 10
839.445261
 20
2419.475119
 30
0.0
 11
839.445261
 21
2421.226921
 31
0.0
  0
LINE
  5
4BA
102
{ACAD_REACTORS
330
6FE
102
}
330
1F
100
AcDbEntity
  8
LC-002-002-----0
 62
     7
370
    25
100
AcDbLine
 10
839.445249
 20
2456.22333
 30
0.0
 11
839.445261
 21
2457.975144
 31
0.0
  0
LINE
  5
4BB
102
{ACAD_REACTORS
330
6FE
102
}
330
1F
100
AcDbEntity
  8
LC-002-002-----0
 62
     7
370
    25
100
AcDbLine
 10
839.945156
 20
2421.410122
 30
0.0
 11
839.945156
 21
2421.84043
 31
0.0
  0
LINE
  5
4BC
102
{ACAD_REACTORS
330
6FE
102
}
330
1F
100
AcDbEntity
  8
LC-002-002-----0
 62
     7
370
    25
100
AcDbLine
 10
839.945156
 20
2455.609832
 30
0.0
 11
839.945156
 21
2456.04014
 31
0.0
  0
LINE
  5
4BD
102
{ACAD_REACTORS
330
6FE
102
}
330
1F
100
AcDbEntity
  8
LC-002-002-----0
 62
     7
370
    25
100
AcDbLine
 10
839.945258
 20
2438.291982
 30
0.0
 11
839.945258
 21
2439.15828
 31
0.0
  0
LINE
  5
4BE
102
{ACAD_REACTORS
330
6FE
102
}
330
1F
100
AcDbEntity
  8
LC-002-002-----0
 62
     7
370
    25
100
AcDbLine
 10
842.195249
 20
2418.725131
 30
0.0
 11
842.195249
 21
2458.725131
 31
0.0
  0
LINE
  5
4BF
102
{ACAD_REACTORS
330
6FE
102
}
330
1F
100
AcDbEntity
  8
LC-002-002-----0
 62
     7
370
    25
100
AcDbLine
 10
840.195152
 20
2458.725034
 30
0.0
 11
839.445261
 21
2457.975144
 31
0.0
  0
ARC
  5
4C0
102
{ACAD_REACTORS
330
6FE
102
}
330
1F
100
AcDbEntity
  8
LC-002-002-----0
 62
     7
370
    25
100
AcDbCircle
 10
829.695249
 20
2456.475131
 30
0.0
 40
1.999999999999995
100
AcDbArc
 50
174.05239
 51
180.0
  0
ARC
  5
4C1
102
{ACAD_REACTORS
330
6FE
102
}
330
1F
100
AcDbEntity
  8
LC-002-002-----0
 62
     7
370
    25
100
AcDbCircle
 10
829.695249
 20
2420.975131
 30
0.0
 40
2.0
100
AcDbArc
 50
180.0
 51
185.94761
  0
INSERT
  5
4CB
102
{ACAD_REACTORS
330
6FE
102
}
330
1F
100
AcDbEntity
  8
LC-002-002-----0
 62
     7
370
    25
100
AcDbBlockReference
  2
POLY7
 10
0.0
 20
0.0
 30
0.0
  0
INSERT
  5
4D5
102
{ACAD_REACTORS
330
6FE
102
}
330
1F
100
AcDbEntity
  8
LC-002-002-----0
 62
     7
370
    25
100
AcDbBlockReference
  2
POLY8
 10
0.0
 20
0.0
 30
0.0
  0
INSERT
  5
4DF
102
{ACAD_REACTORS
330
6FE
102
}
330
1F
100
AcDbEntity
  8
LC-002-002-----0
 62
     7
370
    25
100
AcDbBlockReference
  2
POLY9
 10
0.0
 20
0.0
 30
0.0
  0
INSERT
  5
52B
102
{ACAD_REACTORS
330
6FE
102
}
330
1F
100
AcDbEntity
  8
LC-002-002-----0
 62
     7
370
    25
100
AcDbBlockReference
  2
POLY10
 10
0.0
 20
0.0
 30
0.0
  0
INSERT
  5
535
102
{ACAD_REACTORS
330
6FE
102
}
330
1F
100
AcDbEntity
  8
LC-002-002-----0
 62
     7
370
    25
100
AcDbBlockReference
  2
POLY11
 10
0.0
 20
0.0
 30
0.0
  0
INSERT
  5
53F
102
{ACAD_REACTORS
330
6FE
102
}
330
1F
100
AcDbEntity
  8
LC-002-002-----0
 62
     7
370
    25
100
AcDbBlockReference
  2
POLY12
 10
0.0
 20
0.0
 30
0.0
  0
INSERT
  5
549
102
{ACAD_REACTORS
330
6FE
102
}
330
1F
100
AcDbEntity
  8
LC-002-002-----0
 62
     7
370
    25
100
AcDbBlockReference
  2
POLY13
 10
0.0
 20
0.0
 30
0.0
  0
INSERT
  5
595
102
{ACAD_REACTORS
330
6FE
102
}
330
1F
100
AcDbEntity
  8
LC-002-002-----0
 62
     7
370
    25
100
AcDbBlockReference
  2
POLY14
 10
0.0
 20
0.0
 30
0.0
  0
LINE
  5
596
102
{ACAD_REACTORS
330
6FE
102
}
330
1F
100
AcDbEntity
  8
LC-002-002-----0
 62
     7
370
    25
100
AcDbLine
 10
842.195249
 20
2423.344551
 30
0.0
 11
842.317884
 21
2423.580131
 31
0.0
  0
LINE
  5
597
102
{ACAD_REACTORS
330
6FE
102
}
330
1F
100
AcDbEntity
  8
LC-002-002-----0
 62
     7
370
    25
100
AcDbLine
 10
842.195249
 20
2454.105711
 30
0.0
 11
842.317884
 21
2453.870131
 31
0.0
  0
LINE
  5
598
102
{ACAD_REACTORS
330
6FE
102
}
330
1F
100
AcDbEntity
  8
LC-002-002-----0
 62
     7
370
    25
100
AcDbLine
 10
852.195249
 20
2456.975131
 30
0.0
 11
852.195249
 21
2460.975131
 31
0.0
  0
ARC
  5
599
102
{ACAD_REACTORS
330
6FE
102
}
330
1F
100
AcDbEntity
  8
LC-002-002-----0
 62
     7
370
    25
100
AcDbCircle
 10
907.195249
 20
2386.372903
 30
0.0
 40
22.0
100
AcDbArc
 50
180.0
 51
0.0
  0
LINE
  5
59A
102
{ACAD_REACTORS
330
6FE
102
}
330
1F
100
AcDbEntity
  8
LC-002-002-----0
 62
     7
370
    25
100
AcDbLine
 10
885.195249
 20
2386.372903
 30
0.0
 11
885.195249
 21
2400.064087
 31
0.0
  0
LINE
  5
59B
102
{ACAD_REACTORS
330
6FE
102
}
330
1F
100
AcDbEntity
  8
LC-002-002-----0
 62
     7
370
    25
100
AcDbLine
 10
929.195249
 20
2386.372903
 30
0.0
 11
929.195249
 21
2400.064087
 31
0.0
  0
LINE
  5
59C
102
{ACAD_REACTORS
330
6FE
102
}
330
1F
100
AcDbEntity
  8
LC-002-002-----0
 62
     7
370
    25
100
AcDbLine
 10
935.484188
 20
2407.874069
 30
0.0
 11
935.962634
 21
2410.492933
 31
0.0
  0
ARC
  5
59D
102
{ACAD_REACTORS
330
6FE
102
}
330
1F
100
AcDbEntity
  8
LC-002-002-----0
 62
     7
370
    25
100
AcDbCircle
 10
929.090024
 20
2409.04226
 30
0.0
 40
6.500000000000005
100
AcDbArc
 50
289.07704
 51
349.645823
  0
ARC
  5
59E
102
{ACAD_REACTORS
330
6FE
102
}
330
1F
100
AcDbEntity
  8
LC-002-002-----0
 62
     7
370
    25
100
AcDbCircle
 10
932.195249
 20
2400.064087
 30
0.0
 40
3.000000000000295
100
AcDbArc
 50
109.055448
 51
180.0
  0
ARC
  5
59F
102
{ACAD_REACTORS
330
6FE
102
}
330
1F
100
AcDbEntity
  8
LC-002-002-----0
 62
     7
370
    25
100
AcDbCircle
 10
940.693386
 20
2417.629205
 30
0.0
 40
1.999999999999977
100
AcDbArc
 50
334.152631
 51
0.0
  0
ARC
  5
5A0
102
{ACAD_REACTORS
330
6FE
102
}
330
1F
100
AcDbEntity
  8
LC-002-002-----0
 62
     7
370
    25
100
AcDbCircle
 10
937.093453
 20
2419.372903
 30
0.0
 40
5.999999999999536
100
AcDbArc
 50
286.283517
 51
334.155028
  0
ARC
  5
5A1
102
{ACAD_REACTORS
330
6FE
102
}
330
1F
100
AcDbEntity
  8
LC-002-002-----0
 62
     7
370
    25
100
AcDbCircle
 10
939.897511
 20
2409.774087
 30
0.0
 40
3.999999999999933
100
AcDbArc
 50
106.281751
 51
169.647048
  0
LINE
  5
5A2
102
{ACAD_REACTORS
330
6FE
102
}
330
1F
100
AcDbEntity
  8
LC-002-002-----0
 62
     7
370
    25
100
AcDbLine
 10
878.906309
 20
2407.874069
 30
0.0
 11
878.427863
 21
2410.492933
 31
0.0
  0
ARC
  5
5A3
102
{ACAD_REACTORS
330
6FE
102
}
330
1F
100
AcDbEntity
  8
LC-002-002-----0
 62
     7
370
    25
100
AcDbCircle
 10
885.300473
 20
2409.04226
 30
0.0
 40
6.499999999999891
100
AcDbArc
 50
190.354177
 51
250.92296
  0
ARC
  5
5A4
102
{ACAD_REACTORS
330
6FE
102
}
330
1F
100
AcDbEntity
  8
LC-002-002-----0
 62
     7
370
    25
100
AcDbCircle
 10
882.195249
 20
2400.064087
 30
0.0
 40
2.999999995699682
100
AcDbArc
 50
0.0
 51
70.944552
  0
ARC
  5
5A5
102
{ACAD_REACTORS
330
6FE
102
}
330
1F
100
AcDbEntity
  8
LC-002-002-----0
 62
     7
370
    25
100
AcDbCircle
 10
873.697111
 20
2417.629205
 30
0.0
 40
1.999999999999773
100
AcDbArc
 50
180.0
 51
205.847369
  0
ARC
  5
5A6
102
{ACAD_REACTORS
330
6FE
102
}
330
1F
100
AcDbEntity
  8
LC-002-002-----0
 62
     7
370
    25
100
AcDbCircle
 10
877.297044
 20
2419.372903
 30
0.0
 40
5.999999999999802
100
AcDbArc
 50
205.844972
 51
253.716483
  0
ARC
  5
5A7
102
{ACAD_REACTORS
330
6FE
102
}
330
1F
100
AcDbEntity
  8
LC-002-002-----0
 62
     7
370
    25
100
AcDbCircle
 10
874.492986
 20
2409.774087
 30
0.0
 40
4.00000000000002
100
AcDbArc
 50
10.352952
 51
73.718249
  0
INSERT
  5
5AC
102
{ACAD_REACTORS
330
6FE
102
}
330
1F
100
AcDbEntity
  8
LC-002-002-----0
 62
     7
370
    25
100
AcDbBlockReference
  2
POLY15
 10
0.0
 20
0.0
 30
0.0
  0
ARC
  5
5AD
102
{ACAD_REACTORS
330
6FE
102
}
330
1F
100
AcDbEntity
  8
LC-002-002-----0
 62
     7
370
    25
100
AcDbCircle
 10
907.195249
 20
2386.372903
 30
0.0
 40
27.70479324130008
100
AcDbArc
 50
145.394244
 51
34.605756
  0
LINE
  5
5AE
102
{ACAD_REACTORS
330
6FE
102
}
330
1F
100
AcDbEntity
  8
LC-002-002-----0
 62
     7
370
    25
100
AcDbLine
 10
869.695249
 20
2420.83245
 30
0.0
 11
867.690285
 21
2420.83245
 31
0.0
  0
LINE
  5
5AF
102
{ACAD_REACTORS
330
6F7
102
}
330
1F
100
AcDbEntity
  8
LC-002-002-----0
 62
     7
370
    25
100
AcDbLine
 10
1531.54104
 20
1972.304648
 30
0.0
 11
1613.970296
 21
1996.544322
 31
0.0
  0
LINE
  5
5B0
102
{ACAD_REACTORS
330
6F7
102
}
330
1F
100
AcDbEntity
  8
LC-002-002-----0
 62
     7
370
    25
100
AcDbLine
 10
1534.742549
 20
1961.417619
 30
0.0
 11
1617.171805
 21
1985.657294
 31
0.0
  0
LINE
  5
5B1
102
{ACAD_REACTORS
330
6F6
102
}
330
1F
100
AcDbEntity
  8
LC-002-002-----0
 62
     7
370
    25
100
AcDbLine
 10
1600.940346
 20
1794.021863
 30
0.0
 11
1600.940346
 21
1865.018137
 31
0.0
  0
LINE
  5
5B2
102
{ACAD_REACTORS
330
6F7
102
}
330
1F
100
AcDbEntity
  8
LC-002-002-----0
 62
     7
370
    25
100
AcDbLine
 10
1518.761767
 20
2072.073498
 30
0.0
 11
1519.353891
 21
2073.210959
 31
0.0
  0
LINE
  5
5B3
102
{ACAD_REACTORS
330
6F7
102
}
330
1F
100
AcDbEntity
  8
LC-002-002-----0
 62
     7
370
    25
100
AcDbLine
 10
1521.070767
 20
2072.073498
 30
0.0
 11
1521.662891
 21
2073.210959
 31
0.0
  0
LINE
  5
5B4
102
{ACAD_REACTORS
330
6F7
102
}
330
1F
100
AcDbEntity
  8
LC-002-002-----0
 62
     7
370
    25
100
AcDbLine
 10
1523.379767
 20
2072.073498
 30
0.0
 11
1523.971891
 21
2073.210959
 31
0.0
  0
LINE
  5
5B5
102
{ACAD_REACTORS
330
6F7
102
}
330
1F
100
AcDbEntity
  8
LC-002-002-----0
 62
     7
370
    25
100
AcDbLine
 10
1525.688767
 20
2072.073498
 30
0.0
 11
1526.280891
 21
2073.210959
 31
0.0
  0
LINE
  5
5B6
102
{ACAD_REACTORS
330
6F7
102
}
330
1F
100
AcDbEntity
  8
LC-002-002-----0
 62
     7
370
    25
100
AcDbLine
 10
1519.916707
 20
2025.795612
 30
0.0
 11
1520.508831
 21
2026.933072
 31
0.0
  0
LINE
  5
5B7
102
{ACAD_REACTORS
330
6F7
102
}
330
1F
100
AcDbEntity
  8
LC-002-002-----0
 62
     7
370
    25
100
AcDbLine
 10
1522.225707
 20
2025.795612
 30
0.0
 11
1522.817831
 21
2026.933072
 31
0.0
  0
LINE
  5
5B8
102
{ACAD_REACTORS
330
6F7
102
}
330
1F
100
AcDbEntity
  8
LC-002-002-----0
 62
     7
370
    25
100
AcDbLine
 10
1524.534707
 20
2025.795612
 30
0.0
 11
1525.126831
 21
2026.933072
 31
0.0
  0
LINE
  5
5B9
102
{ACAD_REACTORS
330
6F7
102
}
330
1F
100
AcDbEntity
  8
LC-002-002-----0
 62
     7
370
    25
100
AcDbLine
 10
1526.843707
 20
2025.795612
 30
0.0
 11
1527.435831
 21
2026.933072
 31
0.0
  0
LINE
  5
5BA
102
{ACAD_REACTORS
330
6F7
102
}
330
1F
100
AcDbEntity
  8
LC-002-002-----0
 62
     7
370
    25
100
AcDbLine
 10
1548.980799
 20
2071.903285
 30
0.0
 11
1527.716799
 21
2071.903285
 31
0.0
  0
LINE
  5
5BB
102
{ACAD_REACTORS
330
6F7
102
}
330
1F
100
AcDbEntity
  8
LC-002-002-----0
 62
     7
370
    25
100
AcDbLine
 10
1518.480799
 20
2071.903285
 30
0.0
 11
1517.980799
 21
2071.903285
 31
0.0
  0
LINE
  5
5BC
102
{ACAD_REACTORS
330
6F7
102
}
330
1F
100
AcDbEntity
  8
LC-002-002-----0
 62
     7
370
    25
100
AcDbLine
 10
1517.980799
 20
2027.103285
 30
0.0
 11
1517.980799
 21
2071.903285
 31
0.0
  0
LINE
  5
5BD
102
{ACAD_REACTORS
330
6F7
102
}
330
1F
100
AcDbEntity
  8
LC-002-002-----0
 62
     7
370
    25
100
AcDbLine
 10
1548.980799
 20
2027.125769
 30
0.0
 11
1544.980799
 21
2027.125769
 31
0.0
  0
LINE
  5
5BE
102
{ACAD_REACTORS
330
6F7
102
}
330
1F
100
AcDbEntity
  8
LC-002-002-----0
 62
     7
370
    25
100
AcDbLine
 10
1544.980799
 20
2027.103285
 30
0.0
 11
1527.716799
 21
2027.103285
 31
0.0
  0
LINE
  5
5BF
102
{ACAD_REACTORS
330
6F7
102
}
330
1F
100
AcDbEntity
  8
LC-002-002-----0
 62
     7
370
    25
100
AcDbLine
 10
1518.480799
 20
2027.103285
 30
0.0
 11
1517.980799
 21
2027.103285
 31
0.0
  0
LINE
  5
5C0
102
{ACAD_REACTORS
330
6F9
102
}
330
1F
100
AcDbEntity
  8
LC-002-002-----0
 62
     7
370
    25
100
AcDbLine
 10
1591.564353
 20
1880.363603
 30
0.0
 11
1591.380799
 21
1880.363603
 31
0.0
  0
LINE
  5
5C1
102
{ACAD_REACTORS
330
6F9
102
}
330
1F
100
AcDbEntity
  8
LC-002-002-----0
 62
     7
370
    25
100
AcDbLine
 10
1546.580799
 20
1856.02
 30
0.0
 11
1546.580799
 21
1880.363652
 31
0.0
  0
LINE
  5
5C2
102
{ACAD_REACTORS
330
6F9
102
}
330
1F
100
AcDbEntity
  8
LC-002-002-----0
 62
     7
370
    25
100
AcDbLine
 10
1546.980799
 20
1829.52
 30
0.0
 11
1546.980799
 21
1855.62
 31
0.0
  0
LINE
  5
5C3
102
{ACAD_REACTORS
330
6F7
102
}
330
1F
100
AcDbEntity
  8
LC-002-002-----0
 62
     7
370
    25
100
AcDbLine
 10
1549.006439
 20
2023.103285
 30
0.0
 11
1549.006439
 21
2027.150658
 31
0.0
  0
ARC
  5
5C4
102
{ACAD_REACTORS
330
6F9
102
}
330
1F
100
AcDbEntity
  8
LC-004-002-RND-0
 62
     7
370
    25
100
AcDbCircle
 10
1568.980799
 20
1829.52
 30
0.0
 40
22.0
100
AcDbArc
 50
180.0
 51
270.0
  0
LINE
  5
5C5
102
{ACAD_REACTORS
330
6F7
102
}
330
1F
100
AcDbEntity
  8
LC-002-002-----0
 62
     7
370
    25
100
AcDbLine
 10
1588.980799
 20
1903.52
 30
0.0
 11
1588.980799
 21
1977.367266
 31
0.0
  0
LINE
  5
5C6
102
{ACAD_REACTORS
330
6F9
102
}
330
1F
100
AcDbEntity
  8
LC-002-002-----0
 62
     7
370
    25
100
AcDbLine
 10
1591.380799
 20
1857.937117
 30
0.0
 11
1591.380799
 21
1880.363652
 31
0.0
  0
LINE
  5
5C7
102
{ACAD_REACTORS
330
6F7
102
}
330
1F
100
AcDbEntity
  8
LC-002-002-----0
 62
     7
370
    25
100
AcDbLine
 10
1551.382927
 20
2069.501157
 30
0.0
 11
1548.981059
 21
2071.903025
 31
0.0
  0
LINE
  5
5C8
102
{ACAD_REACTORS
330
6F9
102
}
330
1F
100
AcDbEntity
  8
LC-002-002-----0
 62
     7
370
    25
100
AcDbLine
 10
1544.529309
 20
1882.961781
 30
0.0
 11
1546.029303
 21
1883.827803
 31
0.0
  0
LINE
  5
5C9
102
{ACAD_REACTORS
330
6F9
102
}
330
1F
100
AcDbEntity
  8
LC-002-002-----0
 62
     7
370
    25
100
AcDbLine
 10
1544.529309
 20
1881.22973
 30
0.0
 11
1546.029303
 21
1882.095752
 31
0.0
  0
LINE
  5
5CA
102
{ACAD_REACTORS
330
6F9
102
}
330
1F
100
AcDbEntity
  8
LC-002-002-----0
 62
     7
370
    25
100
AcDbLine
 10
1591.564353
 20
1883.827705
 30
0.0
 11
1592.763443
 21
1884.52
 31
0.0
  0
LINE
  5
5CB
102
{ACAD_REACTORS
330
6F9
102
}
330
1F
100
AcDbEntity
  8
LC-002-002-----0
 62
     7
370
    25
100
AcDbLine
 10
1591.564353
 20
1882.095654
 30
0.0
 11
1593.064348
 21
1882.961676
 31
0.0
  0
LINE
  5
5CC
102
{ACAD_REACTORS
330
6F9
102
}
330
1F
100
AcDbEntity
  8
LC-002-002-----0
 62
     7
370
    25
100
AcDbLine
 10
1591.564353
 20
1880.363603
 30
0.0
 11
1593.064348
 21
1881.229625
 31
0.0
  0
LINE
  5
5CD
102
{ACAD_REACTORS
330
6F7
102
}
330
1F
100
AcDbEntity
  8
LC-002-002-----0
 62
     7
370
    25
100
AcDbLine
 10
1526.843707
 20
2073.210959
 30
0.0
 11
1527.435831
 21
2072.073498
 31
0.0
  0
LINE
  5
5CE
102
{ACAD_REACTORS
330
6F7
102
}
330
1F
100
AcDbEntity
  8
LC-002-002-----0
 62
     7
370
    25
100
AcDbLine
 10
1524.534707
 20
2073.210959
 30
0.0
 11
1525.126831
 21
2072.073498
 31
0.0
  0
LINE
  5
5CF
102
{ACAD_REACTORS
330
6F7
102
}
330
1F
100
AcDbEntity
  8
LC-002-002-----0
 62
     7
370
    25
100
AcDbLine
 10
1522.225707
 20
2073.210959
 30
0.0
 11
1522.817831
 21
2072.073498
 31
0.0
  0
LINE
  5
5D0
102
{ACAD_REACTORS
330
6F7
102
}
330
1F
100
AcDbEntity
  8
LC-002-002-----0
 62
     7
370
    25
100
AcDbLine
 10
1519.916707
 20
2073.210959
 30
0.0
 11
1520.508831
 21
2072.073498
 31
0.0
  0
LINE
  5
5D1
102
{ACAD_REACTORS
330
6F7
102
}
330
1F
100
AcDbEntity
  8
LC-002-002-----0
 62
     7
370
    25
100
AcDbLine
 10
1525.688767
 20
2026.933072
 30
0.0
 11
1526.280891
 21
2025.795612
 31
0.0
  0
LINE
  5
5D2
102
{ACAD_REACTORS
330
6F7
102
}
330
1F
100
AcDbEntity
  8
LC-002-002-----0
 62
     7
370
    25
100
AcDbLine
 10
1523.379767
 20
2026.933072
 30
0.0
 11
1523.971891
 21
2025.795612
 31
0.0
  0
LINE
  5
5D3
102
{ACAD_REACTORS
330
6F7
102
}
330
1F
100
AcDbEntity
  8
LC-002-002-----0
 62
     7
370
    25
100
AcDbLine
 10
1521.070767
 20
2026.933072
 30
0.0
 11
1521.662891
 21
2025.795612
 31
0.0
  0
LINE
  5
5D4
102
{ACAD_REACTORS
330
6F7
102
}
330
1F
100
AcDbEntity
  8
LC-002-002-----0
 62
     7
370
    25
100
AcDbLine
 10
1518.761767
 20
2026.933072
 30
0.0
 11
1519.353891
 21
2025.795612
 31
0.0
  0
LINE
  5
5D5
102
{ACAD_REACTORS
330
6F9
102
}
330
1F
100
AcDbEntity
  8
LC-002-002-----0
 62
     7
370
    25
100
AcDbLine
 10
1591.343642
 20
1857.966361
 30
0.0
 11
1593.100829
 21
1858.287385
 31
0.0
  0
LINE
  5
5D6
102
{ACAD_REACTORS
330
6F9
102
}
330
1F
100
AcDbEntity
  8
LC-002-002-----0
 62
     7
370
    25
100
AcDbLine
 10
1600.237102
 20
1865.018137
 30
0.0
 11
1600.940346
 21
1865.018137
 31
0.0
  0
LINE
  5
5D7
102
{ACAD_REACTORS
330
6F9
102
}
330
1F
100
AcDbEntity
  8
LC-002-002-----0
 62
     7
370
    25
100
AcDbLine
 10
1593.064348
 20
1882.961781
 30
0.0
 11
1591.564353
 21
1883.827803
 31
0.0
  0
LINE
  5
5D8
102
{ACAD_REACTORS
330
6F9
102
}
330
1F
100
AcDbEntity
  8
LC-002-002-----0
 62
     7
370
    25
100
AcDbLine
 10
1593.064348
 20
1881.22973
 30
0.0
 11
1591.564353
 21
1882.095752
 31
0.0
  0
LINE
  5
5D9
102
{ACAD_REACTORS
330
6F9
102
}
330
1F
100
AcDbEntity
  8
LC-002-002-----0
 62
     7
370
    25
100
AcDbLine
 10
1546.029303
 20
1883.827705
 30
0.0
 11
1544.830213
 21
1884.52
 31
0.0
  0
LINE
  5
5DA
102
{ACAD_REACTORS
330
6F9
102
}
330
1F
100
AcDbEntity
  8
LC-002-002-----0
 62
     7
370
    25
100
AcDbLine
 10
1546.029303
 20
1882.095654
 30
0.0
 11
1544.529309
 21
1882.961676
 31
0.0
  0
LINE
  5
5DB
102
{ACAD_REACTORS
330
6F9
102
}
330
1F
100
AcDbEntity
  8
LC-002-002-----0
 62
     7
370
    25
100
AcDbLine
 10
1546.029303
 20
1880.363603
 30
0.0
 11
1544.529309
 21
1881.229625
 31
0.0
  0
LINE
  5
5DC
102
{ACAD_REACTORS
330
6F9
102
}
330
1F
100
AcDbEntity
  8
LC-002-002-----0
 62
     7
370
    25
100
AcDbLine
 10
1568.980799
 20
1807.52
 30
0.0
 11
1582.671984
 21
1807.52
 31
0.0
  0
LINE
  5
5DD
102
{ACAD_REACTORS
330
6F9
102
}
330
1F
100
AcDbEntity
  8
LC-002-002-----0
 62
     7
370
    25
100
AcDbLine
 10
1600.237102
 20
1794.021863
 30
0.0
 11
1600.940346
 21
1794.021863
 31
0.0
  0
LINE
  5
5DE
102
{ACAD_REACTORS
330
6F9
102
}
330
1F
100
AcDbEntity
  8
LC-002-002-----0
 62
     7
370
    25
100
AcDbLine
 10
1590.481966
 20
1801.231061
 30
0.0
 11
1593.100829
 21
1800.752615
 31
0.0
  0
LINE
  5
5DF
102
{ACAD_REACTORS
330
6F9
102
}
330
1F
100
AcDbEntity
  8
LC-002-002-----0
 62
     7
370
    25
100
AcDbLine
 10
1546.580826
 20
1856.019973
 30
0.0
 11
1546.980907
 21
1855.619892
 31
0.0
  0
ARC
  5
5E0
102
{ACAD_REACTORS
330
6F7
102
}
330
1F
100
AcDbEntity
  8
LC-002-002-----0
 62
     7
370
    25
100
AcDbCircle
 10
1527.716799
 20
2026.786285
 30
0.0
 40
0.3170000000000073
100
AcDbArc
 50
90.0
 51
152.36046
  0
ARC
  5
5E1
102
{ACAD_REACTORS
330
6F7
102
}
330
1F
100
AcDbEntity
  8
LC-002-002-----0
 62
     7
370
    25
100
AcDbCircle
 10
1527.716799
 20
2072.220285
 30
0.0
 40
0.3169999999996481
100
AcDbArc
 50
207.567177
 51
270.0
  0
ARC
  5
5E2
102
{ACAD_REACTORS
330
6F7
102
}
330
1F
100
AcDbEntity
  8
LC-002-002-----0
 62
     7
370
    25
100
AcDbCircle
 10
1526.562299
 20
2025.941553
 30
0.0
 40
0.3170000000002538
100
AcDbArc
 50
207.317979
 51
332.682021
  0
ARC
  5
5E3
102
{ACAD_REACTORS
330
6F7
102
}
330
1F
100
AcDbEntity
  8
LC-002-002-----0
 62
     7
370
    25
100
AcDbCircle
 10
1526.562299
 20
2073.065018
 30
0.0
 40
0.3169999999998988
100
AcDbArc
 50
27.394588
 51
152.605412
  0
ARC
  5
5E4
102
{ACAD_REACTORS
330
6F7
102
}
330
1F
100
AcDbEntity
  8
LC-002-002-----0
 62
     7
370
    25
100
AcDbCircle
 10
1525.407799
 20
2072.220285
 30
0.0
 40
0.3170000000000512
100
AcDbArc
 50
207.567177
 51
332.432823
  0
ARC
  5
5E5
102
{ACAD_REACTORS
330
6F7
102
}
330
1F
100
AcDbEntity
  8
LC-002-002-----0
 62
     7
370
    25
100
AcDbCircle
 10
1525.407799
 20
2026.786285
 30
0.0
 40
0.3169999999998827
100
AcDbArc
 50
27.63954
 51
152.36046
  0
ARC
  5
5E6
102
{ACAD_REACTORS
330
6F7
102
}
330
1F
100
AcDbEntity
  8
LC-002-002-----0
 62
     7
370
    25
100
AcDbCircle
 10
1524.253299
 20
2025.941553
 30
0.0
 40
0.3170000000000585
100
AcDbArc
 50
207.317979
 51
332.682021
  0
ARC
  5
5E7
102
{ACAD_REACTORS
330
6F7
102
}
330
1F
100
AcDbEntity
  8
LC-002-002-----0
 62
     7
370
    25
100
AcDbCircle
 10
1524.253299
 20
2073.065018
 30
0.0
 40
0.3169999999998841
100
AcDbArc
 50
27.394588
 51
152.605412
  0
ARC
  5
5E8
102
{ACAD_REACTORS
330
6F7
102
}
330
1F
100
AcDbEntity
  8
LC-002-002-----0
 62
     7
370
    25
100
AcDbCircle
 10
1523.098799
 20
2072.220285
 30
0.0
 40
0.3170000000000334
100
AcDbArc
 50
207.567177
 51
332.432823
  0
ARC
  5
5E9
102
{ACAD_REACTORS
330
6F7
102
}
330
1F
100
AcDbEntity
  8
LC-002-002-----0
 62
     7
370
    25
100
AcDbCircle
 10
1523.098799
 20
2026.786285
 30
0.0
 40
0.3169999999998827
100
AcDbArc
 50
27.63954
 51
152.36046
  0
ARC
  5
5EA
102
{ACAD_REACTORS
330
6F7
102
}
330
1F
100
AcDbEntity
  8
LC-002-002-----0
 62
     7
370
    25
100
AcDbCircle
 10
1521.944299
 20
2025.941553
 30
0.0
 40
0.3170000000000585
100
AcDbArc
 50
207.317979
 51
332.682021
  0
ARC
  5
5EB
102
{ACAD_REACTORS
330
6F7
102
}
330
1F
100
AcDbEntity
  8
LC-002-002-----0
 62
     7
370
    25
100
AcDbCircle
 10
1521.944299
 20
2073.065018
 30
0.0
 40
0.3169999999998988
100
AcDbArc
 50
27.394588
 51
152.605412
  0
ARC
  5
5EC
102
{ACAD_REACTORS
330
6F7
102
}
330
1F
100
AcDbEntity
  8
LC-002-002-----0
 62
     7
370
    25
100
AcDbCircle
 10
1520.789799
 20
2072.220285
 30
0.0
 40
0.3170000000000334
100
AcDbArc
 50
207.567177
 51
332.432823
  0
ARC
  5
5ED
102
{ACAD_REACTORS
330
6F7
102
}
330
1F
100
AcDbEntity
  8
LC-002-002-----0
 62
     7
370
    25
100
AcDbCircle
 10
1520.789799
 20
2026.786285
 30
0.0
 40
0.3169999999998827
100
AcDbArc
 50
27.63954
 51
152.36046
  0
ARC
  5
5EE
102
{ACAD_REACTORS
330
6F7
102
}
330
1F
100
AcDbEntity
  8
LC-002-002-----0
 62
     7
370
    25
100
AcDbCircle
 10
1519.635299
 20
2025.941553
 30
0.0
 40
0.3170000000002538
100
AcDbArc
 50
207.317979
 51
332.682021
  0
ARC
  5
5EF
102
{ACAD_REACTORS
330
6F7
102
}
330
1F
100
AcDbEntity
  8
LC-002-002-----0
 62
     7
370
    25
100
AcDbCircle
 10
1519.635299
 20
2073.065018
 30
0.0
 40
0.3169999999998988
100
AcDbArc
 50
27.394588
 51
152.605412
  0
ARC
  5
5F0
102
{ACAD_REACTORS
330
6F7
102
}
330
1F
100
AcDbEntity
  8
LC-002-002-----0
 62
     7
370
    25
100
AcDbCircle
 10
1518.480799
 20
2026.786285
 30
0.0
 40
0.3170000000000937
100
AcDbArc
 50
27.63954
 51
90.0
  0
ARC
  5
5F1
102
{ACAD_REACTORS
330
6F7
102
}
330
1F
100
AcDbEntity
  8
LC-002-002-----0
 62
     7
370
    25
100
AcDbCircle
 10
1518.480799
 20
2072.220285
 30
0.0
 40
0.3170000000000073
100
AcDbArc
 50
270.0
 51
332.432823
  0
ARC
  5
5F2
102
{ACAD_REACTORS
330
6F7
102
}
330
1F
100
AcDbEntity
  8
LC-002-002-----0
 62
     7
370
    25
100
AcDbCircle
 10
1550.980799
 20
2031.503285
 30
0.0
 40
37.99999999999996
100
AcDbArc
 50
0.000006
 51
89.393653
  0
ARC
  5
5F3
102
{ACAD_REACTORS
330
6F9
102
}
330
1F
100
AcDbEntity
  8
LC-002-002-----0
 62
     7
370
    25
100
AcDbCircle
 10
1591.650156
 20
1807.625225
 30
0.0
 40
6.500000000000005
100
AcDbArc
 50
199.07704
 51
259.645823
  0
ARC
  5
5F4
102
{ACAD_REACTORS
330
6F9
102
}
330
1F
100
AcDbEntity
  8
LC-002-002-----0
 62
     7
370
    25
100
AcDbCircle
 10
1582.671984
 20
1804.52
 30
0.0
 40
3.000000000000295
100
AcDbArc
 50
19.055448
 51
90.0
  0
ARC
  5
5F5
102
{ACAD_REACTORS
330
6F9
102
}
330
1F
100
AcDbEntity
  8
LC-002-002-----0
 62
     7
370
    25
100
AcDbCircle
 10
1600.237102
 20
1796.021863
 30
0.0
 40
2.000000000000076
100
AcDbArc
 50
244.152631
 51
270.0
  0
ARC
  5
5F6
102
{ACAD_REACTORS
330
6F9
102
}
330
1F
100
AcDbEntity
  8
LC-002-002-----0
 62
     7
370
    25
100
AcDbCircle
 10
1600.237102
 20
1863.018137
 30
0.0
 40
2.0
100
AcDbArc
 50
90.0
 51
115.847369
  0
ARC
  5
5F7
102
{ACAD_REACTORS
330
6F9
102
}
330
1F
100
AcDbEntity
  8
LC-002-002-----0
 62
     7
370
    25
100
AcDbCircle
 10
1601.980799
 20
1799.621796
 30
0.0
 40
5.999999999999973
100
AcDbArc
 50
196.283517
 51
244.155028
  0
ARC
  5
5F8
102
{ACAD_REACTORS
330
6F9
102
}
330
1F
100
AcDbEntity
  8
LC-002-002-----0
 62
     7
370
    25
100
AcDbCircle
 10
1601.980799
 20
1859.418204
 30
0.0
 40
5.999999999999901
100
AcDbArc
 50
115.844972
 51
163.716483
  0
ARC
  5
5F9
102
{ACAD_REACTORS
330
6F9
102
}
330
1F
100
AcDbEntity
  8
LC-002-002-----0
 62
     7
370
    25
100
AcDbCircle
 10
1592.381984
 20
1796.817737
 30
0.0
 40
3.999999999999933
100
AcDbArc
 50
16.281751
 51
79.647048
  0
ARC
  5
5FA
102
{ACAD_REACTORS
330
6F9
102
}
330
1F
100
AcDbEntity
  8
LC-002-002-----0
 62
     7
370
    25
100
AcDbCircle
 10
1592.381984
 20
1862.222263
 30
0.0
 40
3.99999999999998
100
AcDbArc
 50
280.352952
 51
343.718249
  0
INSERT
  5
5FF
102
{ACAD_REACTORS
330
6F7
102
}
330
1F
100
AcDbEntity
  8
LC-002-002-----0
 62
     7
370
    25
100
AcDbBlockReference
  2
POLY16
 10
0.0
 20
0.0
 30
0.0
  0
LINE
  5
600
102
{ACAD_REACTORS
330
6F7
102
}
330
1F
100
AcDbEntity
  8
LC-002-002-----0
 62
     7
370
    25
100
AcDbLine
 10
1548.980799
 20
2023.103285
 30
0.0
 11
1548.980799
 21
1977.433095
 31
0.0
  0
LINE
  5
601
102
{ACAD_REACTORS
330
6F9
102
}
330
1F
100
AcDbEntity
  8
LC-002-002-----0
 62
     7
370
    25
100
AcDbLine
 10
1541.276006
 20
1887.02
 30
0.0
 11
1541.276006
 21
1884.52
 31
0.0
  0
LINE
  5
602
102
{ACAD_REACTORS
330
6F9
102
}
330
1F
100
AcDbEntity
  8
LC-002-002-----0
 62
     7
370
    25
100
AcDbLine
 10
1542.026006
 20
1888.02
 30
0.0
 11
1542.026006
 21
1887.77
 31
0.0
  0
LINE
  5
603
102
{ACAD_REACTORS
330
6F9
102
}
330
1F
100
AcDbEntity
  8
LC-002-002-----0
 62
     7
370
    25
100
AcDbLine
 10
1543.180799
 20
1888.02
 30
0.0
 11
1543.180799
 21
1901.52
 31
0.0
  0
LINE
  5
604
102
{ACAD_REACTORS
330
6F9
102
}
330
1F
100
AcDbEntity
  8
LC-002-002-----0
 62
     7
370
    25
100
AcDbLine
 10
1594.780799
 20
1888.02
 30
0.0
 11
1594.780799
 21
1901.52
 31
0.0
  0
LINE
  5
605
102
{ACAD_REACTORS
330
6F9
102
}
330
1F
100
AcDbEntity
  8
LC-002-002-----0
 62
     7
370
    25
100
AcDbLine
 10
1595.935592
 20
1888.02
 30
0.0
 11
1595.935592
 21
1887.77
 31
0.0
  0
LINE
  5
606
102
{ACAD_REACTORS
330
6F9
102
}
330
1F
100
AcDbEntity
  8
LC-002-002-----0
 62
     7
370
    25
100
AcDbLine
 10
1596.685592
 20
1887.02
 30
0.0
 11
1596.685592
 21
1884.52
 31
0.0
  0
LINE
  5
607
102
{ACAD_REACTORS
330
6F9
102
}
330
1F
100
AcDbEntity
  8
LC-002-002-----0
 62
     7
370
    25
100
AcDbLine
 10
1542.026007
 20
1887.770001
 30
0.0
 11
1541.276007
 21
1887.020001
 31
0.0
  0
LINE
  5
608
102
{ACAD_REACTORS
330
6F9
102
}
330
1F
100
AcDbEntity
  8
LC-002-002-----0
 62
     7
370
    25
100
AcDbLine
 10
1592.780799
 20
1903.52
 30
0.0
 11
1545.180799
 21
1903.52
 31
0.0
  0
LINE
  5
609
102
{ACAD_REACTORS
330
6F9
102
}
330
1F
100
AcDbEntity
  8
LC-002-002-----0
 62
     7
370
    25
100
AcDbLine
 10
1595.935575
 20
1888.02
 30
0.0
 11
1542.026023
 21
1888.02
 31
0.0
  0
LINE
  5
60A
102
{ACAD_REACTORS
330
6F9
102
}
330
1F
100
AcDbEntity
  8
LC-002-002-----0
 62
     7
370
    25
100
AcDbLine
 10
1596.685592
 20
1884.52
 30
0.0
 11
1541.276006
 21
1884.52
 31
0.0
  0
LINE
  5
60B
102
{ACAD_REACTORS
330
6F9
102
}
330
1F
100
AcDbEntity
  8
LC-002-002-----0
 62
     7
370
    25
100
AcDbLine
 10
1595.935591
 20
1887.770001
 30
0.0
 11
1596.685591
 21
1887.020001
 31
0.0
  0
ARC
  5
60C
102
{ACAD_REACTORS
330
6F9
102
}
330
1F
100
AcDbEntity
  8
LC-002-002-----0
 62
     7
370
    25
100
AcDbCircle
 10
1592.780799
 20
1901.52
 30
0.0
 40
2.0
100
AcDbArc
 50
0.0
 51
90.0
  0
ARC
  5
60D
102
{ACAD_REACTORS
330
6F9
102
}
330
1F
100
AcDbEntity
  8
LC-002-002-----0
 62
     7
370
    25
100
AcDbCircle
 10
1545.180799
 20
1901.52
 30
0.0
 40
2.0
100
AcDbArc
 50
90.0
 51
180.0
  0
LINE
  5
60E
102
{ACAD_REACTORS
330
6F9
102
}
330
1F
100
AcDbEntity
  8
LC-002-002-----0
 62
     7
370
    25
100
AcDbLine
 10
1592.193186
 20
1888.02
 30
0.0
 11
1592.193186
 21
1901.52
 31
0.0
  0
INSERT
  5
61E
102
{ACAD_REACTORS
330
6F9
102
}
330
1F
100
AcDbEntity
  8
LC-002-002-----0
 62
     7
370
    25
100
AcDbBlockReference
  2
POLY17
 10
0.0
 20
0.0
 30
0.0
  0
LINE
  5
61F
102
{ACAD_REACTORS
330
6F9
102
}
330
1F
100
AcDbEntity
  8
LC-002-002-----0
 62
     7
370
    25
100
AcDbLine
 10
1568.979347
 20
1888.02
 30
0.0
 11
1568.979347
 21
1901.52
 31
0.0
  0
INSERT
  5
62F
102
{ACAD_REACTORS
330
6F9
102
}
330
1F
100
AcDbEntity
  8
LC-002-002-----0
 62
     7
370
    25
100
AcDbBlockReference
  2
POLY18
 10
0.0
 20
0.0
 30
0.0
  0
LINE
  5
630
102
{ACAD_REACTORS
330
6F9
102
}
330
1F
100
AcDbEntity
  8
LC-002-002-----0
 62
     7
370
    25
100
AcDbLine
 10
1545.768305
 20
1901.52
 30
0.0
 11
1545.768305
 21
1888.02
 31
0.0
  0
INSERT
  5
640
102
{ACAD_REACTORS
330
6F9
102
}
330
1F
100
AcDbEntity
  8
LC-002-002-----0
 62
     7
370
    25
100
AcDbBlockReference
  2
POLY19
 10
0.0
 20
0.0
 30
0.0
  0
LINE
  5
641
102
{ACAD_REACTORS
330
6F6
102
}
330
1F
100
AcDbEntity
  8
LC-002-002-----0
 62
     7
370
    25
100
AcDbLine
 10
1643.583027
 20
1884.52
 30
0.0
 11
1643.583027
 21
1774.52
 31
0.0
  0
LINE
  5
642
102
{ACAD_REACTORS
330
6F6
102
}
330
1F
100
AcDbEntity
  8
LC-002-002-----0
 62
     7
370
    25
100
AcDbLine
 10
1639.583027
 20
1774.52
 30
0.0
 11
1643.583027
 21
1774.52
 31
0.0
  0
LINE
  5
643
102
{ACAD_REACTORS
330
6F6
102
}
330
1F
100
AcDbEntity
  8
LC-002-002-----0
 62
     7
370
    25
100
AcDbLine
 10
1600.940346
 20
1792.02
 30
0.0
 11
1600.940346
 21
1867.02
 31
0.0
  0
LINE
  5
644
102
{ACAD_REACTORS
330
6F6
102
}
330
1F
100
AcDbEntity
  8
LC-002-002-----0
 62
     7
370
    25
100
AcDbLine
 10
1603.440346
 20
1790.015036
 30
0.0
 11
1603.440346
 21
1792.02
 31
0.0
  0
LINE
  5
645
102
{ACAD_REACTORS
330
6F6
102
}
330
1F
100
AcDbEntity
  8
LC-002-002-----0
 62
     7
370
    25
100
AcDbLine
 10
1607.770121
 20
1786.77061
 30
0.0
 11
1608.780469
 21
1785.020635
 31
0.0
  0
LINE
  5
646
102
{ACAD_REACTORS
330
6F6
102
}
330
1F
100
AcDbEntity
  8
LC-002-002-----0
 62
     7
370
    25
100
AcDbLine
 10
1603.440346
 20
1792.02
 30
0.0
 11
1600.940346
 21
1792.02
 31
0.0
  0
LINE
  5
647
102
{ACAD_REACTORS
330
6F6
102
}
330
1F
100
AcDbEntity
  8
LC-002-002-----0
 62
     7
370
    25
100
AcDbLine
 10
1613.976988
 20
1782.02
 30
0.0
 11
1629.440346
 21
1782.02
 31
0.0
  0
LINE
  5
648
102
{ACAD_REACTORS
330
6F6
102
}
330
1F
100
AcDbEntity
  8
LC-002-002-----0
 62
     7
370
    25
100
AcDbLine
 10
1639.122804
 20
1774.52
 30
0.0
 11
1639.583027
 21
1774.52
 31
0.0
  0
ARC
  5
649
102
{ACAD_REACTORS
330
6F6
102
}
330
1F
100
AcDbEntity
  8
LC-002-002-----0
 62
     7
370
    25
100
AcDbCircle
 10
1629.440346
 20
1778.02
 30
0.0
 40
3.999999999999869
100
AcDbArc
 50
14.492147
 51
90.0
  0
ARC
  5
64A
102
{ACAD_REACTORS
330
6F6
102
}
330
1F
100
AcDbEntity
  8
LC-002-002-----0
 62
     7
370
    25
100
AcDbCircle
 10
1639.122804
 20
1780.52
 30
0.0
 40
6.000000000000098
100
AcDbArc
 50
194.469452
 51
270.0
  0
ARC
  5
64B
102
{ACAD_REACTORS
330
6F6
102
}
330
1F
100
AcDbEntity
  8
LC-002-002-----0
 62
     7
370
    25
100
AcDbCircle
 10
1613.976988
 20
1788.02
 30
0.0
 40
5.999999999999863
100
AcDbArc
 50
209.988476
 51
270.0
  0
ARC
  5
64C
102
{ACAD_REACTORS
330
6F6
102
}
330
1F
100
AcDbEntity
  8
LC-002-002-----0
 62
     7
370
    25
100
AcDbCircle
 10
1603.440346
 20
1784.27
 30
0.0
 40
5.000000000000217
100
AcDbArc
 50
30.016153
 51
82.072225
  0
ARC
  5
64D
102
{ACAD_REACTORS
330
6F6
102
}
330
1F
100
AcDbEntity
  8
LC-002-002-----0
 62
     7
370
    25
100
AcDbCircle
 10
1604.240346
 20
1790.014563
 30
0.0
 40
0.7999999999999545
100
AcDbArc
 50
180.0
 51
262.062606
  0
LINE
  5
64E
102
{ACAD_REACTORS
330
6F6
102
}
330
1F
100
AcDbEntity
  8
LC-002-002-----0
 62
     7
370
    25
100
AcDbLine
 10
1639.583027
 20
1884.52
 30
0.0
 11
1643.583027
 21
1884.52
 31
0.0
  0
LINE
  5
64F
102
{ACAD_REACTORS
330
6F6
102
}
330
1F
100
AcDbEntity
  8
LC-002-002-----0
 62
     7
370
    25
100
AcDbLine
 10
1607.770121
 20
1872.26939
 30
0.0
 11
1608.780469
 21
1874.019365
 31
0.0
  0
LINE
  5
650
102
{ACAD_REACTORS
330
6F6
102
}
330
1F
100
AcDbEntity
  8
LC-002-002-----0
 62
     7
370
    25
100
AcDbLine
 10
1603.440346
 20
1867.02
 30
0.0
 11
1600.940346
 21
1867.02
 31
0.0
  0
LINE
  5
651
102
{ACAD_REACTORS
330
6F6
102
}
330
1F
100
AcDbEntity
  8
LC-002-002-----0
 62
     7
370
    25
100
AcDbLine
 10
1613.976988
 20
1877.02
 30
0.0
 11
1629.440346
 21
1877.02
 31
0.0
  0
LINE
  5
652
102
{ACAD_REACTORS
330
6F6
102
}
330
1F
100
AcDbEntity
  8
LC-002-002-----0
 62
     7
370
    25
100
AcDbLine
 10
1639.122804
 20
1884.52
 30
0.0
 11
1639.583027
 21
1884.52
 31
0.0
  0
ARC
  5
653
102
{ACAD_REACTORS
330
6F6
102
}
330
1F
100
AcDbEntity
  8
LC-002-002-----0
 62
     7
370
    25
100
AcDbCircle
 10
1629.440346
 20
1881.02
 30
0.0
 40
4.0
100
AcDbArc
 50
270.0
 51
345.507853
  0
ARC
  5
654
102
{ACAD_REACTORS
330
6F6
102
}
330
1F
100
AcDbEntity
  8
LC-002-002-----0
 62
     7
370
    25
100
AcDbCircle
 10
1639.122804
 20
1878.52
 30
0.0
 40
6.0
100
AcDbArc
 50
90.0
 51
165.530548
  0
ARC
  5
655
102
{ACAD_REACTORS
330
6F6
102
}
330
1F
100
AcDbEntity
  8
LC-002-002-----0
 62
     7
370
    25
100
AcDbCircle
 10
1613.976988
 20
1871.02
 30
0.0
 40
6.0
100
AcDbArc
 50
90.0
 51
150.011524
  0
ARC
  5
656
102
{ACAD_REACTORS
330
6F6
102
}
330
1F
100
AcDbEntity
  8
LC-002-002-----0
 62
     7
370
    25
100
AcDbCircle
 10
1603.440346
 20
1874.77
 30
0.0
 40
5.000000000000194
100
AcDbArc
 50
277.927775
 51
329.983847
  0
ARC
  5
657
102
{ACAD_REACTORS
330
6F6
102
}
330
1F
100
AcDbEntity
  8
LC-002-002-----0
 62
     7
370
    25
100
AcDbCircle
 10
1604.240346
 20
1869.025437
 30
0.0
 40
0.7999999999998813
100
AcDbArc
 50
97.937394
 51
180.0
  0
CIRCLE
  5
658
102
{ACAD_REACTORS
330
6F6
102
}
330
1F
100
AcDbEntity
  8
LC-002-002-----0
  6
DASHED
 62
     7
370
    25
100
AcDbCircle
 10
1621.333027
 20
1829.52
 30
0.0
 40
20.00000000000023
  0
LINE
  5
659
102
{ACAD_REACTORS
330
6F7
102
}
330
1F
100
AcDbEntity
  8
LC-002-002-----0
 62
     7
370
    25
100
AcDbLine
 10
1548.980799
 20
1965.60461
 30
0.0
 11
1548.980799
 21
1903.52
 31
0.0
  0
LINE
  5
65A
102
{ACAD_REACTORS
330
6F7
102
}
330
1F
100
AcDbEntity
  8
LC-002-002-----0
 62
     7
370
    25
100
AcDbLine
 10
1588.980799
 20
1989.195751
 30
0.0
 11
1588.980799
 21
2031.504285
 31
0.0
  0
LINE
  5
65B
102
{ACAD_REACTORS
330
6F9
102
}
330
1F
100
AcDbEntity
  8
LC-002-002-----0
 62
     7
370
    25
100
AcDbLine
 10
1546.580799
 20
1880.363603
 30
0.0
 11
1546.029303
 21
1880.363603
 31
0.0
  0
LINE
  5
65C
102
{ACAD_REACTORS
330
6F6
102
}
330
1F
100
AcDbEntity
  8
LC-002-002-----0
 62
     7
370
    25
100
AcDbLine
 10
1603.440346
 20
1867.02
 30
0.0
 11
1603.440346
 21
1869.025437
 31
0.0
  0
ARC
  5
65D
102
{ACAD_REACTORS
330
6FF
102
}
330
1F
100
AcDbEntity
  8
LC-002-002-----0
 62
     7
370
    25
100
AcDbCircle
 10
1621.333027
 20
1829.52
 30
0.0
 40
12.49999999999968
100
AcDbArc
 50
91.978918
 51
268.021179
  0
LINE
  5
65E
102
{ACAD_REACTORS
330
6FF
102
}
330
1F
100
AcDbEntity
  8
LC-002-002-----0
 62
     7
370
    25
100
AcDbLine
 10
1620.901401
 20
1817.027454
 30
0.0
 11
1641.305539
 21
1816.322477
 31
0.0
  0
LINE
  5
65F
102
{ACAD_REACTORS
330
6FF
102
}
330
1F
100
AcDbEntity
  8
LC-002-002-----0
 62
     7
370
    25
100
AcDbLine
 10
1620.90138
 20
1842.012545
 30
0.0
 11
1641.305571
 21
1842.717558
 31
0.0
  0
LINE
  5
660
102
{ACAD_REACTORS
330
6FF
102
}
330
1F
100
AcDbEntity
  8
LC-002-002-----0
 62
     7
370
    25
100
AcDbLine
 10
1656.333027
 20
1849.52
 30
0.0
 11
1662.333027
 21
1849.52
 31
0.0
  0
LINE
  5
661
102
{ACAD_REACTORS
330
6FF
102
}
330
1F
100
AcDbEntity
  8
LC-002-002-----0
 62
     7
370
    25
100
AcDbLine
 10
1662.333027
 20
1849.52
 30
0.0
 11
1662.333027
 21
1809.52
 31
0.0
  0
LINE
  5
662
102
{ACAD_REACTORS
330
6FF
102
}
330
1F
100
AcDbEntity
  8
LC-002-002-----0
 62
     7
370
    25
100
AcDbLine
 10
1656.333027
 20
1809.52
 30
0.0
 11
1662.333027
 21
1809.52
 31
0.0
  0
LINE
  5
663
102
{ACAD_REACTORS
330
6FF
102
}
330
1F
100
AcDbEntity
  8
LC-002-002-----0
 62
     7
370
    25
100
AcDbLine
 10
1669.982138
 20
1817.02
 30
0.0
 11
1669.982138
 21
1842.02
 31
0.0
  0
LINE
  5
664
102
{ACAD_REACTORS
330
6FF
102
}
330
1F
100
AcDbEntity
  8
LC-002-002-----0
 62
     7
370
    25
100
AcDbLine
 10
1720.959858
 20
1817.52
 30
0.0
 11
1720.959858
 21
1841.52
 31
0.0
  0
ARC
  5
665
102
{ACAD_REACTORS
330
6FF
102
}
330
1F
100
AcDbEntity
  8
LC-002-002-----0
 62
     7
370
    25
100
AcDbCircle
 10
1720.459858
 20
1817.52
 30
0.0
 40
0.5
100
AcDbArc
 50
270.0
 51
0.0
  0
ARC
  5
666
102
{ACAD_REACTORS
330
6FF
102
}
330
1F
100
AcDbEntity
  8
LC-002-002-----0
 62
     7
370
    25
100
AcDbCircle
 10
1720.459858
 20
1841.52
 30
0.0
 40
0.5
100
AcDbArc
 50
0.0
 51
90.0
  0
ARC
  5
667
102
{ACAD_REACTORS
330
6FF
102
}
330
1F
100
AcDbEntity
  8
LC-002-002-----0
 62
     7
370
    25
100
AcDbCircle
 10
1657.333027
 20
1829.52
 30
0.0
 40
17.49999999999994
100
AcDbArc
 50
46.85835
 51
73.398452
  0
ARC
  5
668
102
{ACAD_REACTORS
330
6FF
102
}
330
1F
100
AcDbEntity
  8
LC-002-002-----0
 62
     7
370
    25
100
AcDbCircle
 10
1657.333027
 20
1829.52
 30
0.0
 40
17.49999999999971
100
AcDbArc
 50
286.601549
 51
313.141806
  0
ARC
  5
669
102
{ACAD_REACTORS
330
6FF
102
}
330
1F
100
AcDbEntity
  8
LC-002-002-----0
 62
     7
370
    25
100
AcDbCircle
 10
1656.333027
 20
1829.52
 30
0.0
 40
20.00000000000009
100
AcDbArc
 50
221.290426
 51
270.0
  0
ARC
  5
66A
102
{ACAD_REACTORS
330
6FF
102
}
330
1F
100
AcDbEntity
  8
LC-002-002-----0
 62
     7
370
    25
100
AcDbCircle
 10
1656.333027
 20
1829.52
 30
0.0
 40
20.0
100
AcDbArc
 50
90.0
 51
138.709438
  0
LINE
  5
66B
102
{ACAD_REACTORS
330
6FF
102
}
330
1F
100
AcDbEntity
  8
LC-002-002-----0
 62
     7
370
    25
100
AcDbLine
 10
1720.459858
 20
1842.02
 30
0.0
 11
1669.982138
 21
1842.02
 31
0.0
  0
LINE
  5
66C
102
{ACAD_REACTORS
330
6FF
102
}
330
1F
100
AcDbEntity
  8
LC-002-002-----0
 62
     7
370
    25
100
AcDbLine
 10
1720.459858
 20
1817.02
 30
0.0
 11
1669.982138
 21
1817.02
 31
0.0
  0
LINE
  5
66D
102
{ACAD_REACTORS
330
702
102
}
330
1F
100
AcDbEntity
  8
LC-002-002-----0
 62
     7
370
    25
100
AcDbLine
 10
762.095257
 20
2544.234968
 30
0.0
 11
762.095257
 21
2487.384079
 31
0.0
  0
LINE
  5
66E
102
{ACAD_REACTORS
330
701
102
}
330
1F
100
AcDbEntity
  8
LC-002-002-----0
 62
     7
370
    25
100
AcDbLine
 10
763.395257
 20
2571.649266
 30
0.0
 11
764.595257
 21
2579.649266
 31
0.0
  0
LINE
  5
66F
102
{ACAD_REACTORS
330
701
102
}
330
1F
100
AcDbEntity
  8
LC-002-002-----0
 62
     7
370
    25
100
AcDbLine
 10
763.395257
 20
2544.649266
 30
0.0
 11
763.395257
 21
2571.649266
 31
0.0
  0
LINE
  5
670
102
{ACAD_REACTORS
330
701
102
}
330
1F
100
AcDbEntity
  8
LC-002-002-----0
 62
     7
370
    25
100
AcDbLine
 10
764.595257
 20
2609.248537
 30
0.0
 11
764.595257
 21
2579.649266
 31
0.0
  0
LINE
  5
671
102
{ACAD_REACTORS
330
701
102
}
330
1F
100
AcDbEntity
  8
LC-002-002-----0
 62
     7
370
    25
100
AcDbLine
 10
785.79525
 20
2571.649266
 30
0.0
 11
785.795251
 21
2579.649266
 31
0.0
  0
LINE
  5
672
102
{ACAD_REACTORS
330
701
102
}
330
1F
100
AcDbEntity
  8
LC-002-002-----0
 62
     7
370
    25
100
AcDbLine
 10
785.795257
 20
2544.649266
 30
0.0
 11
785.795257
 21
2571.649266
 31
0.0
  0
LINE
  5
673
102
{ACAD_REACTORS
330
701
102
}
330
1F
100
AcDbEntity
  8
LC-002-002-----0
 62
     7
370
    25
100
AcDbLine
 10
785.795257
 20
2579.649266
 30
0.0
 11
785.795257
 21
2609.248818
 31
0.0
  0
LINE
  5
674
102
{ACAD_REACTORS
330
702
102
}
330
1F
100
AcDbEntity
  8
LC-002-002-----0
 62
     7
370
    25
100
AcDbLine
 10
787.095257
 20
2544.234968
 30
0.0
 11
787.095257
 21
2487.384079
 31
0.0
  0
LINE
  5
675
102
{ACAD_REACTORS
330
702
102
}
330
1F
100
AcDbEntity
  8
LC-002-002-----0
 62
     7
370
    25
100
AcDbLine
 10
787.095257
 20
2487.384079
 30
0.0
 11
762.095257
 21
2487.384079
 31
0.0
  0
LINE
  5
676
102
{ACAD_REACTORS
330
702
102
}
330
1F
100
AcDbEntity
  8
LC-002-002-----0
 62
     7
370
    25
100
AcDbLine
 10
786.595257
 20
2544.734968
 30
0.0
 11
762.595257
 21
2544.734968
 31
0.0
  0
LINE
  5
677
102
{ACAD_REACTORS
330
701
102
}
330
1F
100
AcDbEntity
  8
LC-002-002-----0
 62
     7
370
    25
100
AcDbLine
 10
763.395257
 20
2571.649266
 30
0.0
 11
785.795257
 21
2571.64941
 31
0.0
  0
LINE
  5
678
102
{ACAD_REACTORS
330
701
102
}
330
1F
100
AcDbEntity
  8
LC-002-002-----0
 62
     7
370
    25
100
AcDbLine
 10
785.795257
 20
2579.649266
 30
0.0
 11
764.595257
 21
2579.649266
 31
0.0
  0
LINE
  5
679
102
{ACAD_REACTORS
330
701
102
}
330
1F
100
AcDbEntity
  8
LC-002-002-----0
 62
     7
370
    25
100
AcDbLine
 10
786.195249
 20
2609.649266
 30
0.0
 11
764.195249
 21
2609.649266
 31
0.0
  0
ARC
  5
67A
102
{ACAD_REACTORS
330
702
102
}
330
1F
100
AcDbEntity
  8
LC-002-002-----0
 62
     7
370
    25
100
AcDbCircle
 10
786.595257
 20
2544.234968
 30
0.0
 40
0.5
100
AcDbArc
 50
0.0
 51
90.0
  0
ARC
  5
67B
102
{ACAD_REACTORS
330
702
102
}
330
1F
100
AcDbEntity
  8
LC-002-002-----0
 62
     7
370
    25
100
AcDbCircle
 10
762.595257
 20
2544.234968
 30
0.0
 40
0.5
100
AcDbArc
 50
90.0
 51
180.0
  0
ARC
  5
67C
102
{ACAD_REACTORS
330
702
102
}
330
1F
100
AcDbEntity
  8
LC-002-002-----0
 62
     7
370
    25
100
AcDbCircle
 10
788.095257
 20
2487.384079
 30
0.0
 40
1.0
100
AcDbArc
 50
180.0
 51
223.137678
  0
ARC
  5
67D
102
{ACAD_REACTORS
330
702
102
}
330
1F
100
AcDbEntity
  8
LC-002-002-----0
 62
     7
370
    25
100
AcDbCircle
 10
761.095257
 20
2487.384079
 30
0.0
 40
0.9999999999999109
100
AcDbArc
 50
316.862322
 51
0.0
  0
ARC
  5
67E
102
{ACAD_REACTORS
330
702
102
}
330
1F
100
AcDbEntity
  8
LC-002-002-----0
 62
     7
370
    25
100
AcDbCircle
 10
774.595257
 20
2474.734968
 30
0.0
 40
17.49999999999994
100
AcDbArc
 50
136.85835
 51
163.398452
  0
ARC
  5
67F
102
{ACAD_REACTORS
330
702
102
}
330
1F
100
AcDbEntity
  8
LC-002-002-----0
 62
     7
370
    25
100
AcDbCircle
 10
774.595257
 20
2474.734968
 30
0.0
 40
17.49999999999992
100
AcDbArc
 50
16.601549
 51
43.141806
  0
LINE
  5
680
102
{ACAD_REACTORS
330
701
102
}
330
1F
100
AcDbEntity
  8
LC-002-002-----0
 62
     7
370
    25
100
AcDbLine
 10
785.795257
 20
2609.248818
 30
0.0
 11
785.674733
 21
2609.474604
 31
0.0
  0
LINE
  5
681
102
{ACAD_REACTORS
330
701
102
}
330
1F
100
AcDbEntity
  8
LC-002-002-----0
 62
     7
370
    25
100
AcDbLine
 10
785.674733
 20
2609.474604
 30
0.0
 11
785.501654
 21
2609.604598
 31
0.0
  0
LINE
  5
682
102
{ACAD_REACTORS
330
701
102
}
330
1F
100
AcDbEntity
  8
LC-002-002-----0
 62
     7
370
    25
100
AcDbLine
 10
785.501654
 20
2609.604598
 30
0.0
 11
785.295162
 21
2609.649266
 31
0.0
  0
LINE
  5
683
102
{ACAD_REACTORS
330
701
102
}
330
1F
100
AcDbEntity
  8
LC-002-002-----0
 62
     7
370
    25
100
AcDbLine
 10
765.095335
 20
2609.649266
 30
0.0
 11
764.888609
 21
2609.604493
 31
0.0
  0
LINE
  5
684
102
{ACAD_REACTORS
330
701
102
}
330
1F
100
AcDbEntity
  8
LC-002-002-----0
 62
     7
370
    25
100
AcDbLine
 10
764.888609
 20
2609.604493
 30
0.0
 11
764.715479
 21
2609.47427
 31
0.0
  0
LINE
  5
685
102
{ACAD_REACTORS
330
701
102
}
330
1F
100
AcDbEntity
  8
LC-002-002-----0
 62
     7
370
    25
100
AcDbLine
 10
764.715479
 20
2609.47427
 30
0.0
 11
764.595257
 21
2609.248537
 31
0.0
  0
LINE
  5
687
102
{ACAD_REACTORS
330
6F4
102
}
330
1F
100
AcDbEntity
  8
LC-011-100-D01-0
 62
     7
370
    25
100
AcDbLine
 10
725.695249
 20
2638.399266
 30
0.0
 11
766.695249
 21
2638.399266
 31
0.0
  0
LINE
  5
688
102
{ACAD_REACTORS
330
6F0
102
}
330
1F
100
AcDbEntity
  8
LC-011-100-D01-0
 62
     7
370
    25
100
AcDbLine
 10
766.695249
 20
2633.399266
 30
0.0
 11
766.695249
 21
2638.399266
 31
0.0
  0
LINE
  5
689
102
{ACAD_REACTORS
330
6F0
102
}
330
1F
100
AcDbEntity
  8
LC-011-100-D01-0
 62
     7
370
    25
100
AcDbLine
 10
725.695249
 20
2633.399266
 30
0.0
 11
725.695249
 21
2638.399266
 31
0.0
  0
LINE
  5
68A
102
{ACAD_REACTORS
330
6F0
102
}
330
1F
100
AcDbEntity
  8
LC-011-100-D01-0
 62
     7
370
    25
100
AcDbLine
 10
725.695249
 20
2633.399266
 30
0.0
 11
766.695249
 21
2633.399266
 31
0.0
  0
LINE
  5
68B
102
{ACAD_REACTORS
330
6F0
102
}
330
1F
100
AcDbEntity
  8
LC-011-100-D01-0
 62
     7
370
    25
100
AcDbLine
 10
728.695249
 20
2633.399266
 30
0.0
 11
728.695249
 21
2632.399266
 31
0.0
  0
LINE
  5
68C
102
{ACAD_REACTORS
330
6F0
102
}
330
1F
100
AcDbEntity
  8
LC-011-100-D01-0
 62
     7
370
    25
100
AcDbLine
 10
736.471728
 20
2618.399266
 30
0.0
 11
757.695249
 21
2618.399266
 31
0.0
  0
ARC
  5
68E
102
{ACAD_REACTORS
330
6F0
102
}
330
1F
100
AcDbEntity
  8
LC-012-100-D00-0
 62
     7
370
    25
100
AcDbCircle
 10
736.471728
 20
2620.399266
 30
0.0
 40
1.99999999999987
100
AcDbArc
 50
204.904769
 51
270.0
  0
ARC
  5
68F
102
{ACAD_REACTORS
330
6F0
102
}
330
1F
100
AcDbEntity
  8
LC-012-100-D00-0
 62
     7
370
    25
100
AcDbCircle
 10
751.279169
 20
2617.399266
 30
0.0
 40
1.000000000000134
100
AcDbArc
 50
9.594068
 51
90.0
  0
LINE
  5
690
102
{ACAD_REACTORS
330
6F0
102
}
330
1F
100
AcDbEntity
  8
LC-011-100-D01-0
 62
     7
370
    25
100
AcDbLine
 10
728.695249
 20
2632.399266
 30
0.0
 11
734.65771
 21
2619.557043
 31
0.0
  0
LINE
  5
691
102
{ACAD_REACTORS
330
6F0
102
}
330
1F
100
AcDbEntity
  8
LC-011-100-D01-0
 62
     7
370
    25
100
AcDbLine
 10
759.695249
 20
2633.399266
 30
0.0
 11
759.695249
 21
2620.399266
 31
0.0
  0
LINE
  5
692
102
{ACAD_REACTORS
330
6F0
102
}
330
1F
100
AcDbEntity
  8
LC-011-100-D01-0
 62
     7
370
    25
100
AcDbLine
 10
757.195249
 20
2613.399266
 30
0.0
 11
763.195249
 21
2613.399266
 31
0.0
  0
ARC
  5
693
102
{ACAD_REACTORS
330
6F0
102
}
330
1F
100
AcDbEntity
  8
LC-011-100-D01-0
 62
     7
370
    25
100
AcDbCircle
 10
757.195249
 20
2618.399266
 30
0.0
 40
4.99999999999985
100
AcDbArc
 50
189.594068
 51
270.0
  0
ARC
  5
694
102
{ACAD_REACTORS
330
6F0
102
}
330
1F
100
AcDbEntity
  8
LC-012-100-D00-0
 62
     7
370
    25
100
AcDbCircle
 10
757.695249
 20
2620.399266
 30
0.0
 40
2.0
100
AcDbArc
 50
270.0
 51
0.0
  0
LINE
  5
695
102
{ACAD_REACTORS
330
6F0
102
}
330
1F
100
AcDbEntity
  8
LC-011-100-D01-0
 62
     7
370
    25
100
AcDbLine
 10
766.695249
 20
2635.399266
 30
0.0
 11
785.195249
 21
2635.399266
 31
0.0
  0
LINE
  5
696
102
{ACAD_REACTORS
330
6F0
102
}
330
1F
100
AcDbEntity
  8
LC-011-100-D01-0
 62
     7
370
    25
100
AcDbLine
 10
786.195249
 20
2634.399266
 30
0.0
 11
786.195249
 21
2609.649266
 31
0.0
  0
ARC
  5
697
102
{ACAD_REACTORS
330
6F0
102
}
330
1F
100
AcDbEntity
  8
LC-012-100-D00-0
 62
     7
370
    25
100
AcDbCircle
 10
785.195249
 20
2634.399266
 30
0.0
 40
1.0
100
AcDbArc
 50
0.0
 51
90.0
  0
LINE
  5
698
102
{ACAD_REACTORS
330
6F0
102
}
330
1F
100
AcDbEntity
  8
LC-011-100-D01-0
 62
     7
370
    25
100
AcDbLine
 10
764.195249
 20
2612.399266
 30
0.0
 11
764.195249
 21
2609.649266
 31
0.0
  0
ARC
  5
699
102
{ACAD_REACTORS
330
6F0
102
}
330
1F
100
AcDbEntity
  8
LC-012-100-D00-0
 62
     7
370
    25
100
AcDbCircle
 10
763.195249
 20
2612.399266
 30
0.0
 40
1.0
100
AcDbArc
 50
0.0
 51
90.0
  0
LINE
  5
69A
102
{ACAD_REACTORS
330
6F2
102
}
330
1F
100
AcDbEntity
  8
LC-002-002-----0
 62
     7
370
    25
100
AcDbLine
 10
1757.266207
 20
1842.82
 30
0.0
 11
1786.766207
 21
1842.82
 31
0.0
  0
LINE
  5
69B
102
{ACAD_REACTORS
330
6F2
102
}
330
1F
100
AcDbEntity
  8
LC-002-002-----0
 62
     7
370
    25
100
AcDbLine
 10
1720.959858
 20
1840.72
 30
0.0
 11
1749.266207
 21
1840.72
 31
0.0
  0
LINE
  5
69C
102
{ACAD_REACTORS
330
6F2
102
}
330
1F
100
AcDbEntity
  8
LC-002-002-----0
 62
     7
370
    25
100
AcDbLine
 10
1749.266203
 20
1818.32
 30
0.0
 11
1757.266206
 21
1816.22
 31
0.0
  0
LINE
  5
69D
102
{ACAD_REACTORS
330
6F2
102
}
330
1F
100
AcDbEntity
  8
LC-002-002-----0
 62
     7
370
    25
100
AcDbLine
 10
1720.959858
 20
1818.32
 30
0.0
 11
1749.266207
 21
1818.32
 31
0.0
  0
LINE
  5
69E
102
{ACAD_REACTORS
330
6F2
102
}
330
1F
100
AcDbEntity
  8
LC-002-002-----0
 62
     7
370
    25
100
AcDbLine
 10
1757.266207
 20
1842.82
 30
0.0
 11
1749.266207
 21
1840.72
 31
0.0
  0
LINE
  5
69F
102
{ACAD_REACTORS
330
6F2
102
}
330
1F
100
AcDbEntity
  8
LC-002-002-----0
 62
     7
370
    25
100
AcDbLine
 10
1786.766207
 20
1816.22
 30
0.0
 11
1757.266207
 21
1816.22
 31
0.0
  0
LINE
  5
6A0
102
{ACAD_REACTORS
330
6F2
102
}
330
1F
100
AcDbEntity
  8
LC-002-002-----0
 62
     7
370
    25
100
AcDbLine
 10
1787.266207
 20
1816.720002
 30
0.0
 11
1787.266207
 21
1842.32
 31
0.0
  0
INSERT
  5
6B0
102
{ACAD_REACTORS
330
6F2
102
}
330
1F
100
AcDbEntity
  8
LC-002-002-----0
 62
     7
370
    25
100
AcDbBlockReference
  2
POLY20
 10
0.0
 20
0.0
 30
0.0
  0
INSERT
  5
6BC
102
{ACAD_REACTORS
330
6F2
102
}
330
1F
100
AcDbEntity
  8
LC-002-002-----0
 62
     7
370
    25
100
AcDbBlockReference
  2
POLY21
 10
0.0
 20
0.0
 30
0.0
  0
LINE
  5
6BD
102
{ACAD_REACTORS
330
6F5
102
}
330
1F
100
AcDbEntity
  8
LC-011-100-D01-0
 62
     7
370
    25
100
AcDbLine
 10
1821.007163
 20
1850.020001
 30
0.0
 11
1821.007163
 21
1809.020001
 31
0.0
  0
LINE
  5
6BE
102
{ACAD_REACTORS
330
6F5
102
}
330
1F
100
AcDbEntity
  8
LC-011-100-D01-0
 62
     7
370
    25
100
AcDbLine
 10
1816.007163
 20
1809.020001
 30
0.0
 11
1821.007163
 21
1809.020001
 31
0.0
  0
LINE
  5
6BF
102
{ACAD_REACTORS
330
6F5
102
}
330
1F
100
AcDbEntity
  8
LC-011-100-D01-0
 62
     7
370
    25
100
AcDbLine
 10
1816.007163
 20
1850.020001
 30
0.0
 11
1821.007163
 21
1850.020001
 31
0.0
  0
LINE
  5
6C0
102
{ACAD_REACTORS
330
6F5
102
}
330
1F
100
AcDbEntity
  8
LC-011-100-D01-0
 62
     7
370
    25
100
AcDbLine
 10
1816.007163
 20
1850.020001
 30
0.0
 11
1816.007163
 21
1809.020001
 31
0.0
  0
LINE
  5
6C1
102
{ACAD_REACTORS
330
6F5
102
}
330
1F
100
AcDbEntity
  8
LC-011-100-D01-0
 62
     7
370
    25
100
AcDbLine
 10
1816.007163
 20
1847.020001
 30
0.0
 11
1815.007163
 21
1847.020001
 31
0.0
  0
LINE
  5
6C2
102
{ACAD_REACTORS
330
6F5
102
}
330
1F
100
AcDbEntity
  8
LC-011-100-D01-0
 62
     7
370
    25
100
AcDbLine
 10
1801.007163
 20
1839.243522
 30
0.0
 11
1801.007163
 21
1819.79648
 31
0.0
  0
ARC
  5
6C3
102
{ACAD_REACTORS
330
6F5
102
}
330
1F
100
AcDbEntity
  8
LC-012-100-D00-0
 62
     7
370
    25
100
AcDbCircle
 10
1803.007163
 20
1839.243522
 30
0.0
 40
1.999999999999664
100
AcDbArc
 50
114.904769
 51
180.0
  0
LINE
  5
6C4
102
{ACAD_REACTORS
330
6F5
102
}
330
1F
100
AcDbEntity
  8
LC-011-100-D01-0
 62
     7
370
    25
100
AcDbLine
 10
1815.007163
 20
1847.020001
 30
0.0
 11
1802.16494
 21
1841.05754
 31
0.0
  0
LINE
  5
6C5
102
{ACAD_REACTORS
330
6F5
102
}
330
1F
100
AcDbEntity
  8
LC-011-100-D01-0
 62
     7
370
    25
100
AcDbLine
 10
1801.467487
 20
1818.520001
 30
0.0
 11
1787.266207
 21
1818.520001
 31
0.0
  0
LINE
  5
6C6
102
{ACAD_REACTORS
330
6F5
102
}
330
1F
100
AcDbEntity
  8
LC-011-100-D01-0
 62
     7
370
    25
100
AcDbLine
 10
1801.467487
 20
1840.520001
 30
0.0
 11
1787.266207
 21
1840.520001
 31
0.0
  0
ARC
  5
6C7
102
{ACAD_REACTORS
330
6F5
102
}
330
1F
100
AcDbEntity
  8
LC-012-100-D00-0
 62
     7
370
    25
100
AcDbCircle
 10
1803.007163
 20
1819.79648
 30
0.0
 40
2.0
100
AcDbArc
 50
180.0
 51
245.095231
  0
LINE
  5
6C8
102
{ACAD_REACTORS
330
6F5
102
}
330
1F
100
AcDbEntity
  8
LC-011-100-D01-0
 62
     7
370
    25
100
AcDbLine
 10
1815.007163
 20
1812.020001
 30
0.0
 11
1802.16494
 21
1817.982462
 31
0.0
  0
LINE
  5
6C9
102
{ACAD_REACTORS
330
6F5
102
}
330
1F
100
AcDbEntity
  8
LC-011-100-D01-0
 62
     7
370
    25
100
AcDbLine
 10
1816.007163
 20
1812.020001
 30
0.0
 11
1815.007163
 21
1812.020001
 31
0.0
  0
LINE
  5
6CA
102
{ACAD_REACTORS
330
6F1
102
}
330
1F
100
AcDbEntity
  8
LC-002-002-----0
 62
     7
370
    25
100
AcDbLine
 10
854.308672
 20
2456.514908
 30
0.0
 11
854.308672
 21
2456.514908
 31
0.0
  0
LINE
  5
6CB
102
{ACAD_REACTORS
330
6F1
102
}
330
1F
100
AcDbEntity
  8
LC-002-002-----0
 62
     7
370
    25
100
AcDbLine
 10
854.256762
 20
2456.975131
 30
0.0
 11
854.453752
 21
2455.228667
 31
0.0
  0
LINE
  5
6CC
102
{ACAD_REACTORS
330
6F1
102
}
330
1F
100
AcDbEntity
  8
LC-002-002-----0
 62
     7
370
    25
100
AcDbLine
 10
854.453752
 20
2455.228667
 30
0.0
 11
854.453752
 21
2455.228667
 31
0.0
  0
LINE
  5
6CD
102
{ACAD_REACTORS
330
6F1
102
}
330
1F
100
AcDbEntity
  8
LC-002-002-----0
 62
     7
370
    25
100
AcDbLine
 10
854.453752
 20
2455.228667
 30
0.0
 11
854.884025
 21
2453.998889
 31
0.0
  0
LINE
  5
6CE
102
{ACAD_REACTORS
330
6F1
102
}
330
1F
100
AcDbEntity
  8
LC-002-002-----0
 62
     7
370
    25
100
AcDbLine
 10
854.884025
 20
2453.998889
 30
0.0
 11
854.884025
 21
2453.998889
 31
0.0
  0
LINE
  5
6CF
102
{ACAD_REACTORS
330
6F1
102
}
330
1F
100
AcDbEntity
  8
LC-002-002-----0
 62
     7
370
    25
100
AcDbLine
 10
854.884025
 20
2453.998889
 30
0.0
 11
855.585143
 21
2452.880134
 31
0.0
  0
LINE
  5
6D0
102
{ACAD_REACTORS
330
6F1
102
}
330
1F
100
AcDbEntity
  8
LC-002-002-----0
 62
     7
370
    25
100
AcDbLine
 10
855.585143
 20
2452.880134
 30
0.0
 11
855.585143
 21
2452.880134
 31
0.0
  0
LINE
  5
6D1
102
{ACAD_REACTORS
330
6F1
102
}
330
1F
100
AcDbEntity
  8
LC-002-002-----0
 62
     7
370
    25
100
AcDbLine
 10
855.585143
 20
2452.880134
 30
0.0
 11
856.532391
 21
2451.925812
 31
0.0
  0
LINE
  5
6D2
102
{ACAD_REACTORS
330
6F1
102
}
330
1F
100
AcDbEntity
  8
LC-002-002-----0
 62
     7
370
    25
100
AcDbLine
 10
856.532391
 20
2451.925812
 30
0.0
 11
856.532391
 21
2451.925812
 31
0.0
  0
LINE
  5
6D3
102
{ACAD_REACTORS
330
6F1
102
}
330
1F
100
AcDbEntity
  8
LC-002-002-----0
 62
     7
370
    25
100
AcDbLine
 10
856.532391
 20
2451.925812
 30
0.0
 11
857.689151
 21
2451.186224
 31
0.0
  0
LINE
  5
6D4
102
{ACAD_REACTORS
330
6F1
102
}
330
1F
100
AcDbEntity
  8
LC-002-002-----0
 62
     7
370
    25
100
AcDbLine
 10
857.689151
 20
2451.186224
 30
0.0
 11
857.689151
 21
2451.186224
 31
0.0
  0
LINE
  5
6D5
102
{ACAD_REACTORS
330
6F1
102
}
330
1F
100
AcDbEntity
  8
LC-002-002-----0
 62
     7
370
    25
100
AcDbLine
 10
857.689151
 20
2451.186224
 30
0.0
 11
859.005623
 21
2450.705433
 31
0.0
  0
INSERT
  5
6EF
330
1F
100
AcDbEntity
  8
LC-008-003-----0
 62
     7
370
    25
100
AcDbBlockReference
  2
LCDIM15
 10
0.0
 20
0.0
 30
0.0
  0
ENDSEC
  0
SECTION
  2
OBJECTS
  0
DICTIONARY
  5
C
330
0
100
AcDbDictionary
281
     1
  3
ACAD_GROUP
350
D
  3
ACAD_LAYOUT
350
1A
  3
ACAD_MLINESTYLE
350
17
  3
ACAD_PLOTSETTINGS
350
19
  3
ACAD_PLOTSTYLENAME
350
E
  0
DICTIONARY
  5
D
102
{ACAD_REACTORS
330
C
102
}
330
C
100
AcDbDictionary
281
     1
  3
LCGROUP1138
350
6F8
  3
LCGROUP20
350
6F1
  3
LCGROUP26
350
6F4
  3
LCGROUP27
350
6F3
  3
LCGROUP2956
350
700
  3
LCGROUP3111
350
6FA
  3
LCGROUP3128
350
6FB
  3
LCGROUP3149
350
6FE
  3
LCGROUP3150
350
6FD
  3
LCGROUP3324
350
6F7
  3
LCGROUP3327
350
6F6
  3
LCGROUP3328
350
6F9
  3
LCGROUP3452
350
6FF
  3
LCGROUP3514
350
702
  3
LCGROUP3515
350
701
  3
LCGROUP3541
350
6F0
  3
LCGROUP3560
350
6F2
  3
LCGROUP3570
350
6F5
  3
LCGROUP959
350
6FC
  0
DICTIONARY
  5
1A
102
{ACAD_REACTORS
330
C
102
}
330
C
100
AcDbDictionary
281
     1
  3
Layout1
350
1E
  3
Layout2
350
26
  3
Model
350
22
  0
DICTIONARY
  5
17
102
{ACAD_REACTORS
330
C
102
}
330
C
100
AcDbDictionary
281
     1
  3
Standard
350
18
  0
DICTIONARY
  5
19
102
{ACAD_REACTORS
330
C
102
}
330
C
100
AcDbDictionary
281
     1
  0
ACDBDICTIONARYWDFLT
  5
E
102
{ACAD_REACTORS
330
C
102
}
330
C
100
AcDbDictionary
281
     1
  3
Normal
350
F
100
AcDbDictionaryWithDefault
340
F
  0
GROUP
  5
6F8
102
{ACAD_REACTORS
330
D
102
}
330
D
100
AcDbGroup
300
GRP1138
 70
     1
 71
     1
340
108
340
10C
340
110
340
116
340
120
340
168
340
16B
340
16D
340
16F
340
1E9
340
1EA
340
1EB
340
1EC
340
1ED
340
1EE
340
1EF
340
1F0
340
1F1
340
1F2
340
1F3
340
1F4
340
1F5
340
1F6
340
1F7
340
1F8
340
1F9
340
1FA
340
1FB
340
1FC
340
1FD
340
1FE
340
1FF
340
200
340
201
340
202
340
213
340
220
340
221
340
222
340
223
340
224
340
225
340
226
340
227
340
228
340
229
340
22A
340
22B
340
22C
340
22D
340
22E
340
22F
340
230
340
231
340
232
340
233
340
234
340
235
340
236
340
237
340
238
340
239
340
23A
340
23B
340
23C
340
23D
340
23E
340
23F
340
240
340
241
340
242
340
243
340
244
340
245
340
246
340
247
340
248
340
269
340
26A
340
26B
340
26C
340
26D
340
26E
340
26F
340
270
340
271
340
272
340
273
340
274
340
275
340
276
340
277
340
33A
340
33B
340
33C
340
33D
340
33E
340
33F
340
359
  0
GROUP
  5
6F1
102
{ACAD_REACTORS
330
D
102
}
330
D
100
AcDbGroup
300
GRP20-LCMaster-LCGROUP3149
 70
     1
 71
     1
340
6CA
340
6CB
340
6CC
340
6CD
340
6CE
340
6CF
340
6D0
340
6D1
340
6D2
340
6D3
340
6D4
340
6D5
  0
GROUP
  5
6F4
102
{ACAD_REACTORS
330
D
102
}
330
D
100
AcDbGroup
300
GRP26
 70
     1
 71
     1
340
114
340
115
340
118
340
119
340
11B
340
11C
340
11E
340
121
340
122
340
123
340
125
340
14B
340
14C
340
150
340
151
340
15C
340
15D
340
15E
340
15F
340
181
340
182
340
183
340
184
340
185
340
186
340
187
340
188
340
189
340
18A
340
18B
340
18C
340
18D
340
18E
340
18F
340
190
340
191
340
192
340
193
340
194
340
195
340
196
340
198
340
199
340
19A
340
19B
340
19C
340
19D
340
19E
340
19F
340
1A0
340
1A1
340
1A2
340
1A3
340
1A4
340
1A5
340
1A6
340
1A7
340
1A8
340
1A9
340
1AA
340
1AB
340
1AC
340
1AD
340
1AE
340
1AF
340
1B0
340
1B1
340
1B2
340
1B3
340
1B4
340
1B5
340
1B6
340
1B7
340
1B8
340
1B9
340
1BA
340
1BB
340
1BC
340
1BD
340
1BE
340
1BF
340
1C0
340
1C1
340
1C2
340
1C3
340
1C4
340
1C5
340
1C6
340
1C7
340
1C8
340
1C9
340
1CA
340
1CB
340
1CC
340
1CD
340
1CE
340
1CF
340
1D0
340
1D1
340
1D2
340
1D3
340
1D4
340
1D5
340
1D6
340
1D7
340
1D8
340
1D9
340
1DA
340
1DB
340
1DC
340
1DD
340
1DE
340
1DF
340
1E0
340
1E1
340
1E2
340
1E3
340
1E4
340
1E5
340
1E6
340
1E7
340
1E8
340
2C8
340
2C9
340
2FE
340
687
  0
GROUP
  5
6F3
102
{ACAD_REACTORS
330
D
102
}
330
D
100
AcDbGroup
300
GRP27-LCMaster-LCGROUP26
 70
     1
 71
     1
340
12B
340
12F
340
135
340
137
340
139
340
13B
340
13D
340
13F
340
140
340
141
340
144
340
147
340
149
340
2FF
340
300
340
301
340
31B
340
324
340
32C
340
339
  0
GROUP
  5
700
102
{ACAD_REACTORS
330
D
102
}
330
D
100
AcDbGroup
300
GRP2956-LCMaster-LCGROUP1138
 70
     1
 71
     1
340
249
340
24A
340
24B
340
24C
340
24D
340
24E
340
24F
340
250
340
251
340
252
340
253
340
254
340
255
340
256
340
257
340
258
340
259
340
25A
340
25B
340
25C
340
25D
340
25E
340
25F
340
260
340
261
340
262
340
263
340
264
340
265
340
266
340
267
340
268
  0
GROUP
  5
6FA
102
{ACAD_REACTORS
330
D
102
}
330
D
100
AcDbGroup
300
GRP3111
 70
     1
 71
     1
340
35A
340
35B
340
35C
340
35D
340
35E
340
35F
340
360
340
361
340
362
340
37C
340
396
340
397
340
398
340
399
340
3B3
340
3B5
340
413
  0
GROUP
  5
6FB
102
{ACAD_REACTORS
330
D
102
}
330
D
100
AcDbGroup
300
GRP3128
 70
     1
 71
     1
340
3B6
340
3B7
340
3B8
340
3B9
340
3BA
340
3BB
340
3BC
340
3BD
340
3BE
340
3BF
340
3C0
340
3DA
340
3F4
340
403
340
404
  0
GROUP
  5
6FE
102
{ACAD_REACTORS
330
D
102
}
330
D
100
AcDbGroup
300
GRP3149-LCMaster-LCGROUP959
 70
     1
 71
     1
340
418
340
419
340
41A
340
41B
340
41C
340
41D
340
422
340
423
340
424
340
428
340
429
340
42A
340
42B
340
42C
340
42D
340
42E
340
42F
340
430
340
431
340
432
340
433
340
434
340
435
340
436
340
437
340
438
340
439
340
43A
340
43B
340
43C
340
43D
340
43E
340
43F
340
440
340
44D
340
457
340
465
340
473
340
4AB
340
4AC
340
4AD
340
4AE
340
4AF
340
4B0
340
4B1
340
4B2
340
4B3
340
4B4
340
4B5
340
4B6
340
4B7
340
4B8
340
4B9
340
4BA
340
4BB
340
4BC
340
4BD
340
4BE
340
4BF
340
4C0
340
4C1
340
4CB
340
4D5
340
4DF
340
52B
340
535
340
53F
340
549
340
595
340
596
340
597
340
598
340
599
340
59A
340
59B
340
59C
340
59D
340
59E
340
59F
340
5A0
340
5A1
340
5A2
340
5A3
340
5A4
340
5A5
340
5A6
340
5A7
340
5AC
340
5AD
340
5AE
  0
GROUP
  5
6FD
102
{ACAD_REACTORS
330
D
102
}
330
D
100
AcDbGroup
300
GRP3150-LCMaster-LCGROUP3149
 70
     1
 71
     1
340
41E
340
41F
340
420
340
421
340
425
340
426
340
427
340
441
340
442
340
443
340
49D
  0
GROUP
  5
6F7
102
{ACAD_REACTORS
330
D
102
}
330
D
100
AcDbGroup
300
GRP3324-LCMaster-LCGROUP3323
 70
     1
 71
     1
340
5AF
340
5B0
340
5B2
340
5B3
340
5B4
340
5B5
340
5B6
340
5B7
340
5B8
340
5B9
340
5BA
340
5BB
340
5BC
340
5BD
340
5BE
340
5BF
340
5C3
340
5C5
340
5C7
340
5CD
340
5CE
340
5CF
340
5D0
340
5D1
340
5D2
340
5D3
340
5D4
340
5E0
340
5E1
340
5E2
340
5E3
340
5E4
340
5E5
340
5E6
340
5E7
340
5E8
340
5E9
340
5EA
340
5EB
340
5EC
340
5ED
340
5EE
340
5EF
340
5F0
340
5F1
340
5F2
340
5FF
340
600
340
659
340
65A
  0
GROUP
  5
6F6
102
{ACAD_REACTORS
330
D
102
}
330
D
100
AcDbGroup
300
GRP10
 70
     1
 71
     1
340
5B1
340
641
340
642
340
643
340
644
340
645
340
646
340
647
340
648
340
649
340
64A
340
64B
340
64C
340
64D
340
64E
340
64F
340
650
340
651
340
652
340
653
340
654
340
655
340
656
340
657
340
658
340
65C
  0
GROUP
  5
6F9
102
{ACAD_REACTORS
330
D
102
}
330
D
100
AcDbGroup
300
GRP3328-LCMaster-LCGROUP3327
 70
     1
 71
     1
340
5C0
340
5C1
340
5C2
340
5C4
340
5C6
340
5C8
340
5C9
340
5CA
340
5CB
340
5CC
340
5D5
340
5D6
340
5D7
340
5D8
340
5D9
340
5DA
340
5DB
340
5DC
340
5DD
340
5DE
340
5DF
340
5F3
340
5F4
340
5F5
340
5F6
340
5F7
340
5F8
340
5F9
340
5FA
340
601
340
602
340
603
340
604
340
605
340
606
340
607
340
608
340
609
340
60A
340
60B
340
60C
340
60D
340
60E
340
61E
340
61F
340
62F
340
630
340
640
340
65B
  0
GROUP
  5
6FF
102
{ACAD_REACTORS
330
D
102
}
330
D
100
AcDbGroup
300
GRP3452
 70
     1
 71
     1
340
65D
340
65E
340
65F
340
660
340
661
340
662
340
663
340
664
340
665
340
666
340
667
340
668
340
669
340
66A
340
66B
340
66C
  0
GROUP
  5
702
102
{ACAD_REACTORS
330
D
102
}
330
D
100
AcDbGroup
300
GRP3514-LCMaster-LCGROUP3150
 70
     1
 71
     1
340
66D
340
674
340
675
340
676
340
67A
340
67B
340
67C
340
67D
340
67E
340
67F
  0
GROUP
  5
701
102
{ACAD_REACTORS
330
D
102
}
330
D
100
AcDbGroup
300
GRP3515-LCMaster-LCGROUP3514
 70
     1
 71
     1
340
66E
340
66F
340
670
340
671
340
672
340
673
340
677
340
678
340
679
340
680
340
681
340
682
340
683
340
684
340
685
  0
GROUP
  5
6F0
102
{ACAD_REACTORS
330
D
102
}
330
D
100
AcDbGroup
300
GRP3541-LCMaster-LCGROUP3514
 70
     1
 71
     1
340
688
340
689
340
68A
340
68B
340
68C
340
68E
340
68F
340
690
340
691
340
692
340
693
340
694
340
695
340
696
340
697
340
698
340
699
  0
GROUP
  5
6F2
102
{ACAD_REACTORS
330
D
102
}
330
D
100
AcDbGroup
300
GRP3560
 70
     1
 71
     1
340
69A
340
69B
340
69C
340
69D
340
69E
340
69F
340
6A0
340
6B0
340
6BC
  0
GROUP
  5
6F5
102
{ACAD_REACTORS
330
D
102
}
330
D
100
AcDbGroup
300
GRP3570
 70
     1
 71
     1
340
6BD
340
6BE
340
6BF
340
6C0
340
6C1
340
6C2
340
6C3
340
6C4
340
6C5
340
6C6
340
6C7
340
6C8
340
6C9
  0
GROUP
  5
6FC
102
{ACAD_REACTORS
330
D
102
}
330
D
100
AcDbGroup
300
GRP959
 70
     1
 71
     1
340
104
340
106
340
107
340
109
340
10A
340
10B
340
10D
340
10E
340
10F
340
111
340
112
340
113
340
117
340
11A
340
11D
340
11F
340
124
340
126
340
129
340
12A
340
12C
340
12D
340
12E
340
130
340
131
340
133
340
134
340
136
340
138
340
13A
340
13C
340
13E
340
142
340
143
340
145
340
146
340
148
340
14A
340
14D
340
14E
340
14F
340
152
340
153
340
154
340
155
340
156
340
157
340
158
340
159
340
15A
340
15B
340
160
340
161
340
162
340
163
340
164
340
165
340
166
340
167
340
169
340
16A
340
16C
340
16E
340
170
340
171
340
172
340
173
340
174
340
175
340
176
340
177
340
178
340
179
340
17A
340
17B
340
17C
340
17D
340
17E
340
17F
340
180
340
203
340
204
340
205
340
206
340
207
340
208
340
209
340
20A
340
20B
340
20C
340
20D
340
20E
340
20F
340
210
340
211
340
212
340
214
340
215
340
216
340
217
340
218
340
219
340
21A
340
21B
340
21C
340
21D
340
21E
340
21F
340
294
340
2AE
340
2CA
340
2E4
  0
LAYOUT
  5
1E
102
{ACAD_REACTORS
330
1A
102
}
330
1A
100
AcDbPlotSettings
  1

  2

  4

  6

 40
0.0
 41
0.0
 42
0.0
 43
0.0
 44
0.0
 45
0.0
 46
0.0
 47
0.0
 48
0.0
 49
0.0
140
0.0
141
0.0
142
1.0
143
1.0
 70
   688
 72
     0
 73
     0
 74
     5
  7

 75
    16
 76
     0
 77
     2
 78
   300
147
1.0
148
0.0
149
0.0
100
AcDbLayout
  1
Layout1
 70
     1
 71
     1
 10
0.0
 20
0.0
 11
2100.0
 21
2970.0
 12
0.0
 22
0.0
 32
0.0
 14
0.0
 24
0.0
 34
0.0
 15
2100.0
 25
2970.0
 35
0.0
146
0.0
 13
0.0
 23
0.0
 33
0.0
 16
1.0
 26
0.0
 36
0.0
 17
0.0
 27
1.0
 37
0.0
 76
     0
330
1B
  0
LAYOUT
  5
26
102
{ACAD_REACTORS
330
1A
102
}
330
1A
100
AcDbPlotSettings
  1

  2

  4

  6

 40
0.0
 41
0.0
 42
0.0
 43
0.0
 44
0.0
 45
0.0
 46
0.0
 47
0.0
 48
0.0
 49
0.0
140
0.0
141
0.0
142
1.0
143
1.0
 70
   688
 72
     0
 73
     0
 74
     5
  7

 75
    16
 76
     0
 77
     2
 78
   300
147
1.0
148
0.0
149
0.0
100
AcDbLayout
  1
Layout2
 70
     1
 71
     2
 10
0.0
 20
0.0
 11
0.0
 21
0.0
 12
0.0
 22
0.0
 32
0.0
 14
0.0
 24
0.0
 34
0.0
 15
0.0
 25
0.0
 35
0.0
146
0.0
 13
0.0
 23
0.0
 33
0.0
 16
1.0
 26
0.0
 36
0.0
 17
0.0
 27
1.0
 37
0.0
 76
     0
330
23
  0
LAYOUT
  5
22
102
{ACAD_REACTORS
330
1A
102
}
330
1A
100
AcDbPlotSettings
  1

  2

  4

  6

 40
0.0
 41
0.0
 42
0.0
 43
0.0
 44
0.0
 45
0.0
 46
0.0
 47
0.0
 48
0.0
 49
0.0
140
0.0
141
0.0
142
1.0
143
1.0
 70
  1776
 72
     0
 73
     0
 74
     0
  7

 75
     0
 76
     0
 77
     2
 78
   300
147
1.0
148
0.0
149
0.0
100
AcDbLayout
  1
Model
 70
     1
 71
     0
 10
0.0
 20
0.0
 11
2100.0
 21
2970.0
 12
0.0
 22
0.0
 32
0.0
 14
0.0
 24
0.0
 34
0.0
 15
2100.0
 25
2970.0
 35
0.0
146
0.0
 13
0.0
 23
0.0
 33
0.0
 16
1.0
 26
0.0
 36
0.0
 17
0.0
 27
1.0
 37
0.0
 76
     0
330
1F
  0
MLINESTYLE
  5
18
102
{ACAD_REACTORS
330
17
102
}
330
17
100
AcDbMlineStyle
  2
Standard
 70
     0
  3

 62
   256
 51
90.0
 52
90.0
 71
     2
 49
0.5
 62
   256
  6
BYLAYER
 49
-0.5
 62
   256
  6
BYLAYER
  0
ACDBPLACEHOLDER
  5
F
102
{ACAD_REACTORS
330
E
102
}
330
E
  0
ENDSEC
  0
EOF
