  0
SECTION
  2
HEADER
  9
$ACADVER
  1
AC1015
  9
$ACADMAINTVER
 70
     6
  9
$DWGCODEPAGE
  3
ANSI_1252
  9
$INSBASE
 10
0.0
 20
0.0
 30
0.0
  9
$EXTMIN
 10
0.0
 20
0.0
 30
0.0
  9
$EXTMAX
 10
2100.0
 20
2970.0
 30
0.0
  9
$LIMMIN
 10
0.0
 20
0.0
  9
$LIMMAX
 10
2100.0
 20
2970.0
  9
$ORTHOMODE
 70
     0
  9
$REGENMODE
 70
     1
  9
$FILLMODE
 70
     1
  9
$QTEXTMODE
 70
     0
  9
$MIRRTEXT
 70
     1
  9
$LTSCALE
 40
10.0
  9
$ATTMODE
 70
     1
  9
$TEXTSIZE
 40
2.5
  9
$TRACEWID
 40
1.0
  9
$TEXTSTYLE
  7
Standard
  9
$CLAYER
  8
0
  9
$CELTYPE
  6
ByLayer
  9
$CECOLOR
 62
     7
  9
$CELTSCALE
 40
1.0
  9
$DISPSILH
 70
     0
  9
$DIMSCALE
 40
10.0
  9
$DIMASZ
 40
3.5
  9
$DIMEXO
 40
0.625
  9
$DIMDLI
 40
3.75
  9
$DIMRND
 40
0.0
  9
$DIMDLE
 40
0.0
  9
$DIMEXE
 40
1.25
  9
$DIMTP
 40
0.0
  9
$DIMTM
 40
0.0
  9
$DIMTXT
 40
3.5
  9
$DIMCEN
 40
2.5
  9
$DIMTSZ
 40
0.0
  9
$DIMTOL
 70
     0
  9
$DIMLIM
 70
     0
  9
$DIMTIH
 70
     0
  9
$DIMTOH
 70
     0
  9
$DIMSE1
 70
     0
  9
$DIMSE2
 70
     0
  9
$DIMTAD
 70
     1
  9
$DIMZIN
 70
     8
  9
$DIMBLK
  1

  9
$DIMASO
 70
     1
  9
$DIMSHO
 70
     1
  9
$DIMPOST
  1

  9
$DIMAPOST
  1

  9
$DIMALT
 70
     0
  9
$DIMALTD
 70
     3
  9
$DIMALTF
 40
0.03937
  9
$DIMLFAC
 40
1.0
  9
$DIMTOFL
 70
     1
  9
$DIMTVP
 40
0.0
  9
$DIMTIX
 70
     0
  9
$DIMSOXD
 70
     0
  9
$DIMSAH
 70
     0
  9
$DIMBLK1
  1

  9
$DIMBLK2
  1

  9
$DIMSTYLE
  2
ISO-25
  9
$DIMCLRD
 70
     0
  9
$DIMCLRE
 70
     0
  9
$DIMCLRT
 70
     0
  9
$DIMTFAC
 40
1.0
  9
$DIMGAP
 40
0.625
  9
$DIMJUST
 70
     0
  9
$DIMSD1
 70
     0
  9
$DIMSD2
 70
     0
  9
$DIMTOLJ
 70
     0
  9
$DIMTZIN
 70
     8
  9
$DIMALTZ
 70
     0
  9
$DIMALTTZ
 70
     0
  9
$DIMUPT
 70
     0
  9
$DIMDEC
 70
     2
  9
$DIMTDEC
 70
     2
  9
$DIMALTU
 70
     2
  9
$DIMALTTD
 70
     3
  9
$DIMTXSTY
  7
Standard
  9
$DIMAUNIT
 70
     0
  9
$DIMADEC
 70
     0
  9
$DIMALTRND
 40
0.0
  9
$DIMAZIN
 70
     0
  9
$DIMDSEP
 70
    44
  9
$DIMATFIT
 70
     3
  9
$DIMFRAC
 70
     0
  9
$DIMLDRBLK
  1

  9
$DIMLUNIT
 70
     2
  9
$DIMLWD
 70
    -2
  9
$DIMLWE
 70
    -2
  9
$DIMTMOVE
 70
     0
  9
$LUNITS
 70
     2
  9
$LUPREC
 70
     4
  9
$SKETCHINC
 40
1.0
  9
$FILLETRAD
 40
10.0
  9
$AUNITS
 70
     0
  9
$AUPREC
 70
     0
  9
$MENU
  1
.
  9
$ELEVATION
 40
0.0
  9
$PELEVATION
 40
0.0
  9
$THICKNESS
 40
0.0
  9
$LIMCHECK
 70
     0
  9
$CHAMFERA
 40
10.0
  9
$CHAMFERB
 40
10.0
  9
$CHAMFERC
 40
20.0
  9
$CHAMFERD
 40
0.0
  9
$SKPOLY
 70
     0
  9
$TDCREATE
 40
2454868.641522836
  9
$TDUCREATE
 40
2454868.599856169
  9
$TDUPDATE
 40
2454868.641522847
  9
$TDUUPDATE
 40
2454868.599856181
  9
$TDINDWG
 40
0.0000000116
  9
$TDUSRTIMER
 40
0.0000000116
  9
$USRTIMER
 70
     1
  9
$ANGBASE
 50
0.0
  9
$ANGDIR
 70
     0
  9
$PDMODE
 70
     0
  9
$PDSIZE
 40
0.0
  9
$PLINEWID
 40
0.0
  9
$SPLFRAME
 70
     0
  9
$SPLINETYPE
 70
     6
  9
$SPLINESEGS
 70
     8
  9
$HANDSEED
  5
6E4
  9
$SURFTAB1
 70
     6
  9
$SURFTAB2
 70
     6
  9
$SURFTYPE
 70
     6
  9
$SURFU
 70
     6
  9
$SURFV
 70
     6
  9
$UCSBASE
  2

  9
$UCSNAME
  2

  9
$UCSORG
 10
0.0
 20
0.0
 30
0.0
  9
$UCSXDIR
 10
1.0
 20
0.0
 30
0.0
  9
$UCSYDIR
 10
0.0
 20
1.0
 30
0.0
  9
$UCSORTHOREF
  2

  9
$UCSORTHOVIEW
 70
     0
  9
$UCSORGTOP
 10
0.0
 20
0.0
 30
0.0
  9
$UCSORGBOTTOM
 10
0.0
 20
0.0
 30
0.0
  9
$UCSORGLEFT
 10
0.0
 20
0.0
 30
0.0
  9
$UCSORGRIGHT
 10
0.0
 20
0.0
 30
0.0
  9
$UCSORGFRONT
 10
0.0
 20
0.0
 30
0.0
  9
$UCSORGBACK
 10
0.0
 20
0.0
 30
0.0
  9
$PUCSBASE
  2

  9
$PUCSNAME
  2

  9
$PUCSORG
 10
0.0
 20
0.0
 30
0.0
  9
$PUCSXDIR
 10
1.0
 20
0.0
 30
0.0
  9
$PUCSYDIR
 10
0.0
 20
1.0
 30
0.0
  9
$PUCSORTHOREF
  2

  9
$PUCSORTHOVIEW
 70
     0
  9
$PUCSORGTOP
 10
0.0
 20
0.0
 30
0.0
  9
$PUCSORGBOTTOM
 10
0.0
 20
0.0
 30
0.0
  9
$PUCSORGLEFT
 10
0.0
 20
0.0
 30
0.0
  9
$PUCSORGRIGHT
 10
0.0
 20
0.0
 30
0.0
  9
$PUCSORGFRONT
 10
0.0
 20
0.0
 30
0.0
  9
$PUCSORGBACK
 10
0.0
 20
0.0
 30
0.0
  9
$USERI1
 70
     0
  9
$USERI2
 70
     0
  9
$USERI3
 70
     0
  9
$USERI4
 70
     0
  9
$USERI5
 70
     0
  9
$USERR1
 40
0.0
  9
$USERR2
 40
0.0
  9
$USERR3
 40
0.0
  9
$USERR4
 40
0.0
  9
$USERR5
 40
0.0
  9
$WORLDVIEW
 70
     1
  9
$SHADEDGE
 70
     3
  9
$SHADEDIF
 70
    70
  9
$TILEMODE
 70
     1
  9
$MAXACTVP
 70
    64
  9
$PINSBASE
 10
0.0
 20
0.0
 30
0.0
  9
$PLIMCHECK
 70
     0
  9
$PEXTMIN
 10
0.0
 20
0.0
 30
0.0
  9
$PEXTMAX
 10
2100.0
 20
2970.0
 30
0.0
  9
$PLIMMIN
 10
0.0
 20
0.0
  9
$PLIMMAX
 10
2100.0
 20
2970.0
  9
$UNITMODE
 70
     0
  9
$VISRETAIN
 70
     1
  9
$PLINEGEN
 70
     0
  9
$PSLTSCALE
 70
     1
  9
$TREEDEPTH
 70
  3020
  9
$CMLSTYLE
  2
Standard
  9
$CMLJUST
 70
     0
  9
$CMLSCALE
 40
20.0
  9
$PROXYGRAPHICS
 70
     1
  9
$MEASUREMENT
 70
     1
  9
$CELWEIGHT
370
    -1
  9
$ENDCAPS
280
     0
  9
$JOINSTYLE
280
     0
  9
$LWDISPLAY
290
     0
  9
$INSUNITS
 70
     4
  9
$HYPERLINKBASE
  1

  9
$STYLESHEET
  1

  9
$XEDIT
290
     1
  9
$CEPSNTYPE
380
     0
  9
$PSTYLEMODE
290
     1
  9
$FINGERPRINTGUID
  2
{FAEB1C30-E019-11D5-929B-00C0DF256EC4}
  9
$VERSIONGUID
  2
{FAEB1C32-E019-11D5-929B-00C0DF256EC4}
  9
$EXTNAMES
290
     1
  9
$PSVPSCALE
 40
0.0
  9
$OLESTARTUP
290
     0
  0
ENDSEC
  0
SECTION
  2
CLASSES
  0
CLASS
  1
ACDBDICTIONARYWDFLT
  2
AcDbDictionaryWithDefault
  3
ObjectDBX Classes
 90
        0
280
     0
281
     0
  0
CLASS
  1
ACDBPLACEHOLDER
  2
AcDbPlaceHolder
  3
ObjectDBX Classes
 90
        0
280
     0
281
     0
  0
CLASS
  1
LAYOUT
  2
AcDbLayout
  3
ObjectDBX Classes
 90
        0
280
     0
281
     0
  0
ENDSEC
  0
SECTION
  2
TABLES
  0
TABLE
  2
VPORT
  5
8
330
0
100
AcDbSymbolTable
 70
     2
  0
VPORT
  5
29
330
8
100
AcDbSymbolTableRecord
100
AcDbViewportTableRecord
  2
*ACTIVE
 70
     0
 10
0.0
 20
0.0
 11
1.0
 21
1.0
 12
1050.0
 22
1485.0
 13
0.0
 23
0.0
 14
1.0
 24
1.0
 15
0.0
 25
0.0
 16
0.0
 26
0.0
 36
1.0
 17
0.0
 27
0.0
 37
0.0
 40
2970.0
 41
0.707071
 42
50.0
 43
0.0
 44
0.0
 50
0.0
 51
0.0
 71
    16
 72
   100
 73
     1
 74
     0
 75
     0
 76
     0
 77
     0
 78
     0
281
     0
 65
     0
110
0.0
120
0.0
130
0.0
111
1.0
121
0.0
131
0.0
112
0.0
122
1.0
132
0.0
 79
     0
146
0.0
  0
ENDTAB
  0
TABLE
  2
LTYPE
  5
5
330
0
100
AcDbSymbolTable
 70
     4
  0
LTYPE
  5
14
330
5
100
AcDbSymbolTableRecord
100
AcDbLinetypeTableRecord
  2
ByBlock
 70
     0
  3

 72
    65
 73
     0
 40
0.0
  0
LTYPE
  5
15
330
5
100
AcDbSymbolTableRecord
100
AcDbLinetypeTableRecord
  2
ByLayer
 70
     0
  3

 72
    65
 73
     0
 40
0.0
  0
LTYPE
  5
16
330
5
100
AcDbSymbolTableRecord
100
AcDbLinetypeTableRecord
  2
Continuous
 70
     0
  3
Solid line
 72
    65
 73
     0
 40
0.0
  0
LTYPE
  5
2A
330
5
100
AcDbSymbolTableRecord
100
AcDbLinetypeTableRecord
  2
DASHED
 70
     0
  3
__ __ __ __ __
 72
    65
 73
     2
 40
6.25
 49
5.0
 74
     4
 75
     0
340
0
 46
1.0
 50
0.0
 44
0.0
 45
0.0
 49
-1.25
 74
     4
 75
     0
340
0
 46
1.0
 50
0.0
 44
0.0
 45
0.0
  0
LTYPE
  5
102
330
5
100
AcDbSymbolTableRecord
100
AcDbLinetypeTableRecord
  2
DASHDOT
 70
     0
  3
__ . __ . __ . __ . __
 72
    65
 73
     4
 40
7.5
 49
5.0
 74
     4
 75
     0
340
0
 46
1.0
 50
0.0
 44
0.0
 45
0.0
 49
-1.25
 74
     4
 75
     0
340
0
 46
1.0
 50
0.0
 44
0.0
 45
0.0
 49
0.0
 74
     4
 75
     0
340
0
 46
1.0
 50
0.0
 44
0.0
 45
0.0
 49
-1.25
 74
     4
 75
     0
340
0
 46
1.0
 50
0.0
 44
0.0
 45
0.0
  0
LTYPE
  5
1F1
330
5
100
AcDbSymbolTableRecord
100
AcDbLinetypeTableRecord
  2
CENTER
 70
     0
  3
__ . __ . __ . __ . __
 72
    65
 73
     4
 40
7.5
 49
5.0
 74
     4
 75
     0
340
0
 46
1.0
 50
0.0
 44
0.0
 45
0.0
 49
-1.25
 74
     4
 75
     0
340
0
 46
1.0
 50
0.0
 44
0.0
 45
0.0
 49
0.0
 74
     4
 75
     0
340
0
 46
1.0
 50
0.0
 44
0.0
 45
0.0
 49
-1.25
 74
     4
 75
     0
340
0
 46
1.0
 50
0.0
 44
0.0
 45
0.0
  0
ENDTAB
  0
TABLE
  2
LAYER
  5
2
330
0
100
AcDbSymbolTable
 70
    18
  0
LAYER
  5
10
330
2
100
AcDbSymbolTableRecord
100
AcDbLayerTableRecord
  2
0
 70
     0
 62
     7
  6
Continuous
370
    -3
390
F
  0
LAYER
  5
2B
330
2
100
AcDbSymbolTableRecord
100
AcDbLayerTableRecord
  2
LC-INFO-1-10-mm-A4H-0
 70
     1
 62
     7
  6
ByBlock
370
    -3
390
F
  0
LAYER
  5
2C
330
2
100
AcDbSymbolTableRecord
100
AcDbLayerTableRecord
  2
LC-CUT-HIDDEN
 70
     0
 62
     7
  6
DASHED
370
    -3
390
F
  0
LAYER
  5
2D
330
2
100
AcDbSymbolTableRecord
100
AcDbLayerTableRecord
  2
LC-VIEWPORT
 70
     0
 62
     7
  6
ByBlock
370
    -3
390
F
  0
LAYER
  5
2E
330
2
100
AcDbSymbolTableRecord
100
AcDbLayerTableRecord
  2
LC-3D-HIDDEN
 70
     0
 62
     9
  6
DASHED
370
    -3
390
F
  0
LAYER
  5
33
330
2
100
AcDbSymbolTableRecord
100
AcDbLayerTableRecord
  2
LC-001-111-----0
 70
     0
 62
   253
  6
ByBlock
370
    -3
390
F
  0
LAYER
  5
9F
330
2
100
AcDbSymbolTableRecord
100
AcDbLayerTableRecord
  2
LC-002-002-----0
 70
     0
 62
     1
  6
ByBlock
370
    -3
390
F
  0
LAYER
  5
100
330
2
100
AcDbSymbolTableRecord
100
AcDbLayerTableRecord
  2
LC-003-230-ZVN-0
 70
     0
 62
     7
  6
ByBlock
370
    -3
390
F
  0
LAYER
  5
104
330
2
100
AcDbSymbolTableRecord
100
AcDbLayerTableRecord
  2
LC-004-099-----0
 70
     0
 62
     1
  6
ByBlock
370
    -3
390
F
  0
LAYER
  5
116
330
2
100
AcDbSymbolTableRecord
100
AcDbLayerTableRecord
  2
LC-005-002-RND-0
 70
     0
 62
     1
  6
ByBlock
370
    -3
390
F
  0
LAYER
  5
1F2
330
2
100
AcDbSymbolTableRecord
100
AcDbLayerTableRecord
  2
LC-006-006-MLN-0
 70
     0
 62
     2
  6
CENTER
370
    -3
390
F
  0
LAYER
  5
1F8
330
2
100
AcDbSymbolTableRecord
100
AcDbLayerTableRecord
  2
LC-007-003-MTH-0
 70
     0
 62
     2
  6
ByBlock
370
    -3
390
F
  0
LAYER
  5
1FB
330
2
100
AcDbSymbolTableRecord
100
AcDbLayerTableRecord
  2
LC-008-003-MTG-0
 70
     0
 62
     2
  6
ByBlock
370
    -3
390
F
  0
LAYER
  5
1FD
330
2
100
AcDbSymbolTableRecord
100
AcDbLayerTableRecord
  2
LC-009-003-----0
 70
     0
 62
     2
  6
ByBlock
370
    -3
390
F
  0
LAYER
  5
24F
330
2
100
AcDbSymbolTableRecord
100
AcDbLayerTableRecord
  2
LC-010-099-RND-0
 70
     0
 62
     1
  6
ByBlock
370
    -3
390
F
  0
LAYER
  5
2EB
330
2
100
AcDbSymbolTableRecord
100
AcDbLayerTableRecord
  2
LC-011-005-----0
 70
     0
 62
     2
  6
ByBlock
370
    -3
390
F
  0
LAYER
  5
35E
330
2
100
AcDbSymbolTableRecord
100
AcDbLayerTableRecord
  2
LC-012-004-----0
 70
     0
 62
     7
  6
ByBlock
370
    -3
390
F
  0
LAYER
  5
3CD
330
2
100
AcDbSymbolTableRecord
100
AcDbLayerTableRecord
  2
LC-013-100-D00-0
 70
     0
 62
     6
  6
ByBlock
370
    -3
390
F
  0
ENDTAB
  0
TABLE
  2
STYLE
  5
3
330
0
100
AcDbSymbolTable
 70
     2
  0
STYLE
  5
11
330
3
100
AcDbSymbolTableRecord
100
AcDbTextStyleTableRecord
  2
Standard
 70
     0
 40
0.0
 41
1.0
 50
0.0
 71
     0
 42
2.5
  3
txt
  4

  0
STYLE
  5
2F
330
3
100
AcDbSymbolTableRecord
100
AcDbTextStyleTableRecord
  2
LCTX0-400-0-0pDIN-Schrift
 70
     0
 40
0.0
 41
0.7
 50
0.0
 71
     0
 42
3.5
  3
TXT
  4

  0
ENDTAB
  0
TABLE
  2
VIEW
  5
6
330
0
100
AcDbSymbolTable
 70
     0
  0
ENDTAB
  0
TABLE
  2
UCS
  5
7
330
0
100
AcDbSymbolTable
 70
     0
  0
ENDTAB
  0
TABLE
  2
APPID
  5
9
330
0
100
AcDbSymbolTable
 70
     1
  0
APPID
  5
12
330
9
100
AcDbSymbolTableRecord
100
AcDbRegAppTableRecord
  2
ACAD
 70
     0
  0
ENDTAB
  0
TABLE
  2
DIMSTYLE
  5
A
330
0
100
AcDbSymbolTable
 70
     1
100
AcDbDimStyleTable
  0
DIMSTYLE
105
27
330
A
100
AcDbSymbolTableRecord
100
AcDbDimStyleTableRecord
  2
ISO-25
 70
     0
 41
2.5
 42
0.625
 43
3.75
 44
1.25
 73
     0
 74
     0
 77
     1
 78
     8
140
2.5
141
2.5
143
0.03937
147
0.625
171
     3
172
     1
271
     2
272
     2
274
     3
278
    44
283
     0
284
     8
340
11
  0
ENDTAB
  0
TABLE
  2
BLOCK_RECORD
  5
1
330
0
100
AcDbSymbolTable
 70
    37
  0
BLOCK_RECORD
  5
1F
330
1
100
AcDbSymbolTableRecord
100
AcDbBlockTableRecord
  2
*Model_Space
340
22
  0
BLOCK_RECORD
  5
1B
330
1
100
AcDbSymbolTableRecord
100
AcDbBlockTableRecord
  2
*Paper_Space
340
1E
  0
BLOCK_RECORD
  5
23
330
1
100
AcDbSymbolTableRecord
100
AcDbBlockTableRecord
  2
*Paper_Space0
340
26
  0
BLOCK_RECORD
  5
30
330
1
100
AcDbSymbolTableRecord
100
AcDbBlockTableRecord
  2
SYM1
340
0
102
{BLKREFS
331
101
102
}
  0
BLOCK_RECORD
  5
1F5
330
1
100
AcDbSymbolTableRecord
100
AcDbBlockTableRecord
  2
LCDIM1
340
0
102
{BLKREFS
331
211
102
}
  0
BLOCK_RECORD
  5
212
330
1
100
AcDbSymbolTableRecord
100
AcDbBlockTableRecord
  2
LCDIM2
340
0
102
{BLKREFS
331
22B
102
}
  0
BLOCK_RECORD
  5
271
330
1
100
AcDbSymbolTableRecord
100
AcDbBlockTableRecord
  2
LCDIM3
340
0
102
{BLKREFS
331
28A
102
}
  0
BLOCK_RECORD
  5
295
330
1
100
AcDbSymbolTableRecord
100
AcDbBlockTableRecord
  2
LCDIM4
340
0
102
{BLKREFS
331
2AE
102
}
  0
BLOCK_RECORD
  5
2AF
330
1
100
AcDbSymbolTableRecord
100
AcDbBlockTableRecord
  2
LCDIM5
340
0
102
{BLKREFS
331
2C8
102
}
  0
BLOCK_RECORD
  5
2C9
330
1
100
AcDbSymbolTableRecord
100
AcDbBlockTableRecord
  2
LCDIM6
340
0
102
{BLKREFS
331
2E2
102
}
  0
BLOCK_RECORD
  5
2E8
330
1
100
AcDbSymbolTableRecord
100
AcDbBlockTableRecord
  2
*X18
340
0
102
{BLKREFS
331
2EE
102
}
  0
BLOCK_RECORD
  5
2F6
330
1
100
AcDbSymbolTableRecord
100
AcDbBlockTableRecord
  2
LCDIM7
340
0
102
{BLKREFS
331
30F
102
}
  0
BLOCK_RECORD
  5
31B
330
1
100
AcDbSymbolTableRecord
100
AcDbBlockTableRecord
  2
LCDIM8
340
0
102
{BLKREFS
331
329
102
}
  0
BLOCK_RECORD
  5
32A
330
1
100
AcDbSymbolTableRecord
100
AcDbBlockTableRecord
  2
LCDIM9
340
0
102
{BLKREFS
331
343
102
}
  0
BLOCK_RECORD
  5
344
330
1
100
AcDbSymbolTableRecord
100
AcDbBlockTableRecord
  2
LCDIM10
340
0
102
{BLKREFS
331
35D
102
}
  0
BLOCK_RECORD
  5
365
330
1
100
AcDbSymbolTableRecord
100
AcDbBlockTableRecord
  2
*X213
340
0
102
{BLKREFS
331
36B
102
}
  0
BLOCK_RECORD
  5
382
330
1
100
AcDbSymbolTableRecord
100
AcDbBlockTableRecord
  2
POLY1
340
0
102
{BLKREFS
331
399
102
}
  0
BLOCK_RECORD
  5
39A
330
1
100
AcDbSymbolTableRecord
100
AcDbBlockTableRecord
  2
POLY2
340
0
102
{BLKREFS
331
3A3
102
}
  0
BLOCK_RECORD
  5
3A4
330
1
100
AcDbSymbolTableRecord
100
AcDbBlockTableRecord
  2
POLY3
340
0
102
{BLKREFS
331
3B5
102
}
  0
BLOCK_RECORD
  5
3CA
330
1
100
AcDbSymbolTableRecord
100
AcDbBlockTableRecord
  2
POLY4
340
0
102
{BLKREFS
331
3D4
102
}
  0
BLOCK_RECORD
  5
409
330
1
100
AcDbSymbolTableRecord
100
AcDbBlockTableRecord
  2
POLY5
340
0
102
{BLKREFS
331
418
102
}
  0
BLOCK_RECORD
  5
43D
330
1
100
AcDbSymbolTableRecord
100
AcDbBlockTableRecord
  2
POLY6
340
0
102
{BLKREFS
331
446
102
}
  0
BLOCK_RECORD
  5
447
330
1
100
AcDbSymbolTableRecord
100
AcDbBlockTableRecord
  2
POLY7
340
0
102
{BLKREFS
331
450
102
}
  0
BLOCK_RECORD
  5
451
330
1
100
AcDbSymbolTableRecord
100
AcDbBlockTableRecord
  2
POLY8
340
0
102
{BLKREFS
331
45E
102
}
  0
BLOCK_RECORD
  5
45F
330
1
100
AcDbSymbolTableRecord
100
AcDbBlockTableRecord
  2
POLY9
340
0
102
{BLKREFS
331
46C
102
}
  0
BLOCK_RECORD
  5
46D
330
1
100
AcDbSymbolTableRecord
100
AcDbBlockTableRecord
  2
POLY10
340
0
102
{BLKREFS
331
47C
102
}
  0
BLOCK_RECORD
  5
47D
330
1
100
AcDbSymbolTableRecord
100
AcDbBlockTableRecord
  2
POLY11
340
0
102
{BLKREFS
331
48A
102
}
  0
BLOCK_RECORD
  5
4B1
330
1
100
AcDbSymbolTableRecord
100
AcDbBlockTableRecord
  2
POLY12
340
0
102
{BLKREFS
331
4DA
102
}
  0
BLOCK_RECORD
  5
584
330
1
100
AcDbSymbolTableRecord
100
AcDbBlockTableRecord
  2
POLY13
340
0
102
{BLKREFS
331
593
102
}
  0
BLOCK_RECORD
  5
5B6
330
1
100
AcDbSymbolTableRecord
100
AcDbBlockTableRecord
  2
POLY14
340
0
102
{BLKREFS
331
5C5
102
}
  0
BLOCK_RECORD
  5
5F5
330
1
100
AcDbSymbolTableRecord
100
AcDbBlockTableRecord
  2
LCDIM11
340
0
102
{BLKREFS
331
60E
102
}
  0
BLOCK_RECORD
  5
60F
330
1
100
AcDbSymbolTableRecord
100
AcDbBlockTableRecord
  2
LCDIM12
340
0
102
{BLKREFS
331
628
102
}
  0
BLOCK_RECORD
  5
629
330
1
100
AcDbSymbolTableRecord
100
AcDbBlockTableRecord
  2
LCDIM13
340
0
102
{BLKREFS
331
642
102
}
  0
BLOCK_RECORD
  5
643
330
1
100
AcDbSymbolTableRecord
100
AcDbBlockTableRecord
  2
LCDIM14
340
0
102
{BLKREFS
331
65C
102
}
  0
BLOCK_RECORD
  5
65D
330
1
100
AcDbSymbolTableRecord
100
AcDbBlockTableRecord
  2
LCDIM15
340
0
102
{BLKREFS
331
676
102
}
  0
BLOCK_RECORD
  5
677
330
1
100
AcDbSymbolTableRecord
100
AcDbBlockTableRecord
  2
*X333
340
0
102
{BLKREFS
331
683
102
}
  0
BLOCK_RECORD
  5
68A
330
1
100
AcDbSymbolTableRecord
100
AcDbBlockTableRecord
  2
LCDIM16
340
0
102
{BLKREFS
331
6A3
102
}
  0
BLOCK_RECORD
  5
6A4
330
1
100
AcDbSymbolTableRecord
100
AcDbBlockTableRecord
  2
LCDIM17
340
0
102
{BLKREFS
331
6BD
102
}
  0
BLOCK_RECORD
  5
6BE
330
1
100
AcDbSymbolTableRecord
100
AcDbBlockTableRecord
  2
LCDIM18
340
0
102
{BLKREFS
331
6CC
102
}
  0
ENDTAB
  0
ENDSEC
  0
SECTION
  2
BLOCKS
  0
BLOCK
  5
20
330
1F
100
AcDbEntity
  8
0
100
AcDbBlockBegin
  2
*Model_Space
 70
     0
 71
     0
 10
0.0
 20
0.0
 30
0.0
  3
*Model_Space
  1

  0
ENDBLK
  5
21
330
1F
100
AcDbEntity
  8
0
100
AcDbBlockEnd
  0
BLOCK
  5
1C
330
1B
100
AcDbEntity
 67
     1
  8
0
100
AcDbBlockBegin
  2
*Paper_Space
 70
     0
 71
     0
 10
0.0
 20
0.0
 30
0.0
  3
*Paper_Space
  1

  0
ENDBLK
  5
1D
330
1B
100
AcDbEntity
 67
     1
  8
0
100
AcDbBlockEnd
  0
BLOCK
  5
24
330
23
100
AcDbEntity
  8
0
100
AcDbBlockBegin
  2
*Paper_Space0
 70
     0
 71
     0
 10
0.0
 20
0.0
 30
0.0
  3
*Paper_Space0
  1

  0
ENDBLK
  5
25
330
23
100
AcDbEntity
  8
0
100
AcDbBlockEnd
  0
BLOCK
  5
31
330
30
100
AcDbEntity
  8
0
100
AcDbBlockBegin
  2
SYM1
 70
     0
 71
     0
 10
0.0
 20
0.0
 30
0.0
  3
SYM1
  1

  4
SYM1
  0
LINE
  5
34
330
30
100
AcDbEntity
  8
LC-001-111-----0
 62
   253
370
    50
100
AcDbLine
 10
2050.0
 20
50.0
 30
0.0
 11
2050.0
 21
2920.0
 31
0.0
  0
LINE
  5
35
330
30
100
AcDbEntity
  8
LC-001-111-----0
 62
   253
370
    25
100
AcDbLine
 10
178.0
 20
220.0
 30
0.0
 11
724.0
 21
220.0
 31
0.0
  0
LINE
  5
36
330
30
100
AcDbEntity
  8
LC-001-111-----0
 62
   253
370
    35
100
AcDbLine
 10
724.0
 20
220.0
 30
0.0
 11
2050.0
 21
220.0
 31
0.0
  0
LINE
  5
37
330
30
100
AcDbEntity
  8
LC-001-111-----0
 62
   253
370
    50
100
AcDbLine
 10
178.0
 20
602.5
 30
0.0
 11
2050.0
 21
602.5
 31
0.0
  0
LINE
  5
38
330
30
100
AcDbEntity
  8
LC-001-111-----0
 62
   253
370
    25
100
AcDbLine
 10
178.0
 20
92.5
 30
0.0
 11
2050.0
 21
92.5
 31
0.0
  0
LINE
  5
39
330
30
100
AcDbEntity
  8
LC-001-111-----0
 62
   253
370
    25
100
AcDbLine
 10
178.0
 20
135.0
 30
0.0
 11
724.0
 21
135.0
 31
0.0
  0
LINE
  5
3A
330
30
100
AcDbEntity
  8
LC-001-111-----0
 62
   253
370
    25
100
AcDbLine
 10
178.0
 20
177.5
 30
0.0
 11
724.0
 21
177.5
 31
0.0
  0
LINE
  5
3B
330
30
100
AcDbEntity
  8
LC-001-111-----0
 62
   253
370
    25
100
AcDbLine
 10
178.0
 20
262.5
 30
0.0
 11
1166.0
 21
262.5
 31
0.0
  0
LINE
  5
3C
330
30
100
AcDbEntity
  8
LC-001-111-----0
 62
   253
370
    25
100
AcDbLine
 10
178.0
 20
305.0
 30
0.0
 11
1166.0
 21
305.0
 31
0.0
  0
LINE
  5
3D
330
30
100
AcDbEntity
  8
LC-001-111-----0
 62
   253
370
    25
100
AcDbLine
 10
178.0
 20
347.5
 30
0.0
 11
1166.0
 21
347.5
 31
0.0
  0
LINE
  5
3E
330
30
100
AcDbEntity
  8
LC-001-111-----0
 62
   253
370
    25
100
AcDbLine
 10
178.0
 20
390.0
 30
0.0
 11
1166.0
 21
390.0
 31
0.0
  0
LINE
  5
3F
330
30
100
AcDbEntity
  8
LC-001-111-----0
 62
   253
370
    35
100
AcDbLine
 10
178.0
 20
432.5
 30
0.0
 11
2050.0
 21
432.5
 31
0.0
  0
LINE
  5
40
330
30
100
AcDbEntity
  8
LC-001-111-----0
 62
   253
370
    25
100
AcDbLine
 10
828.0
 20
262.5
 30
0.0
 11
828.0
 21
432.5
 31
0.0
  0
LINE
  5
41
330
30
100
AcDbEntity
  8
LC-001-111-----0
 62
   253
370
    35
100
AcDbLine
 10
1920.0
 20
92.5
 30
0.0
 11
1920.0
 21
220.0
 31
0.0
  0
LINE
  5
42
330
30
100
AcDbEntity
  8
LC-001-111-----0
 62
   253
370
    25
100
AcDbLine
 10
1166.0
 20
538.75
 30
0.0
 11
2050.0
 21
538.75
 31
0.0
  0
LINE
  5
43
330
30
100
AcDbEntity
  8
LC-001-111-----0
 62
   253
370
    25
100
AcDbLine
 10
256.0
 20
50.0
 30
0.0
 11
256.0
 21
432.5
 31
0.0
  0
LINE
  5
44
330
30
100
AcDbEntity
  8
LC-001-111-----0
 62
   253
370
    25
100
AcDbLine
 10
516.0
 20
50.0
 30
0.0
 11
516.0
 21
432.5
 31
0.0
  0
LINE
  5
45
330
30
100
AcDbEntity
  8
LC-001-111-----0
 62
   253
370
    25
100
AcDbLine
 10
646.0
 20
50.0
 30
0.0
 11
646.0
 21
432.5
 31
0.0
  0
LINE
  5
46
330
30
100
AcDbEntity
  8
LC-001-111-----0
 62
   253
370
    35
100
AcDbLine
 10
724.0
 20
50.0
 30
0.0
 11
724.0
 21
602.5
 31
0.0
  0
LINE
  5
47
330
30
100
AcDbEntity
  8
LC-001-111-----0
 62
   253
370
    35
100
AcDbLine
 10
1166.0
 20
50.0
 30
0.0
 11
1166.0
 21
602.5
 31
0.0
  0
LINE
  5
48
330
30
100
AcDbEntity
  8
LC-001-111-----0
 62
   253
370
    25
100
AcDbLine
 10
1920.0
 20
135.0
 30
0.0
 11
2050.0
 21
135.0
 31
0.0
  0
LINE
  5
49
330
30
100
AcDbEntity
  8
LC-001-111-----0
 62
   253
370
    25
100
AcDbLine
 10
984.0
 20
220.0
 30
0.0
 11
984.0
 21
602.5
 31
0.0
  0
LINE
  5
4A
330
30
100
AcDbEntity
  8
LC-001-111-----0
 62
   253
370
    25
100
AcDbLine
 10
1686.0
 20
538.75
 30
0.0
 11
1686.0
 21
602.5
 31
0.0
  0
LINE
  5
4B
330
30
100
AcDbEntity
  8
LC-001-111-----0
 62
   253
370
    25
100
AcDbLine
 10
1608.0
 20
50.0
 30
0.0
 11
1608.0
 21
92.5
 31
0.0
  0
LINE
  5
4C
330
30
100
AcDbEntity
  8
LC-001-111-----0
 62
   253
370
    50
100
AcDbLine
 10
178.0
 20
50.0
 30
0.0
 11
178.0
 21
2920.0
 31
0.0
  0
LINE
  5
4D
330
30
100
AcDbEntity
  8
LC-001-111-----0
 62
   253
370
    50
100
AcDbLine
 10
178.0
 20
2920.0
 30
0.0
 11
2050.0
 21
2920.0
 31
0.0
  0
TEXT
  5
4E
330
30
100
AcDbEntity
  8
LC-001-111-----0
 62
     7
370
    25
100
AcDbText
 10
1471.410714
 20
558.125
 30
0.0
 40
25.0
  1
1:10
 41
0.75
  7
LCTX0-400-0-0pDIN-Schrift
 72
     1
 11
1504.0
 21
558.125
 31
0.0
100
AcDbText
  0
TEXT
  5
4F
330
30
100
AcDbEntity
  8
LC-001-111-----0
 62
     7
370
    25
100
AcDbText
 10
742.964286
 20
398.75
 30
0.0
 40
25.0
  1
2001
 41
0.75
  7
LCTX0-400-0-0pDIN-Schrift
 72
     1
 11
776.0
 21
398.75
 31
0.0
100
AcDbText
  0
TEXT
  5
50
330
30
100
AcDbEntity
  8
LC-001-111-----0
 62
     7
370
    25
100
AcDbText
 10
861.803571
 20
356.25
 30
0.0
 40
25.0
  1
02.10.
 41
0.75
  7
LCTX0-400-0-0pDIN-Schrift
 72
     1
 11
906.0
 21
356.25
 31
0.0
100
AcDbText
  0
TEXT
  5
51
330
30
100
AcDbEntity
  8
LC-001-111-----0
 62
     7
370
    25
100
AcDbText
 10
1056.696429
 20
356.25
 30
0.0
 40
25.0
  1
HÄ
 41
0.75
  7
LCTX0-400-0-0pDIN-Schrift
 72
     1
 11
1075.0
 21
356.25
 31
0.0
100
AcDbText
  0
TEXT
  5
52
330
30
100
AcDbEntity
  8
LC-001-111-----0
 62
   253
370
    20
100
AcDbText
 10
1183.923077
 20
560.625
 30
0.0
 40
20.0
  1
Maßstab
 41
0.75
  7
LCTX0-400-0-0pDIN-Schrift
100
AcDbText
  0
TEXT
  5
53
330
30
100
AcDbEntity
  8
LC-001-111-----0
 62
   253
370
    20
100
AcDbText
 10
869.928571
 20
401.25
 30
0.0
 40
20.0
  1
Datum
 41
0.75
  7
LCTX0-400-0-0pDIN-Schrift
 72
     1
 11
906.0
 21
401.25
 31
0.0
100
AcDbText
  0
TEXT
  5
54
330
30
100
AcDbEntity
  8
LC-001-111-----0
 62
   253
370
    20
100
AcDbText
 10
1042.857143
 20
401.25
 30
0.0
 40
20.0
  1
Name
 41
0.75
  7
LCTX0-400-0-0pDIN-Schrift
 72
     1
 11
1075.0
 21
401.25
 31
0.0
100
AcDbText
  0
TEXT
  5
55
330
30
100
AcDbEntity
  8
LC-001-111-----0
 62
   253
370
    20
100
AcDbText
 10
741.923077
 20
358.75
 30
0.0
 40
20.0
  1
Bearb.
 41
0.75
  7
LCTX0-400-0-0pDIN-Schrift
100
AcDbText
  0
TEXT
  5
56
330
30
100
AcDbEntity
  8
LC-001-111-----0
 62
   253
370
    20
100
AcDbText
 10
741.923077
 20
316.25
 30
0.0
 40
20.0
  1
Gepr.
 41
0.75
  7
LCTX0-400-0-0pDIN-Schrift
100
AcDbText
  0
TEXT
  5
57
330
30
100
AcDbEntity
  8
LC-001-111-----0
 62
   253
370
    20
100
AcDbText
 10
741.923077
 20
273.75
 30
0.0
 40
20.0
  1
Norm
 41
0.75
  7
LCTX0-400-0-0pDIN-Schrift
100
AcDbText
  0
TEXT
  5
58
330
30
100
AcDbEntity
  8
LC-001-111-----0
 62
   253
370
    20
100
AcDbText
 10
1937.923077
 20
188.75
 30
0.0
 40
20.0
  1
Blatt
 41
0.75
  7
LCTX0-400-0-0pDIN-Schrift
100
AcDbText
  0
TEXT
  5
59
330
30
100
AcDbEntity
  8
LC-001-111-----0
 62
   253
370
    20
100
AcDbText
 10
2012.076923
 20
103.75
 30
0.0
 40
20.0
  1
Bl.
 41
0.75
  7
LCTX0-400-0-0pDIN-Schrift
 72
     2
 11
2037.076923
 21
103.75
 31
0.0
100
AcDbText
  0
TEXT
  5
5A
330
30
100
AcDbEntity
  8
LC-001-111-----0
 62
   253
370
    20
100
AcDbText
 10
200.0
 20
61.25
 30
0.0
 40
20.0
  1
Zust.
 41
0.6
  7
LCTX0-400-0-0pDIN-Schrift
 72
     1
 11
222.0
 21
61.25
 31
0.0
100
AcDbText
  0
TEXT
  5
5B
330
30
100
AcDbEntity
  8
LC-001-111-----0
 62
   253
370
    20
100
AcDbText
 10
334.928571
 20
61.25
 30
0.0
 40
20.0
  1
Änderung
 41
0.75
  7
LCTX0-400-0-0pDIN-Schrift
 72
     1
 11
386.0
 21
61.25
 31
0.0
100
AcDbText
  0
TEXT
  5
5C
330
30
100
AcDbEntity
  8
LC-001-111-----0
 62
   253
370
    20
100
AcDbText
 10
544.928571
 20
61.25
 30
0.0
 40
20.0
  1
Datum
 41
0.75
  7
LCTX0-400-0-0pDIN-Schrift
 72
     1
 11
581.0
 21
61.25
 31
0.0
100
AcDbText
  0
TEXT
  5
5D
330
30
100
AcDbEntity
  8
LC-001-111-----0
 62
   253
370
    20
100
AcDbText
 10
652.857143
 20
61.25
 30
0.0
 40
20.0
  1
Name
 41
0.75
  7
LCTX0-400-0-0pDIN-Schrift
 72
     1
 11
685.0
 21
61.25
 31
0.0
100
AcDbText
  0
TEXT
  5
5E
330
30
100
AcDbEntity
  8
LC-001-111-----0
 62
     7
370
    50
100
AcDbText
 10
1318.714286
 20
343.75
 30
0.0
 40
50.0
  1
Lithos N-200 small
 41
0.75
  7
LCTX0-400-0-0pDIN-Schrift
 72
     1
 11
1608.0
 21
343.75
 31
0.0
100
AcDbText
  0
ARC
  5
5F
330
30
100
AcDbEntity
  8
LC-001-111-----0
 62
   253
370
    25
100
AcDbCircle
 10
758.903191
 20
174.567744
 30
0.0
 40
20.81533311668208
100
AcDbArc
 50
62.408264
 51
94.48185
  0
LINE
  5
60
330
30
100
AcDbEntity
  8
LC-001-111-----0
 62
   253
370
    50
100
AcDbLine
 10
178.0
 20
50.0
 30
0.0
 11
2050.0
 21
50.0
 31
0.0
  0
LINE
  5
61
330
30
100
AcDbEntity
  8
LC-001-111-----0
 62
   253
370
    25
100
AcDbLine
 10
50.0
 20
1485.0
 30
0.0
 11
0.0
 21
1485.0
 31
0.0
  0
LINE
  5
62
330
30
100
AcDbEntity
  8
LC-001-111-----0
 62
   253
370
    25
100
AcDbLine
 10
1063.835603
 20
195.169147
 30
0.0
 11
1063.835603
 21
157.149147
 31
0.0
  0
LINE
  5
63
330
30
100
AcDbEntity
  8
LC-001-111-----0
 62
   253
370
    25
100
AcDbLine
 10
2100.0
 20
2970.0
 30
0.0
 11
2100.0
 21
0.0
 31
0.0
  0
LINE
  5
64
330
30
100
AcDbEntity
  8
LC-001-111-----0
 62
   253
370
    25
100
AcDbLine
 10
2100.0
 20
0.0
 30
0.0
 11
0.0
 21
0.0
 31
0.0
  0
LINE
  5
65
330
30
100
AcDbEntity
  8
LC-001-111-----0
 62
   253
370
    25
100
AcDbLine
 10
0.0
 20
0.0
 30
0.0
 11
0.0
 21
2970.0
 31
0.0
  0
LINE
  5
66
330
30
100
AcDbEntity
  8
LC-001-111-----0
 62
   253
370
    25
100
AcDbLine
 10
2100.0
 20
2970.0
 30
0.0
 11
0.0
 21
2970.0
 31
0.0
  0
TEXT
  5
67
330
30
100
AcDbEntity
  8
LC-001-111-----0
 62
   253
370
    20
100
AcDbText
 10
763.0
 20
111.159147
 30
0.0
 40
20.0
  1
Hofbauerstraße1 · D-94209 REGEN
 41
0.65
  7
LCTX0-400-0-0pDIN-Schrift
 72
     1
 11
945.0
 21
111.159147
 31
0.0
100
AcDbText
  0
ARC
  5
68
330
30
100
AcDbEntity
  8
LC-001-111-----0
 62
   253
370
    25
100
AcDbCircle
 10
758.032826
 20
185.671748
 30
0.0
 40
9.677270814709853
100
AcDbArc
 50
94.48185
 51
252.731329
  0
ARC
  5
69
330
30
100
AcDbEntity
  8
LC-001-111-----0
 62
   253
370
    25
100
AcDbCircle
 10
823.845603
 20
176.159147
 30
0.0
 40
19.01000000000008
100
AcDbArc
 50
74.719456
 51
285.280544
  0
LINE
  5
6A
330
30
100
AcDbEntity
  8
LC-001-111-----0
 62
   253
370
    25
100
AcDbLine
 10
828.855603
 20
157.821208
 30
0.0
 11
828.855603
 21
163.204148
 31
0.0
  0
ARC
  5
6B
330
30
100
AcDbEntity
  8
LC-001-111-----0
 62
   253
370
    25
100
AcDbCircle
 10
823.845603
 20
176.159147
 30
0.0
 40
13.88999999999995
100
AcDbArc
 50
68.857352
 51
291.142648
  0
ARC
  5
6C
330
30
100
AcDbEntity
  8
LC-001-111-----0
 62
   253
370
    25
100
AcDbCircle
 10
823.845603
 20
176.159147
 30
0.0
 40
12.39000000000002
100
AcDbArc
 50
58.303227
 51
301.696773
  0
ARC
  5
6D
330
30
100
AcDbEntity
  8
LC-001-111-----0
 62
   253
370
    25
100
AcDbCircle
 10
1019.845603
 20
176.159147
 30
0.0
 40
19.01000000000008
100
AcDbArc
 50
74.719456
 51
285.280544
  0
LINE
  5
6E
330
30
100
AcDbEntity
  8
LC-001-111-----0
 62
   253
370
    25
100
AcDbLine
 10
830.355603
 20
165.617231
 30
0.0
 11
830.355603
 21
156.709726
 31
0.0
  0
LINE
  5
6F
330
30
100
AcDbEntity
  8
LC-001-111-----0
 62
   253
370
    25
100
AcDbLine
 10
755.160101
 20
176.430697
 30
0.0
 11
762.683613
 21
174.091896
 31
0.0
  0
ARC
  5
70
330
30
100
AcDbEntity
  8
LC-001-111-----0
 62
   253
370
    25
100
AcDbCircle
 10
823.845603
 20
176.159147
 30
0.0
 40
20.51000000000012
100
AcDbArc
 50
71.493868
 51
288.506132
  0
LINE
  5
71
330
30
100
AcDbEntity
  8
LC-001-111-----0
 62
   253
370
    25
100
AcDbLine
 10
1024.855603
 20
157.821208
 30
0.0
 11
1024.855603
 21
163.204148
 31
0.0
  0
LINE
  5
72
330
30
100
AcDbEntity
  8
LC-001-111-----0
 62
   253
370
    25
100
AcDbLine
 10
830.355603
 20
195.608569
 30
0.0
 11
830.355603
 21
186.701063
 31
0.0
  0
ARC
  5
73
330
30
100
AcDbEntity
  8
LC-001-111-----0
 62
   253
370
    25
100
AcDbCircle
 10
1019.845603
 20
176.159147
 30
0.0
 40
13.88999999999995
100
AcDbArc
 50
68.857352
 51
291.142648
  0
LINE
  5
74
330
30
100
AcDbEntity
  8
LC-001-111-----0
 62
   253
370
    25
100
AcDbLine
 10
862.835603
 20
155.649147
 30
0.0
 11
862.835603
 21
196.669147
 31
0.0
  0
LINE
  5
75
330
30
100
AcDbEntity
  8
LC-001-111-----0
 62
   253
370
    25
100
AcDbLine
 10
862.835603
 20
196.669147
 30
0.0
 11
872.355603
 21
196.669147
 31
0.0
  0
LINE
  5
76
330
30
100
AcDbEntity
  8
LC-001-111-----0
 62
   253
370
    25
100
AcDbLine
 10
872.355603
 20
196.669147
 30
0.0
 11
872.355603
 21
179.519147
 31
0.0
  0
LINE
  5
77
330
30
100
AcDbEntity
  8
LC-001-111-----0
 62
   253
370
    25
100
AcDbLine
 10
872.355603
 20
179.519147
 30
0.0
 11
887.335603
 21
179.519147
 31
0.0
  0
LINE
  5
78
330
30
100
AcDbEntity
  8
LC-001-111-----0
 62
   253
370
    25
100
AcDbLine
 10
887.335603
 20
179.519147
 30
0.0
 11
887.335603
 21
196.669147
 31
0.0
  0
LINE
  5
79
330
30
100
AcDbEntity
  8
LC-001-111-----0
 62
   253
370
    25
100
AcDbLine
 10
887.335603
 20
196.669147
 30
0.0
 11
896.855603
 21
196.669147
 31
0.0
  0
LINE
  5
7A
330
30
100
AcDbEntity
  8
LC-001-111-----0
 62
   253
370
    25
100
AcDbLine
 10
896.855603
 20
196.669147
 30
0.0
 11
896.855603
 21
155.649147
 31
0.0
  0
LINE
  5
7B
330
30
100
AcDbEntity
  8
LC-001-111-----0
 62
   253
370
    25
100
AcDbLine
 10
896.855603
 20
155.649147
 30
0.0
 11
887.335603
 21
155.649147
 31
0.0
  0
LINE
  5
7C
330
30
100
AcDbEntity
  8
LC-001-111-----0
 62
   253
370
    25
100
AcDbLine
 10
887.335603
 20
155.649147
 30
0.0
 11
887.335603
 21
172.799147
 31
0.0
  0
LINE
  5
7D
330
30
100
AcDbEntity
  8
LC-001-111-----0
 62
   253
370
    25
100
AcDbLine
 10
887.335603
 20
172.799147
 30
0.0
 11
872.355603
 21
172.799147
 31
0.0
  0
LINE
  5
7E
330
30
100
AcDbEntity
  8
LC-001-111-----0
 62
   253
370
    25
100
AcDbLine
 10
872.355603
 20
172.799147
 30
0.0
 11
872.355603
 21
155.649147
 31
0.0
  0
LINE
  5
7F
330
30
100
AcDbEntity
  8
LC-001-111-----0
 62
   253
370
    25
100
AcDbLine
 10
872.355603
 20
155.649147
 30
0.0
 11
862.835603
 21
155.649147
 31
0.0
  0
CIRCLE
  5
80
330
30
100
AcDbEntity
  8
LC-001-111-----0
 62
   253
370
    25
100
AcDbCircle
 10
946.345603
 20
176.159147
 30
0.0
 40
12.39000000000044
  0
CIRCLE
  5
81
330
30
100
AcDbEntity
  8
LC-001-111-----0
 62
   253
370
    25
100
AcDbCircle
 10
946.345603
 20
176.159147
 30
0.0
 40
20.51000000000049
  0
ARC
  5
82
330
30
100
AcDbEntity
  8
LC-001-111-----0
 62
   253
370
    25
100
AcDbCircle
 10
1019.845603
 20
176.159147
 30
0.0
 40
12.39000000000002
100
AcDbArc
 50
58.303227
 51
301.696773
  0
LINE
  5
83
330
30
100
AcDbEntity
  8
LC-001-111-----0
 62
   253
370
    25
100
AcDbLine
 10
864.335603
 20
195.169147
 30
0.0
 11
864.335603
 21
157.149147
 31
0.0
  0
LINE
  5
84
330
30
100
AcDbEntity
  8
LC-001-111-----0
 62
   253
370
    25
100
AcDbLine
 10
1026.355603
 20
165.617231
 30
0.0
 11
1026.355603
 21
156.709726
 31
0.0
  0
LINE
  5
85
330
30
100
AcDbEntity
  8
LC-001-111-----0
 62
   253
370
    25
100
AcDbLine
 10
864.335603
 20
157.149147
 30
0.0
 11
870.855603
 21
157.149147
 31
0.0
  0
LINE
  5
86
330
30
100
AcDbEntity
  8
LC-001-111-----0
 62
   253
370
    25
100
AcDbLine
 10
870.855603
 20
157.149147
 30
0.0
 11
870.855603
 21
174.299147
 31
0.0
  0
LINE
  5
87
330
30
100
AcDbEntity
  8
LC-001-111-----0
 62
   253
370
    25
100
AcDbLine
 10
870.855603
 20
174.299147
 30
0.0
 11
888.835603
 21
174.299147
 31
0.0
  0
LINE
  5
88
330
30
100
AcDbEntity
  8
LC-001-111-----0
 62
   253
370
    25
100
AcDbLine
 10
888.835603
 20
174.299147
 30
0.0
 11
888.835603
 21
157.149147
 31
0.0
  0
LINE
  5
89
330
30
100
AcDbEntity
  8
LC-001-111-----0
 62
   253
370
    25
100
AcDbLine
 10
888.835603
 20
157.149147
 30
0.0
 11
895.355603
 21
157.149147
 31
0.0
  0
LINE
  5
8A
330
30
100
AcDbEntity
  8
LC-001-111-----0
 62
   253
370
    25
100
AcDbLine
 10
895.355603
 20
157.149147
 30
0.0
 11
895.355603
 21
195.169147
 31
0.0
  0
LINE
  5
8B
330
30
100
AcDbEntity
  8
LC-001-111-----0
 62
   253
370
    25
100
AcDbLine
 10
895.355603
 20
195.169147
 30
0.0
 11
888.835603
 21
195.169147
 31
0.0
  0
LINE
  5
8C
330
30
100
AcDbEntity
  8
LC-001-111-----0
 62
   253
370
    25
100
AcDbLine
 10
888.835603
 20
195.169147
 30
0.0
 11
888.835603
 21
178.019147
 31
0.0
  0
LINE
  5
8D
330
30
100
AcDbEntity
  8
LC-001-111-----0
 62
   253
370
    25
100
AcDbLine
 10
888.835603
 20
178.019147
 30
0.0
 11
870.855603
 21
178.019147
 31
0.0
  0
LINE
  5
8E
330
30
100
AcDbEntity
  8
LC-001-111-----0
 62
   253
370
    25
100
AcDbLine
 10
870.855603
 20
178.019147
 30
0.0
 11
870.855603
 21
195.169147
 31
0.0
  0
CIRCLE
  5
8F
330
30
100
AcDbEntity
  8
LC-001-111-----0
 62
   253
370
    25
100
AcDbCircle
 10
946.345603
 20
176.159147
 30
0.0
 40
19.01000000000055
  0
ARC
  5
90
330
30
100
AcDbEntity
  8
LC-001-111-----0
 62
   253
370
    25
100
AcDbCircle
 10
760.836588
 20
168.15034
 30
0.0
 40
6.222024781007809
100
AcDbArc
 50
268.246912
 51
72.731329
  0
ARC
  5
91
330
30
100
AcDbEntity
  8
LC-001-111-----0
 62
   253
370
    25
100
AcDbCircle
 10
761.412387
 20
186.963179
 30
0.0
 40
25.04367341134793
100
AcDbArc
 50
239.19233
 51
268.246912
  0
LINE
  5
92
330
30
100
AcDbEntity
  8
LC-001-111-----0
 62
   253
370
    25
100
AcDbLine
 10
748.586073
 20
165.453385
 30
0.0
 11
748.586073
 21
160.350534
 31
0.0
  0
ARC
  5
93
330
30
100
AcDbEntity
  8
LC-001-111-----0
 62
   253
370
    25
100
AcDbCircle
 10
760.81067
 20
180.45076
 30
0.0
 40
23.52572762426598
100
AcDbArc
 50
238.692783
 51
274.343327
  0
ARC
  5
94
330
30
100
AcDbEntity
  8
LC-001-111-----0
 62
   253
370
    25
100
AcDbCircle
 10
1019.845603
 20
176.159147
 30
0.0
 40
20.51000000000012
100
AcDbArc
 50
71.493868
 51
288.506132
  0
ARC
  5
95
330
30
100
AcDbEntity
  8
LC-001-111-----0
 62
   253
370
    25
100
AcDbCircle
 10
761.779647
 20
167.692822
 30
0.0
 40
10.73104525444839
100
AcDbArc
 50
274.343327
 51
74.255463
  0
LINE
  5
96
330
30
100
AcDbEntity
  8
LC-001-111-----0
 62
   253
370
    25
100
AcDbLine
 10
1026.355603
 20
195.608569
 30
0.0
 11
1026.355603
 21
186.701063
 31
0.0
  0
LINE
  5
97
330
30
100
AcDbEntity
  8
LC-001-111-----0
 62
   253
370
    25
100
AcDbLine
 10
764.691502
 20
178.02125
 30
0.0
 11
757.135251
 21
180.151556
 31
0.0
  0
LINE
  5
98
330
30
100
AcDbEntity
  8
LC-001-111-----0
 62
   253
370
    25
100
AcDbLine
 10
1024.855603
 20
189.114146
 30
0.0
 11
1024.855603
 21
194.497086
 31
0.0
  0
ARC
  5
99
330
30
100
AcDbEntity
  8
LC-001-111-----0
 62
   253
370
    25
100
AcDbCircle
 10
758.632108
 20
185.460948
 30
0.0
 40
5.51636013010035
100
AcDbArc
 50
90.951212
 51
254.255463
  0
ARC
  5
9A
330
30
100
AcDbEntity
  8
LC-001-111-----0
 62
   253
370
    25
100
AcDbCircle
 10
758.906662
 20
168.924866
 30
0.0
 40
22.05472179307849
100
AcDbArc
 50
64.088485
 51
90.951212
  0
LINE
  5
9B
330
30
100
AcDbEntity
  8
LC-001-111-----0
 62
   253
370
    25
100
AcDbLine
 10
768.544191
 20
188.762426
 30
0.0
 11
768.544191
 21
193.015758
 31
0.0
  0
LINE
  5
9C
330
30
100
AcDbEntity
  8
LC-001-111-----0
 62
   253
370
    25
100
AcDbLine
 10
1071.855603
 20
177.513832
 30
0.0
 11
1087.818366
 21
196.669147
 31
0.0
  0
LINE
  5
9D
330
30
100
AcDbEntity
  8
LC-001-111-----0
 62
   253
370
    25
100
AcDbLine
 10
1087.818366
 20
196.669147
 30
0.0
 11
1099.299433
 21
196.669147
 31
0.0
  0
LINE
  5
9E
330
30
100
AcDbEntity
  8
LC-001-111-----0
 62
   253
370
    25
100
AcDbLine
 10
1099.299433
 20
196.669147
 30
0.0
 11
1082.207766
 21
176.159147
 31
0.0
  0
LINE
  5
A0
330
30
100
AcDbEntity
  8
LC-002-002-----0
 62
     1
370
    25
100
AcDbLine
 10
1143.855603
 20
159.963432
 30
0.0
 11
1143.855603
 21
192.354862
 31
0.0
  0
LINE
  5
A1
330
30
100
AcDbEntity
  8
LC-002-002-----0
 62
     1
370
    25
100
AcDbLine
 10
1143.855603
 20
192.354862
 30
0.0
 11
1127.659888
 21
176.159147
 31
0.0
  0
LINE
  5
A2
330
30
100
AcDbEntity
  8
LC-002-002-----0
 62
     1
370
    25
100
AcDbLine
 10
1127.659888
 20
176.159147
 30
0.0
 11
1143.855603
 21
159.963432
 31
0.0
  0
LINE
  5
A3
330
30
100
AcDbEntity
  8
LC-002-002-----0
 62
     1
370
    25
100
AcDbLine
 10
1142.355603
 20
163.584752
 30
0.0
 11
1142.355603
 21
188.733542
 31
0.0
  0
LINE
  5
A4
330
30
100
AcDbEntity
  8
LC-001-111-----0
 62
   253
370
    25
100
AcDbLine
 10
1082.207766
 20
176.159147
 30
0.0
 11
1099.299433
 21
155.649147
 31
0.0
  0
LINE
  5
A5
330
30
100
AcDbEntity
  8
LC-001-111-----0
 62
   253
370
    25
100
AcDbLine
 10
1099.299433
 20
155.649147
 30
0.0
 11
1087.818366
 21
155.649147
 31
0.0
  0
LINE
  5
A6
330
30
100
AcDbEntity
  8
LC-001-111-----0
 62
   253
370
    25
100
AcDbLine
 10
1087.818366
 20
155.649147
 30
0.0
 11
1071.855603
 21
174.804462
 31
0.0
  0
LINE
  5
A7
330
30
100
AcDbEntity
  8
LC-001-111-----0
 62
   253
370
    25
100
AcDbLine
 10
1062.335603
 20
155.649147
 30
0.0
 11
1062.335603
 21
196.669147
 31
0.0
  0
LINE
  5
A8
330
30
100
AcDbEntity
  8
LC-001-111-----0
 62
   253
370
    25
100
AcDbLine
 10
828.855603
 20
189.114146
 30
0.0
 11
828.855603
 21
194.497086
 31
0.0
  0
ARC
  5
A9
330
30
100
AcDbEntity
  8
LC-001-111-----0
 62
   253
370
    25
100
AcDbCircle
 10
758.903191
 20
174.567744
 30
0.0
 40
19.31533311668209
100
AcDbArc
 50
65.072024
 51
94.48185
  0
LINE
  5
AA
330
30
100
AcDbEntity
  8
LC-001-111-----0
 62
   253
370
    25
100
AcDbLine
 10
1063.835603
 20
157.149147
 30
0.0
 11
1070.355603
 21
157.149147
 31
0.0
  0
LINE
  5
AB
330
30
100
AcDbEntity
  8
LC-001-111-----0
 62
   253
370
    25
100
AcDbLine
 10
1070.355603
 20
157.149147
 30
0.0
 11
1070.355603
 21
195.169147
 31
0.0
  0
LINE
  5
AC
330
30
100
AcDbEntity
  8
LC-001-111-----0
 62
   253
370
    25
100
AcDbLine
 10
1070.355603
 20
195.169147
 30
0.0
 11
1063.835603
 21
195.169147
 31
0.0
  0
LINE
  5
AD
330
30
100
AcDbEntity
  8
LC-001-111-----0
 62
   253
370
    25
100
AcDbLine
 10
1065.335603
 20
193.669147
 30
0.0
 11
1065.335603
 21
158.649147
 31
0.0
  0
LINE
  5
AE
330
30
100
AcDbEntity
  8
LC-002-002-----0
 62
     1
370
    25
100
AcDbLine
 10
1142.355603
 20
188.733542
 30
0.0
 11
1129.781208
 21
176.159147
 31
0.0
  0
LINE
  5
AF
330
30
100
AcDbEntity
  8
LC-002-002-----0
 62
     1
370
    25
100
AcDbLine
 10
1129.781208
 20
176.159147
 30
0.0
 11
1142.355603
 21
163.584752
 31
0.0
  0
LINE
  5
B0
330
30
100
AcDbEntity
  8
LC-001-111-----0
 62
   253
370
    25
100
AcDbLine
 10
1062.335603
 20
196.669147
 30
0.0
 11
1071.855603
 21
196.669147
 31
0.0
  0
LINE
  5
B1
330
30
100
AcDbEntity
  8
LC-001-111-----0
 62
   253
370
    25
100
AcDbLine
 10
1071.855603
 20
196.669147
 30
0.0
 11
1071.855603
 21
155.649147
 31
0.0
  0
LINE
  5
B2
330
30
100
AcDbEntity
  8
LC-001-111-----0
 62
   253
370
    25
100
AcDbLine
 10
1071.855603
 20
155.649147
 30
0.0
 11
1062.335603
 21
155.649147
 31
0.0
  0
ARC
  5
B3
330
30
100
AcDbEntity
  8
LC-001-111-----0
 62
   253
370
    25
100
AcDbCircle
 10
758.032826
 20
185.671748
 30
0.0
 40
8.177270814709827
100
AcDbArc
 50
94.48185
 51
252.731329
  0
LINE
  5
B4
330
30
100
AcDbEntity
  8
LC-001-111-----0
 62
   253
370
    25
100
AcDbLine
 10
755.60538
 20
177.863082
 30
0.0
 11
763.128892
 21
175.524281
 31
0.0
  0
ARC
  5
B5
330
30
100
AcDbEntity
  8
LC-001-111-----0
 62
   253
370
    25
100
AcDbCircle
 10
760.836588
 20
168.15034
 30
0.0
 40
7.72202478100773
100
AcDbArc
 50
268.246912
 51
72.731329
  0
LINE
  5
B6
330
30
100
AcDbEntity
  8
LC-001-111-----0
 62
   253
370
    25
100
AcDbLine
 10
827.355603
 20
191.143539
 30
0.0
 11
827.355603
 21
193.313738
 31
0.0
  0
ARC
  5
B7
330
30
100
AcDbEntity
  8
LC-001-111-----0
 62
   253
370
    25
100
AcDbCircle
 10
823.845603
 20
176.159147
 30
0.0
 40
17.50999999999996
100
AcDbArc
 50
78.436322
 51
281.563678
  0
LINE
  5
B8
330
30
100
AcDbEntity
  8
LC-001-111-----0
 62
   253
370
    25
100
AcDbLine
 10
827.355603
 20
159.004556
 30
0.0
 11
827.355603
 21
161.174755
 31
0.0
  0
LINE
  5
B9
330
30
100
AcDbEntity
  8
LC-002-002-----0
 62
     1
370
    25
100
AcDbLine
 10
1145.355603
 20
195.976182
 30
0.0
 11
1145.355603
 21
156.342112
 31
0.0
  0
LINE
  5
BA
330
30
100
AcDbEntity
  8
LC-002-002-----0
 62
     1
370
    25
100
AcDbLine
 10
1145.355603
 20
156.342112
 30
0.0
 11
1125.538568
 21
176.159147
 31
0.0
  0
LINE
  5
BB
330
30
100
AcDbEntity
  8
LC-002-002-----0
 62
     1
370
    25
100
AcDbLine
 10
1125.538568
 20
176.159147
 30
0.0
 11
1145.355603
 21
195.976182
 31
0.0
  0
LINE
  5
BC
330
30
100
AcDbEntity
  8
LC-001-111-----0
 62
   253
370
    25
100
AcDbLine
 10
1065.335603
 20
158.649147
 30
0.0
 11
1068.855603
 21
158.649147
 31
0.0
  0
LINE
  5
BD
330
30
100
AcDbEntity
  8
LC-001-111-----0
 62
   253
370
    25
100
AcDbLine
 10
1068.855603
 20
158.649147
 30
0.0
 11
1068.855603
 21
193.669147
 31
0.0
  0
LINE
  5
BE
330
30
100
AcDbEntity
  8
LC-001-111-----0
 62
   253
370
    25
100
AcDbLine
 10
1068.855603
 20
193.669147
 30
0.0
 11
1065.335603
 21
193.669147
 31
0.0
  0
LINE
  5
BF
330
30
100
AcDbEntity
  8
LC-001-111-----0
 62
   253
370
    25
100
AcDbLine
 10
1067.095603
 20
192.169147
 30
0.0
 11
1067.095603
 21
160.149147
 31
0.0
  0
ARC
  5
C0
330
30
100
AcDbEntity
  8
LC-001-111-----0
 62
   253
370
    25
100
AcDbCircle
 10
823.845603
 20
176.159147
 30
0.0
 40
15.38999999999992
100
AcDbArc
 50
76.816519
 51
283.183481
  0
LINE
  5
C1
330
30
100
AcDbEntity
  8
LC-001-111-----0
 62
   253
370
    25
100
AcDbLine
 10
870.855603
 20
195.169147
 30
0.0
 11
864.335603
 21
195.169147
 31
0.0
  0
LINE
  5
C2
330
30
100
AcDbEntity
  8
LC-001-111-----0
 62
   253
370
    25
100
AcDbLine
 10
1096.09687
 20
195.169147
 30
0.0
 11
1088.520928
 21
195.169147
 31
0.0
  0
LINE
  5
C3
330
30
100
AcDbEntity
  8
LC-001-111-----0
 62
   253
370
    25
100
AcDbLine
 10
865.835603
 20
158.649147
 30
0.0
 11
869.355603
 21
158.649147
 31
0.0
  0
LINE
  5
C4
330
30
100
AcDbEntity
  8
LC-001-111-----0
 62
   253
370
    25
100
AcDbLine
 10
1023.355603
 20
191.143539
 30
0.0
 11
1023.355603
 21
193.313738
 31
0.0
  0
LINE
  5
C5
330
30
100
AcDbEntity
  8
LC-001-111-----0
 62
   253
370
    25
100
AcDbLine
 10
892.095603
 20
192.169147
 30
0.0
 11
892.095603
 21
160.149147
 31
0.0
  0
TEXT
  5
C6
330
30
100
AcDbEntity
  8
LC-001-111-----0
 62
     1
370
    15
100
AcDbText
 10
1882.464286
 20
21.25
 30
0.0
 40
15.0
  1
Lithos-N200small
 41
0.75
  7
LCTX0-400-0-0pDIN-Schrift
 72
     1
 11
1958.0
 21
21.25
 31
0.0
100
AcDbText
  0
CIRCLE
  5
C7
330
30
100
AcDbEntity
  8
LC-001-111-----0
 62
   253
370
    25
100
AcDbCircle
 10
946.345603
 20
176.159147
 30
0.0
 40
17.51000000000047
  0
LINE
  5
C8
330
30
100
AcDbEntity
  8
LC-001-111-----0
 62
   253
370
    25
100
AcDbLine
 10
1088.520928
 20
195.169147
 30
0.0
 11
1072.679261
 21
176.159147
 31
0.0
  0
ARC
  5
C9
330
30
100
AcDbEntity
  8
LC-001-111-----0
 62
   253
370
    25
100
AcDbCircle
 10
1019.845603
 20
176.159147
 30
0.0
 40
17.50999999999996
100
AcDbArc
 50
78.436322
 51
281.563678
  0
ARC
  5
CA
330
30
100
AcDbEntity
  8
LC-001-111-----0
 62
   253
370
    25
100
AcDbCircle
 10
761.412387
 20
186.963179
 30
0.0
 40
26.54367341134783
100
AcDbArc
 50
244.741378
 51
268.246912
  0
LINE
  5
CB
330
30
100
AcDbEntity
  8
LC-001-111-----0
 62
   253
370
    25
100
AcDbLine
 10
1023.355603
 20
159.004556
 30
0.0
 11
1023.355603
 21
161.174755
 31
0.0
  0
LINE
  5
CC
330
30
100
AcDbEntity
  8
LC-002-002-----0
 62
     1
370
    25
100
AcDbLine
 10
1140.855603
 20
167.206073
 30
0.0
 11
1140.855603
 21
185.112221
 31
0.0
  0
LINE
  5
CD
330
30
100
AcDbEntity
  8
LC-002-002-----0
 62
     1
370
    25
100
AcDbLine
 10
1140.855603
 20
185.112221
 30
0.0
 11
1131.902529
 21
176.159147
 31
0.0
  0
LINE
  5
CE
330
30
100
AcDbEntity
  8
LC-002-002-----0
 62
     1
370
    25
100
AcDbLine
 10
1131.902529
 20
176.159147
 30
0.0
 11
1140.855603
 21
167.206073
 31
0.0
  0
CIRCLE
  5
CF
330
30
100
AcDbEntity
  8
LC-001-111-----0
 62
   253
370
    25
100
AcDbCircle
 10
946.345603
 20
176.159147
 30
0.0
 40
13.89000000000002
  0
LINE
  5
D0
330
30
100
AcDbEntity
  8
LC-001-111-----0
 62
   253
370
    25
100
AcDbLine
 10
890.335603
 20
158.649147
 30
0.0
 11
893.855603
 21
158.649147
 31
0.0
  0
LINE
  5
D1
330
30
100
AcDbEntity
  8
LC-001-111-----0
 62
   253
370
    25
100
AcDbLine
 10
893.855603
 20
158.649147
 30
0.0
 11
893.855603
 21
193.669147
 31
0.0
  0
ARC
  5
D2
330
30
100
AcDbEntity
  8
LC-001-111-----0
 62
   253
370
    25
100
AcDbCircle
 10
758.906662
 20
168.924866
 30
0.0
 40
20.55472179307891
100
AcDbArc
 50
57.190491
 51
90.951212
  0
ARC
  5
D3
330
30
100
AcDbEntity
  8
LC-001-111-----0
 62
   253
370
    25
100
AcDbCircle
 10
761.779647
 20
167.692822
 30
0.0
 40
12.23104525444841
100
AcDbArc
 50
274.343327
 51
74.255463
  0
LINE
  5
D4
330
30
100
AcDbEntity
  8
LC-001-111-----0
 62
   253
370
    25
100
AcDbLine
 10
893.855603
 20
193.669147
 30
0.0
 11
890.335603
 21
193.669147
 31
0.0
  0
LINE
  5
D5
330
30
100
AcDbEntity
  8
LC-001-111-----0
 62
   253
370
    25
100
AcDbLine
 10
890.335603
 20
193.669147
 30
0.0
 11
890.335603
 21
158.649147
 31
0.0
  0
LINE
  5
D6
330
30
100
AcDbEntity
  8
LC-001-111-----0
 62
   253
370
    25
100
AcDbLine
 10
890.335603
 20
176.159147
 30
0.0
 11
869.355603
 21
176.159147
 31
0.0
  0
LINE
  5
D7
330
30
100
AcDbEntity
  8
LC-001-111-----0
 62
   253
370
    25
100
AcDbLine
 10
869.355603
 20
158.649147
 30
0.0
 11
869.355603
 21
193.669147
 31
0.0
  0
LINE
  5
D8
330
30
100
AcDbEntity
  8
LC-001-111-----0
 62
   253
370
    25
100
AcDbLine
 10
869.355603
 20
193.669147
 30
0.0
 11
865.835603
 21
193.669147
 31
0.0
  0
LINE
  5
D9
330
30
100
AcDbEntity
  8
LC-001-111-----0
 62
   253
370
    25
100
AcDbLine
 10
865.835603
 20
193.669147
 30
0.0
 11
865.835603
 21
158.649147
 31
0.0
  0
LINE
  5
DA
330
30
100
AcDbEntity
  8
LC-001-111-----0
 62
   253
370
    25
100
AcDbLine
 10
867.595603
 20
192.169147
 30
0.0
 11
867.595603
 21
160.149147
 31
0.0
  0
CIRCLE
  5
DB
330
30
100
AcDbEntity
  8
LC-001-111-----0
 62
   253
370
    25
100
AcDbCircle
 10
946.345603
 20
176.159147
 30
0.0
 40
15.38999999999984
  0
LINE
  5
DC
330
30
100
AcDbEntity
  8
LC-001-111-----0
 62
   253
370
    25
100
AcDbLine
 10
1072.679261
 20
176.159147
 30
0.0
 11
1088.520928
 21
157.149147
 31
0.0
  0
LINE
  5
DD
330
30
100
AcDbEntity
  8
LC-001-111-----0
 62
   253
370
    25
100
AcDbLine
 10
1088.520928
 20
157.149147
 30
0.0
 11
1096.09687
 21
157.149147
 31
0.0
  0
LINE
  5
DE
330
30
100
AcDbEntity
  8
LC-001-111-----0
 62
   253
370
    25
100
AcDbLine
 10
1096.09687
 20
157.149147
 30
0.0
 11
1080.255204
 21
176.159147
 31
0.0
  0
LINE
  5
DF
330
30
100
AcDbEntity
  8
LC-001-111-----0
 62
   253
370
    25
100
AcDbLine
 10
770.044191
 20
186.20063
 30
0.0
 11
770.044191
 21
193.903002
 31
0.0
  0
ARC
  5
E0
330
30
100
AcDbEntity
  8
LC-001-111-----0
 62
   253
370
    25
100
AcDbCircle
 10
761.412387
 20
186.963179
 30
0.0
 40
23.54367341134796
100
AcDbArc
 50
232.518913
 51
268.246912
  0
ARC
  5
E1
330
30
100
AcDbEntity
  8
LC-001-111-----0
 62
   253
370
    25
100
AcDbCircle
 10
760.836588
 20
168.15034
 30
0.0
 40
4.722024781007908
100
AcDbArc
 50
268.246912
 51
72.731329
  0
LINE
  5
E2
330
30
100
AcDbEntity
  8
LC-001-111-----0
 62
   253
370
    25
100
AcDbLine
 10
757.542274
 20
181.595277
 30
0.0
 11
765.098525
 21
179.464972
 31
0.0
  0
ARC
  5
E3
330
30
100
AcDbEntity
  8
LC-001-111-----0
 62
   253
370
    25
100
AcDbCircle
 10
758.632108
 20
185.460948
 30
0.0
 40
4.016360130100384
100
AcDbArc
 50
90.951212
 51
254.255463
  0
ARC
  5
E4
330
30
100
AcDbEntity
  8
LC-001-111-----0
 62
   253
370
    25
100
AcDbCircle
 10
758.032826
 20
185.671748
 30
0.0
 40
11.17727081470983
100
AcDbArc
 50
94.48185
 51
252.731329
  0
LINE
  5
E5
330
30
100
AcDbEntity
  8
LC-001-111-----0
 62
   253
370
    25
100
AcDbLine
 10
762.238334
 20
172.659511
 30
0.0
 11
754.714822
 21
174.998312
 31
0.0
  0
LINE
  5
E6
330
30
100
AcDbEntity
  8
LC-001-111-----0
 62
   253
370
    25
100
AcDbLine
 10
747.086073
 20
168.279997
 30
0.0
 11
747.086073
 21
159.524163
 31
0.0
  0
ARC
  5
E7
330
30
100
AcDbEntity
  8
LC-001-111-----0
 62
   253
370
    25
100
AcDbCircle
 10
758.903191
 20
174.567744
 30
0.0
 40
22.31533311668187
100
AcDbArc
 50
60.049399
 51
94.48185
  0
ARC
  5
E8
330
30
100
AcDbEntity
  8
LC-001-111-----0
 62
   253
370
    25
100
AcDbCircle
 10
760.81067
 20
180.45076
 30
0.0
 40
25.02572762426604
100
AcDbArc
 50
236.741348
 51
274.343327
  0
LINE
  5
E9
330
30
100
AcDbEntity
  8
LC-001-111-----0
 62
   253
370
    25
100
AcDbLine
 10
1080.255204
 20
176.159147
 30
0.0
 11
1096.09687
 21
195.169147
 31
0.0
  0
LINE
  5
EA
330
30
100
AcDbEntity
  8
LC-001-111-----0
 62
   253
370
    25
100
AcDbLine
 10
750.086073
 20
162.957321
 30
0.0
 11
750.086073
 21
161.212369
 31
0.0
  0
LINE
  5
EB
330
30
100
AcDbEntity
  8
LC-001-111-----0
 62
   253
370
    25
100
AcDbLine
 10
1078.302641
 20
176.159147
 30
0.0
 11
1092.894308
 21
193.669147
 31
0.0
  0
LINE
  5
EC
330
30
100
AcDbEntity
  8
LC-002-002-----0
 62
     1
370
    25
100
AcDbLine
 10
1139.355603
 20
170.827393
 30
0.0
 11
1139.355603
 21
181.490901
 31
0.0
  0
LINE
  5
ED
330
30
100
AcDbEntity
  8
LC-002-002-----0
 62
     1
370
    25
100
AcDbLine
 10
1139.355603
 20
181.490901
 30
0.0
 11
1134.023849
 21
176.159147
 31
0.0
  0
LINE
  5
EE
330
30
100
AcDbEntity
  8
LC-002-002-----0
 62
     1
370
    25
100
AcDbLine
 10
1134.023849
 20
176.159147
 30
0.0
 11
1139.355603
 21
170.827393
 31
0.0
  0
LINE
  5
EF
330
30
100
AcDbEntity
  8
LC-002-002-----0
 62
     1
370
    25
100
AcDbLine
 10
1137.855603
 20
174.448713
 30
0.0
 11
1137.855603
 21
177.869581
 31
0.0
  0
LINE
  5
F0
330
30
100
AcDbEntity
  8
LC-002-002-----0
 62
     1
370
    25
100
AcDbLine
 10
1137.855603
 20
177.869581
 30
0.0
 11
1136.145169
 21
176.159147
 31
0.0
  0
LINE
  5
F1
330
30
100
AcDbEntity
  8
LC-002-002-----0
 62
     1
370
    25
100
AcDbLine
 10
1136.145169
 20
176.159147
 30
0.0
 11
1137.855603
 21
174.448713
 31
0.0
  0
LINE
  5
F2
330
30
100
AcDbEntity
  8
LC-001-111-----0
 62
   253
370
    25
100
AcDbLine
 10
1092.894308
 20
193.669147
 30
0.0
 11
1089.22349
 21
193.669147
 31
0.0
  0
LINE
  5
F3
330
30
100
AcDbEntity
  8
LC-001-111-----0
 62
   253
370
    25
100
AcDbLine
 10
1089.22349
 20
193.669147
 30
0.0
 11
1074.631824
 21
176.159147
 31
0.0
  0
ARC
  5
F4
330
30
100
AcDbEntity
  8
LC-001-111-----0
 62
   253
370
    25
100
AcDbCircle
 10
1019.845603
 20
176.159147
 30
0.0
 40
15.38999999999992
100
AcDbArc
 50
76.816519
 51
283.183481
  0
LINE
  5
F5
330
30
100
AcDbEntity
  8
LC-001-111-----0
 62
   253
370
    25
100
AcDbLine
 10
1074.631824
 20
176.159147
 30
0.0
 11
1089.22349
 21
158.649147
 31
0.0
  0
LINE
  5
F6
330
30
100
AcDbEntity
  8
LC-001-111-----0
 62
   253
370
    25
100
AcDbLine
 10
1089.22349
 20
158.649147
 30
0.0
 11
1092.894308
 21
158.649147
 31
0.0
  0
LINE
  5
F7
330
30
100
AcDbEntity
  8
LC-001-111-----0
 62
   253
370
    25
100
AcDbLine
 10
1092.894308
 20
158.649147
 30
0.0
 11
1078.302641
 21
176.159147
 31
0.0
  0
LINE
  5
F8
330
30
100
AcDbEntity
  8
LC-001-111-----0
 62
   253
370
    25
100
AcDbLine
 10
1076.467232
 20
176.159147
 30
0.0
 11
1090.098623
 21
192.516815
 31
0.0
  0
LINE
  5
F9
330
30
100
AcDbEntity
  8
LC-001-111-----0
 62
   253
370
    25
100
AcDbLine
 10
1076.467232
 20
176.159147
 30
0.0
 11
1090.098623
 21
159.801479
 31
0.0
  0
ARC
  5
FA
330
30
100
AcDbEntity
  8
LC-001-111-----0
 62
   253
370
    25
100
AcDbCircle
 10
760.81067
 20
180.45076
 30
0.0
 40
22.02572762426587
100
AcDbArc
 50
240.862164
 51
274.343327
  0
ARC
  5
FB
330
30
100
AcDbEntity
  8
LC-001-111-----0
 62
   253
370
    25
100
AcDbCircle
 10
761.779647
 20
167.692822
 30
0.0
 40
9.231045254448425
100
AcDbArc
 50
274.343327
 51
74.255463
  0
LINE
  5
FC
330
30
100
AcDbEntity
  8
LC-001-111-----0
 62
   253
370
    25
100
AcDbLine
 10
764.284479
 20
176.577529
 30
0.0
 11
756.728228
 21
178.707834
 31
0.0
  0
ARC
  5
FD
330
30
100
AcDbEntity
  8
LC-001-111-----0
 62
   253
370
    25
100
AcDbCircle
 10
758.632108
 20
185.460948
 30
0.0
 40
7.016360130100396
100
AcDbArc
 50
90.951212
 51
254.255463
  0
ARC
  5
FE
330
30
100
AcDbEntity
  8
LC-001-111-----0
 62
   253
370
    25
100
AcDbCircle
 10
758.906662
 20
168.924866
 30
0.0
 40
23.55472179307856
100
AcDbArc
 50
69.789306
 51
90.951212
  0
LINE
  5
FF
330
30
100
AcDbEntity
  8
LC-001-111-----0
 62
   253
370
    25
100
AcDbLine
 10
767.044191
 20
191.029289
 30
0.0
 11
767.044191
 21
192.083629
 31
0.0
  0
ENDBLK
  5
32
330
30
100
AcDbEntity
  8
0
100
AcDbBlockEnd
  0
BLOCK
  5
1F6
330
1F5
100
AcDbEntity
  8
0
100
AcDbBlockBegin
  2
LCDIM1
 70
     0
 71
     0
 10
0.0
 20
0.0
 30
0.0
  3
LCDIM1
  1

  4
LCDIM1
  0
LINE
  5
1F9
330
1F5
100
AcDbEntity
  8
LC-007-003-MTH-0
 62
     7
370
    25
100
AcDbLine
 10
608.330631
 20
2443.33
 30
0.0
 11
585.0
 21
2443.33
 31
0.0
  0
LINE
  5
1FA
330
1F5
100
AcDbEntity
  8
LC-007-003-MTH-0
 62
     7
370
    25
100
AcDbLine
 10
608.330631
 20
2648.33
 30
0.0
 11
585.0
 21
2648.33
 31
0.0
  0
LINE
  5
1FC
330
1F5
100
AcDbEntity
  8
LC-008-003-MTG-0
 62
     7
370
    25
100
AcDbLine
 10
600.0
 20
2443.33
 30
0.0
 11
600.0
 21
2648.33
 31
0.0
  0
LINE
  5
1FE
330
1F5
100
AcDbEntity
  8
LC-009-003-----0
 62
     7
370
    25
100
AcDbLine
 10
596.736845
 20
2468.116122
 30
0.0
 11
600.0
 21
2443.33
 31
0.0
  0
LINE
  5
1FF
330
1F5
100
AcDbEntity
  8
LC-009-003-----0
 62
     7
370
    25
100
AcDbLine
 10
600.0
 20
2443.33
 30
0.0
 11
603.263155
 21
2468.116122
 31
0.0
  0
LINE
  5
200
330
1F5
100
AcDbEntity
  8
LC-009-003-----0
 62
     7
370
    25
100
AcDbLine
 10
603.263155
 20
2468.116122
 30
0.0
 11
596.736845
 21
2468.116122
 31
0.0
  0
LINE
  5
201
330
1F5
100
AcDbEntity
  8
LC-009-003-----0
 62
     7
370
    25
100
AcDbLine
 10
597.585265
 20
2468.17173
 30
0.0
 11
600.0
 21
2449.83
 31
0.0
  0
LINE
  5
202
330
1F5
100
AcDbEntity
  8
LC-009-003-----0
 62
     7
370
    25
100
AcDbLine
 10
600.0
 20
2449.83
 30
0.0
 11
602.414735
 21
2468.17173
 31
0.0
  0
LINE
  5
203
330
1F5
100
AcDbEntity
  8
LC-009-003-----0
 62
     7
370
    25
100
AcDbLine
 10
598.433686
 20
2468.227339
 30
0.0
 11
600.0
 21
2456.33
 31
0.0
  0
LINE
  5
204
330
1F5
100
AcDbEntity
  8
LC-009-003-----0
 62
     7
370
    25
100
AcDbLine
 10
600.0
 20
2456.33
 30
0.0
 11
601.566314
 21
2468.227339
 31
0.0
  0
LINE
  5
205
330
1F5
100
AcDbEntity
  8
LC-009-003-----0
 62
     7
370
    25
100
AcDbLine
 10
599.282106
 20
2468.282947
 30
0.0
 11
600.0
 21
2462.83
 31
0.0
  0
LINE
  5
206
330
1F5
100
AcDbEntity
  8
LC-009-003-----0
 62
     7
370
    25
100
AcDbLine
 10
600.0
 20
2462.83
 30
0.0
 11
600.717894
 21
2468.282947
 31
0.0
  0
LINE
  5
207
330
1F5
100
AcDbEntity
  8
LC-009-003-----0
 62
     7
370
    25
100
AcDbLine
 10
603.263155
 20
2623.543878
 30
0.0
 11
600.0
 21
2648.33
 31
0.0
  0
LINE
  5
208
330
1F5
100
AcDbEntity
  8
LC-009-003-----0
 62
     7
370
    25
100
AcDbLine
 10
600.0
 20
2648.33
 30
0.0
 11
596.736845
 21
2623.543878
 31
0.0
  0
LINE
  5
209
330
1F5
100
AcDbEntity
  8
LC-009-003-----0
 62
     7
370
    25
100
AcDbLine
 10
596.736845
 20
2623.543878
 30
0.0
 11
603.263155
 21
2623.543878
 31
0.0
  0
LINE
  5
20A
330
1F5
100
AcDbEntity
  8
LC-009-003-----0
 62
     7
370
    25
100
AcDbLine
 10
602.414735
 20
2623.48827
 30
0.0
 11
600.0
 21
2641.83
 31
0.0
  0
LINE
  5
20B
330
1F5
100
AcDbEntity
  8
LC-009-003-----0
 62
     7
370
    25
100
AcDbLine
 10
600.0
 20
2641.83
 30
0.0
 11
597.585265
 21
2623.48827
 31
0.0
  0
LINE
  5
20C
330
1F5
100
AcDbEntity
  8
LC-009-003-----0
 62
     7
370
    25
100
AcDbLine
 10
601.566314
 20
2623.432661
 30
0.0
 11
600.0
 21
2635.33
 31
0.0
  0
LINE
  5
20D
330
1F5
100
AcDbEntity
  8
LC-009-003-----0
 62
     7
370
    25
100
AcDbLine
 10
600.0
 20
2635.33
 30
0.0
 11
598.433686
 21
2623.432661
 31
0.0
  0
LINE
  5
20E
330
1F5
100
AcDbEntity
  8
LC-009-003-----0
 62
     7
370
    25
100
AcDbLine
 10
600.717894
 20
2623.377053
 30
0.0
 11
600.0
 21
2628.83
 31
0.0
  0
LINE
  5
20F
330
1F5
100
AcDbEntity
  8
LC-009-003-----0
 62
     7
370
    25
100
AcDbLine
 10
600.0
 20
2628.83
 30
0.0
 11
599.282106
 21
2623.377053
 31
0.0
  0
TEXT
  5
210
330
1F5
100
AcDbEntity
  8
LC-009-003-----0
 62
     7
370
    25
100
AcDbText
 10
585.0
 20
2521.088642
 30
0.0
 40
25.0
  1
205
 50
90.0
 41
0.7
  7
LCTX0-400-0-0pDIN-Schrift
 72
     1
 11
585.0
 21
2546.088642
 31
0.0
100
AcDbText
  0
ENDBLK
  5
1F7
330
1F5
100
AcDbEntity
  8
0
100
AcDbBlockEnd
  0
BLOCK
  5
213
330
212
100
AcDbEntity
  8
0
100
AcDbBlockBegin
  2
LCDIM2
 70
     0
 71
     0
 10
0.0
 20
0.0
 30
0.0
  3
LCDIM2
  1

  4
LCDIM2
  0
LINE
  5
215
330
212
100
AcDbEntity
  8
LC-007-003-MTH-0
 62
     7
370
    25
100
AcDbLine
 10
852.330631
 20
2443.33
 30
0.0
 11
835.0
 21
2443.33
 31
0.0
  0
LINE
  5
216
330
212
100
AcDbEntity
  8
LC-007-003-MTH-0
 62
     7
370
    25
100
AcDbLine
 10
852.330631
 20
2648.33
 30
0.0
 11
835.0
 21
2648.33
 31
0.0
  0
LINE
  5
217
330
212
100
AcDbEntity
  8
LC-008-003-MTG-0
 62
     7
370
    25
100
AcDbLine
 10
850.0
 20
2443.33
 30
0.0
 11
850.0
 21
2648.33
 31
0.0
  0
LINE
  5
218
330
212
100
AcDbEntity
  8
LC-009-003-----0
 62
     7
370
    25
100
AcDbLine
 10
846.736845
 20
2468.116122
 30
0.0
 11
850.0
 21
2443.33
 31
0.0
  0
LINE
  5
219
330
212
100
AcDbEntity
  8
LC-009-003-----0
 62
     7
370
    25
100
AcDbLine
 10
850.0
 20
2443.33
 30
0.0
 11
853.263155
 21
2468.116122
 31
0.0
  0
LINE
  5
21A
330
212
100
AcDbEntity
  8
LC-009-003-----0
 62
     7
370
    25
100
AcDbLine
 10
853.263155
 20
2468.116122
 30
0.0
 11
846.736845
 21
2468.116122
 31
0.0
  0
LINE
  5
21B
330
212
100
AcDbEntity
  8
LC-009-003-----0
 62
     7
370
    25
100
AcDbLine
 10
847.585265
 20
2468.17173
 30
0.0
 11
850.0
 21
2449.83
 31
0.0
  0
LINE
  5
21C
330
212
100
AcDbEntity
  8
LC-009-003-----0
 62
     7
370
    25
100
AcDbLine
 10
850.0
 20
2449.83
 30
0.0
 11
852.414735
 21
2468.17173
 31
0.0
  0
LINE
  5
21D
330
212
100
AcDbEntity
  8
LC-009-003-----0
 62
     7
370
    25
100
AcDbLine
 10
848.433686
 20
2468.227339
 30
0.0
 11
850.0
 21
2456.33
 31
0.0
  0
LINE
  5
21E
330
212
100
AcDbEntity
  8
LC-009-003-----0
 62
     7
370
    25
100
AcDbLine
 10
850.0
 20
2456.33
 30
0.0
 11
851.566314
 21
2468.227339
 31
0.0
  0
LINE
  5
21F
330
212
100
AcDbEntity
  8
LC-009-003-----0
 62
     7
370
    25
100
AcDbLine
 10
849.282106
 20
2468.282947
 30
0.0
 11
850.0
 21
2462.83
 31
0.0
  0
LINE
  5
220
330
212
100
AcDbEntity
  8
LC-009-003-----0
 62
     7
370
    25
100
AcDbLine
 10
850.0
 20
2462.83
 30
0.0
 11
850.717894
 21
2468.282947
 31
0.0
  0
LINE
  5
221
330
212
100
AcDbEntity
  8
LC-009-003-----0
 62
     7
370
    25
100
AcDbLine
 10
853.263155
 20
2623.543878
 30
0.0
 11
850.0
 21
2648.33
 31
0.0
  0
LINE
  5
222
330
212
100
AcDbEntity
  8
LC-009-003-----0
 62
     7
370
    25
100
AcDbLine
 10
850.0
 20
2648.33
 30
0.0
 11
846.736845
 21
2623.543878
 31
0.0
  0
LINE
  5
223
330
212
100
AcDbEntity
  8
LC-009-003-----0
 62
     7
370
    25
100
AcDbLine
 10
846.736845
 20
2623.543878
 30
0.0
 11
853.263155
 21
2623.543878
 31
0.0
  0
LINE
  5
224
330
212
100
AcDbEntity
  8
LC-009-003-----0
 62
     7
370
    25
100
AcDbLine
 10
852.414735
 20
2623.48827
 30
0.0
 11
850.0
 21
2641.83
 31
0.0
  0
LINE
  5
225
330
212
100
AcDbEntity
  8
LC-009-003-----0
 62
     7
370
    25
100
AcDbLine
 10
850.0
 20
2641.83
 30
0.0
 11
847.585265
 21
2623.48827
 31
0.0
  0
LINE
  5
226
330
212
100
AcDbEntity
  8
LC-009-003-----0
 62
     7
370
    25
100
AcDbLine
 10
851.566314
 20
2623.432661
 30
0.0
 11
850.0
 21
2635.33
 31
0.0
  0
LINE
  5
227
330
212
100
AcDbEntity
  8
LC-009-003-----0
 62
     7
370
    25
100
AcDbLine
 10
850.0
 20
2635.33
 30
0.0
 11
848.433686
 21
2623.432661
 31
0.0
  0
LINE
  5
228
330
212
100
AcDbEntity
  8
LC-009-003-----0
 62
     7
370
    25
100
AcDbLine
 10
850.717894
 20
2623.377053
 30
0.0
 11
850.0
 21
2628.83
 31
0.0
  0
LINE
  5
229
330
212
100
AcDbEntity
  8
LC-009-003-----0
 62
     7
370
    25
100
AcDbLine
 10
850.0
 20
2628.83
 30
0.0
 11
849.282106
 21
2623.377053
 31
0.0
  0
TEXT
  5
22A
330
212
100
AcDbEntity
  8
LC-009-003-----0
 62
     7
370
    25
100
AcDbText
 10
835.0
 20
2520.149323
 30
0.0
 40
25.0
  1
205
 50
90.0
 41
0.7
  7
LCTX0-400-0-0pDIN-Schrift
 72
     1
 11
835.0
 21
2545.149323
 31
0.0
100
AcDbText
  0
ENDBLK
  5
214
330
212
100
AcDbEntity
  8
0
100
AcDbBlockEnd
  0
BLOCK
  5
272
330
271
100
AcDbEntity
  8
0
100
AcDbBlockBegin
  2
LCDIM3
 70
     0
 71
     0
 10
0.0
 20
0.0
 30
0.0
  3
LCDIM3
  1

  4
LCDIM3
  0
LINE
  5
274
330
271
100
AcDbEntity
  8
LC-007-003-MTH-0
 62
     7
370
    25
100
AcDbLine
 10
1788.399595
 20
1541.344707
 30
0.0
 11
1915.0
 21
1541.344707
 31
0.0
  0
LINE
  5
275
330
271
100
AcDbEntity
  8
LC-007-003-MTH-0
 62
     7
370
    25
100
AcDbLine
 10
1788.399595
 20
1962.215293
 30
0.0
 11
1915.0
 21
1962.215293
 31
0.0
  0
LINE
  5
276
330
271
100
AcDbEntity
  8
LC-008-003-MTG-0
 62
     7
370
    25
100
AcDbLine
 10
1900.0
 20
1541.344707
 30
0.0
 11
1900.0
 21
1962.215293
 31
0.0
  0
LINE
  5
277
330
271
100
AcDbEntity
  8
LC-009-003-----0
 62
     7
370
    25
100
AcDbLine
 10
1896.736845
 20
1566.130829
 30
0.0
 11
1900.0
 21
1541.344707
 31
0.0
  0
LINE
  5
278
330
271
100
AcDbEntity
  8
LC-009-003-----0
 62
     7
370
    25
100
AcDbLine
 10
1900.0
 20
1541.344707
 30
0.0
 11
1903.263155
 21
1566.130829
 31
0.0
  0
LINE
  5
279
330
271
100
AcDbEntity
  8
LC-009-003-----0
 62
     7
370
    25
100
AcDbLine
 10
1903.263155
 20
1566.130829
 30
0.0
 11
1896.736845
 21
1566.130829
 31
0.0
  0
LINE
  5
27A
330
271
100
AcDbEntity
  8
LC-009-003-----0
 62
     7
370
    25
100
AcDbLine
 10
1897.585265
 20
1566.186437
 30
0.0
 11
1900.0
 21
1547.844707
 31
0.0
  0
LINE
  5
27B
330
271
100
AcDbEntity
  8
LC-009-003-----0
 62
     7
370
    25
100
AcDbLine
 10
1900.0
 20
1547.844707
 30
0.0
 11
1902.414735
 21
1566.186437
 31
0.0
  0
LINE
  5
27C
330
271
100
AcDbEntity
  8
LC-009-003-----0
 62
     7
370
    25
100
AcDbLine
 10
1898.433686
 20
1566.242046
 30
0.0
 11
1900.0
 21
1554.344707
 31
0.0
  0
LINE
  5
27D
330
271
100
AcDbEntity
  8
LC-009-003-----0
 62
     7
370
    25
100
AcDbLine
 10
1900.0
 20
1554.344707
 30
0.0
 11
1901.566314
 21
1566.242046
 31
0.0
  0
LINE
  5
27E
330
271
100
AcDbEntity
  8
LC-009-003-----0
 62
     7
370
    25
100
AcDbLine
 10
1899.282106
 20
1566.297654
 30
0.0
 11
1900.0
 21
1560.844707
 31
0.0
  0
LINE
  5
27F
330
271
100
AcDbEntity
  8
LC-009-003-----0
 62
     7
370
    25
100
AcDbLine
 10
1900.0
 20
1560.844707
 30
0.0
 11
1900.717894
 21
1566.297654
 31
0.0
  0
LINE
  5
280
330
271
100
AcDbEntity
  8
LC-009-003-----0
 62
     7
370
    25
100
AcDbLine
 10
1903.263155
 20
1937.429171
 30
0.0
 11
1900.0
 21
1962.215293
 31
0.0
  0
LINE
  5
281
330
271
100
AcDbEntity
  8
LC-009-003-----0
 62
     7
370
    25
100
AcDbLine
 10
1900.0
 20
1962.215293
 30
0.0
 11
1896.736845
 21
1937.429171
 31
0.0
  0
LINE
  5
282
330
271
100
AcDbEntity
  8
LC-009-003-----0
 62
     7
370
    25
100
AcDbLine
 10
1896.736845
 20
1937.429171
 30
0.0
 11
1903.263155
 21
1937.429171
 31
0.0
  0
LINE
  5
283
330
271
100
AcDbEntity
  8
LC-009-003-----0
 62
     7
370
    25
100
AcDbLine
 10
1902.414735
 20
1937.373563
 30
0.0
 11
1900.0
 21
1955.715293
 31
0.0
  0
LINE
  5
284
330
271
100
AcDbEntity
  8
LC-009-003-----0
 62
     7
370
    25
100
AcDbLine
 10
1900.0
 20
1955.715293
 30
0.0
 11
1897.585265
 21
1937.373563
 31
0.0
  0
LINE
  5
285
330
271
100
AcDbEntity
  8
LC-009-003-----0
 62
     7
370
    25
100
AcDbLine
 10
1901.566314
 20
1937.317954
 30
0.0
 11
1900.0
 21
1949.215293
 31
0.0
  0
LINE
  5
286
330
271
100
AcDbEntity
  8
LC-009-003-----0
 62
     7
370
    25
100
AcDbLine
 10
1900.0
 20
1949.215293
 30
0.0
 11
1898.433686
 21
1937.317954
 31
0.0
  0
LINE
  5
287
330
271
100
AcDbEntity
  8
LC-009-003-----0
 62
     7
370
    25
100
AcDbLine
 10
1900.717894
 20
1937.262346
 30
0.0
 11
1900.0
 21
1942.715293
 31
0.0
  0
LINE
  5
288
330
271
100
AcDbEntity
  8
LC-009-003-----0
 62
     7
370
    25
100
AcDbLine
 10
1900.0
 20
1942.715293
 30
0.0
 11
1899.282106
 21
1937.262346
 31
0.0
  0
TEXT
  5
289
330
271
100
AcDbEntity
  8
LC-009-003-----0
 62
     7
370
    25
100
AcDbText
 10
1885.0
 20
1740.422904
 30
0.0
 40
25.0
  1
421
 50
90.0
 41
0.7
  7
LCTX0-400-0-0pDIN-Schrift
 72
     1
 11
1885.0
 21
1762.922904
 31
0.0
100
AcDbText
  0
ENDBLK
  5
273
330
271
100
AcDbEntity
  8
0
100
AcDbBlockEnd
  0
BLOCK
  5
296
330
295
100
AcDbEntity
  8
0
100
AcDbBlockBegin
  2
LCDIM4
 70
     0
 71
     0
 10
0.0
 20
0.0
 30
0.0
  3
LCDIM4
  1

  4
LCDIM4
  0
LINE
  5
298
330
295
100
AcDbEntity
  8
LC-007-003-MTH-0
 62
     7
370
    25
100
AcDbLine
 10
1119.330631
 20
1501.78
 30
0.0
 11
1265.0
 21
1501.78
 31
0.0
  0
LINE
  5
299
330
295
100
AcDbEntity
  8
LC-007-003-MTH-0
 62
     7
370
    25
100
AcDbLine
 10
1119.330631
 20
2001.78
 30
0.0
 11
1265.0
 21
2001.78
 31
0.0
  0
LINE
  5
29A
330
295
100
AcDbEntity
  8
LC-008-003-MTG-0
 62
     7
370
    25
100
AcDbLine
 10
1250.0
 20
1501.78
 30
0.0
 11
1250.0
 21
2001.78
 31
0.0
  0
LINE
  5
29B
330
295
100
AcDbEntity
  8
LC-009-003-----0
 62
     7
370
    25
100
AcDbLine
 10
1246.736845
 20
1526.566122
 30
0.0
 11
1250.0
 21
1501.78
 31
0.0
  0
LINE
  5
29C
330
295
100
AcDbEntity
  8
LC-009-003-----0
 62
     7
370
    25
100
AcDbLine
 10
1250.0
 20
1501.78
 30
0.0
 11
1253.263155
 21
1526.566122
 31
0.0
  0
LINE
  5
29D
330
295
100
AcDbEntity
  8
LC-009-003-----0
 62
     7
370
    25
100
AcDbLine
 10
1253.263155
 20
1526.566122
 30
0.0
 11
1246.736845
 21
1526.566122
 31
0.0
  0
LINE
  5
29E
330
295
100
AcDbEntity
  8
LC-009-003-----0
 62
     7
370
    25
100
AcDbLine
 10
1247.585265
 20
1526.62173
 30
0.0
 11
1250.0
 21
1508.28
 31
0.0
  0
LINE
  5
29F
330
295
100
AcDbEntity
  8
LC-009-003-----0
 62
     7
370
    25
100
AcDbLine
 10
1250.0
 20
1508.28
 30
0.0
 11
1252.414735
 21
1526.62173
 31
0.0
  0
LINE
  5
2A0
330
295
100
AcDbEntity
  8
LC-009-003-----0
 62
     7
370
    25
100
AcDbLine
 10
1248.433686
 20
1526.677339
 30
0.0
 11
1250.0
 21
1514.78
 31
0.0
  0
LINE
  5
2A1
330
295
100
AcDbEntity
  8
LC-009-003-----0
 62
     7
370
    25
100
AcDbLine
 10
1250.0
 20
1514.78
 30
0.0
 11
1251.566314
 21
1526.677339
 31
0.0
  0
LINE
  5
2A2
330
295
100
AcDbEntity
  8
LC-009-003-----0
 62
     7
370
    25
100
AcDbLine
 10
1249.282106
 20
1526.732947
 30
0.0
 11
1250.0
 21
1521.28
 31
0.0
  0
LINE
  5
2A3
330
295
100
AcDbEntity
  8
LC-009-003-----0
 62
     7
370
    25
100
AcDbLine
 10
1250.0
 20
1521.28
 30
0.0
 11
1250.717894
 21
1526.732947
 31
0.0
  0
LINE
  5
2A4
330
295
100
AcDbEntity
  8
LC-009-003-----0
 62
     7
370
    25
100
AcDbLine
 10
1253.263155
 20
1976.993878
 30
0.0
 11
1250.0
 21
2001.78
 31
0.0
  0
LINE
  5
2A5
330
295
100
AcDbEntity
  8
LC-009-003-----0
 62
     7
370
    25
100
AcDbLine
 10
1250.0
 20
2001.78
 30
0.0
 11
1246.736845
 21
1976.993878
 31
0.0
  0
LINE
  5
2A6
330
295
100
AcDbEntity
  8
LC-009-003-----0
 62
     7
370
    25
100
AcDbLine
 10
1246.736845
 20
1976.993878
 30
0.0
 11
1253.263155
 21
1976.993878
 31
0.0
  0
LINE
  5
2A7
330
295
100
AcDbEntity
  8
LC-009-003-----0
 62
     7
370
    25
100
AcDbLine
 10
1252.414735
 20
1976.93827
 30
0.0
 11
1250.0
 21
1995.28
 31
0.0
  0
LINE
  5
2A8
330
295
100
AcDbEntity
  8
LC-009-003-----0
 62
     7
370
    25
100
AcDbLine
 10
1250.0
 20
1995.28
 30
0.0
 11
1247.585265
 21
1976.93827
 31
0.0
  0
LINE
  5
2A9
330
295
100
AcDbEntity
  8
LC-009-003-----0
 62
     7
370
    25
100
AcDbLine
 10
1251.566314
 20
1976.882661
 30
0.0
 11
1250.0
 21
1988.78
 31
0.0
  0
LINE
  5
2AA
330
295
100
AcDbEntity
  8
LC-009-003-----0
 62
     7
370
    25
100
AcDbLine
 10
1250.0
 20
1988.78
 30
0.0
 11
1248.433686
 21
1976.882661
 31
0.0
  0
LINE
  5
2AB
330
295
100
AcDbEntity
  8
LC-009-003-----0
 62
     7
370
    25
100
AcDbLine
 10
1250.717894
 20
1976.827053
 30
0.0
 11
1250.0
 21
1982.28
 31
0.0
  0
LINE
  5
2AC
330
295
100
AcDbEntity
  8
LC-009-003-----0
 62
     7
370
    25
100
AcDbLine
 10
1250.0
 20
1982.28
 30
0.0
 11
1249.282106
 21
1976.827053
 31
0.0
  0
TEXT
  5
2AD
330
295
100
AcDbEntity
  8
LC-009-003-----0
 62
     7
370
    25
100
AcDbText
 10
1235.0
 20
1718.519928
 30
0.0
 40
25.0
  1
500
 50
90.0
 41
0.7
  7
LCTX0-400-0-0pDIN-Schrift
 72
     1
 11
1235.0
 21
1743.519928
 31
0.0
100
AcDbText
  0
ENDBLK
  5
297
330
295
100
AcDbEntity
  8
0
100
AcDbBlockEnd
  0
BLOCK
  5
2B0
330
2AF
100
AcDbEntity
  8
0
100
AcDbBlockBegin
  2
LCDIM5
 70
     0
 71
     0
 10
0.0
 20
0.0
 30
0.0
  3
LCDIM5
  1

  4
LCDIM5
  0
LINE
  5
2B2
330
2AF
100
AcDbEntity
  8
LC-007-003-MTH-0
 62
     7
370
    25
100
AcDbLine
 10
374.895338
 20
2633.957171
 30
0.0
 11
374.895338
 21
2765.0
 31
0.0
  0
LINE
  5
2B3
330
2AF
100
AcDbEntity
  8
LC-007-003-MTH-0
 62
     7
370
    25
100
AcDbLine
 10
712.765924
 20
2633.957171
 30
0.0
 11
712.765924
 21
2765.0
 31
0.0
  0
LINE
  5
2B4
330
2AF
100
AcDbEntity
  8
LC-008-003-MTG-0
 62
     7
370
    25
100
AcDbLine
 10
374.895338
 20
2750.0
 30
0.0
 11
712.765924
 21
2750.0
 31
0.0
  0
LINE
  5
2B5
330
2AF
100
AcDbEntity
  8
LC-009-003-----0
 62
     7
370
    25
100
AcDbLine
 10
399.68146
 20
2753.263155
 30
0.0
 11
374.895338
 21
2750.0
 31
0.0
  0
LINE
  5
2B6
330
2AF
100
AcDbEntity
  8
LC-009-003-----0
 62
     7
370
    25
100
AcDbLine
 10
374.895338
 20
2750.0
 30
0.0
 11
399.68146
 21
2746.736845
 31
0.0
  0
LINE
  5
2B7
330
2AF
100
AcDbEntity
  8
LC-009-003-----0
 62
     7
370
    25
100
AcDbLine
 10
399.68146
 20
2746.736845
 30
0.0
 11
399.68146
 21
2753.263155
 31
0.0
  0
LINE
  5
2B8
330
2AF
100
AcDbEntity
  8
LC-009-003-----0
 62
     7
370
    25
100
AcDbLine
 10
399.737068
 20
2752.414735
 30
0.0
 11
381.395338
 21
2750.0
 31
0.0
  0
LINE
  5
2B9
330
2AF
100
AcDbEntity
  8
LC-009-003-----0
 62
     7
370
    25
100
AcDbLine
 10
381.395338
 20
2750.0
 30
0.0
 11
399.737068
 21
2747.585265
 31
0.0
  0
LINE
  5
2BA
330
2AF
100
AcDbEntity
  8
LC-009-003-----0
 62
     7
370
    25
100
AcDbLine
 10
399.792676
 20
2751.566314
 30
0.0
 11
387.895338
 21
2750.0
 31
0.0
  0
LINE
  5
2BB
330
2AF
100
AcDbEntity
  8
LC-009-003-----0
 62
     7
370
    25
100
AcDbLine
 10
387.895338
 20
2750.0
 30
0.0
 11
399.792676
 21
2748.433686
 31
0.0
  0
LINE
  5
2BC
330
2AF
100
AcDbEntity
  8
LC-009-003-----0
 62
     7
370
    25
100
AcDbLine
 10
399.848285
 20
2750.717894
 30
0.0
 11
394.395338
 21
2750.0
 31
0.0
  0
LINE
  5
2BD
330
2AF
100
AcDbEntity
  8
LC-009-003-----0
 62
     7
370
    25
100
AcDbLine
 10
394.395338
 20
2750.0
 30
0.0
 11
399.848285
 21
2749.282106
 31
0.0
  0
LINE
  5
2BE
330
2AF
100
AcDbEntity
  8
LC-009-003-----0
 62
     7
370
    25
100
AcDbLine
 10
687.979802
 20
2746.736845
 30
0.0
 11
712.765924
 21
2750.0
 31
0.0
  0
LINE
  5
2BF
330
2AF
100
AcDbEntity
  8
LC-009-003-----0
 62
     7
370
    25
100
AcDbLine
 10
712.765924
 20
2750.0
 30
0.0
 11
687.979802
 21
2753.263155
 31
0.0
  0
LINE
  5
2C0
330
2AF
100
AcDbEntity
  8
LC-009-003-----0
 62
     7
370
    25
100
AcDbLine
 10
687.979802
 20
2753.263155
 30
0.0
 11
687.979802
 21
2746.736845
 31
0.0
  0
LINE
  5
2C1
330
2AF
100
AcDbEntity
  8
LC-009-003-----0
 62
     7
370
    25
100
AcDbLine
 10
687.924193
 20
2747.585265
 30
0.0
 11
706.265923
 21
2750.0
 31
0.0
  0
LINE
  5
2C2
330
2AF
100
AcDbEntity
  8
LC-009-003-----0
 62
     7
370
    25
100
AcDbLine
 10
706.265923
 20
2750.0
 30
0.0
 11
687.924193
 21
2752.414735
 31
0.0
  0
LINE
  5
2C3
330
2AF
100
AcDbEntity
  8
LC-009-003-----0
 62
     7
370
    25
100
AcDbLine
 10
687.868585
 20
2748.433686
 30
0.0
 11
699.765923
 21
2750.0
 31
0.0
  0
LINE
  5
2C4
330
2AF
100
AcDbEntity
  8
LC-009-003-----0
 62
     7
370
    25
100
AcDbLine
 10
699.765923
 20
2750.0
 30
0.0
 11
687.868585
 21
2751.566314
 31
0.0
  0
LINE
  5
2C5
330
2AF
100
AcDbEntity
  8
LC-009-003-----0
 62
     7
370
    25
100
AcDbLine
 10
687.812976
 20
2749.282106
 30
0.0
 11
693.265923
 21
2750.0
 31
0.0
  0
LINE
  5
2C6
330
2AF
100
AcDbEntity
  8
LC-009-003-----0
 62
     7
370
    25
100
AcDbLine
 10
693.265923
 20
2750.0
 30
0.0
 11
687.812976
 21
2750.717894
 31
0.0
  0
TEXT
  5
2C7
330
2AF
100
AcDbEntity
  8
LC-009-003-----0
 62
     7
370
    25
100
AcDbText
 10
546.638077
 20
2765.0
 30
0.0
 40
25.0
  1
338
 41
0.7
  7
LCTX0-400-0-0pDIN-Schrift
 72
     1
 11
571.638077
 21
2765.0
 31
0.0
100
AcDbText
  0
ENDBLK
  5
2B1
330
2AF
100
AcDbEntity
  8
0
100
AcDbBlockEnd
  0
BLOCK
  5
2CA
330
2C9
100
AcDbEntity
  8
0
100
AcDbBlockBegin
  2
LCDIM6
 70
     0
 71
     0
 10
0.0
 20
0.0
 30
0.0
  3
LCDIM6
  1

  4
LCDIM6
  0
LINE
  5
2CC
330
2C9
100
AcDbEntity
  8
LC-007-003-MTH-0
 62
     7
370
    25
100
AcDbLine
 10
747.895338
 20
2633.957171
 30
0.0
 11
747.895338
 21
2765.0
 31
0.0
  0
LINE
  5
2CD
330
2C9
100
AcDbEntity
  8
LC-007-003-MTH-0
 62
     7
370
    25
100
AcDbLine
 10
1085.765924
 20
2633.957171
 30
0.0
 11
1085.765924
 21
2765.0
 31
0.0
  0
LINE
  5
2CE
330
2C9
100
AcDbEntity
  8
LC-008-003-MTG-0
 62
     7
370
    25
100
AcDbLine
 10
747.895338
 20
2750.0
 30
0.0
 11
1085.765924
 21
2750.0
 31
0.0
  0
LINE
  5
2CF
330
2C9
100
AcDbEntity
  8
LC-009-003-----0
 62
     7
370
    25
100
AcDbLine
 10
772.68146
 20
2753.263155
 30
0.0
 11
747.895338
 21
2750.0
 31
0.0
  0
LINE
  5
2D0
330
2C9
100
AcDbEntity
  8
LC-009-003-----0
 62
     7
370
    25
100
AcDbLine
 10
747.895338
 20
2750.0
 30
0.0
 11
772.68146
 21
2746.736845
 31
0.0
  0
LINE
  5
2D1
330
2C9
100
AcDbEntity
  8
LC-009-003-----0
 62
     7
370
    25
100
AcDbLine
 10
772.68146
 20
2746.736845
 30
0.0
 11
772.68146
 21
2753.263155
 31
0.0
  0
LINE
  5
2D2
330
2C9
100
AcDbEntity
  8
LC-009-003-----0
 62
     7
370
    25
100
AcDbLine
 10
772.737068
 20
2752.414735
 30
0.0
 11
754.395338
 21
2750.0
 31
0.0
  0
LINE
  5
2D3
330
2C9
100
AcDbEntity
  8
LC-009-003-----0
 62
     7
370
    25
100
AcDbLine
 10
754.395338
 20
2750.0
 30
0.0
 11
772.737068
 21
2747.585265
 31
0.0
  0
LINE
  5
2D4
330
2C9
100
AcDbEntity
  8
LC-009-003-----0
 62
     7
370
    25
100
AcDbLine
 10
772.792676
 20
2751.566314
 30
0.0
 11
760.895338
 21
2750.0
 31
0.0
  0
LINE
  5
2D5
330
2C9
100
AcDbEntity
  8
LC-009-003-----0
 62
     7
370
    25
100
AcDbLine
 10
760.895338
 20
2750.0
 30
0.0
 11
772.792676
 21
2748.433686
 31
0.0
  0
LINE
  5
2D6
330
2C9
100
AcDbEntity
  8
LC-009-003-----0
 62
     7
370
    25
100
AcDbLine
 10
772.848285
 20
2750.717894
 30
0.0
 11
767.395338
 21
2750.0
 31
0.0
  0
LINE
  5
2D7
330
2C9
100
AcDbEntity
  8
LC-009-003-----0
 62
     7
370
    25
100
AcDbLine
 10
767.395338
 20
2750.0
 30
0.0
 11
772.848285
 21
2749.282106
 31
0.0
  0
LINE
  5
2D8
330
2C9
100
AcDbEntity
  8
LC-009-003-----0
 62
     7
370
    25
100
AcDbLine
 10
1060.979802
 20
2746.736845
 30
0.0
 11
1085.765924
 21
2750.0
 31
0.0
  0
LINE
  5
2D9
330
2C9
100
AcDbEntity
  8
LC-009-003-----0
 62
     7
370
    25
100
AcDbLine
 10
1085.765924
 20
2750.0
 30
0.0
 11
1060.979802
 21
2753.263155
 31
0.0
  0
LINE
  5
2DA
330
2C9
100
AcDbEntity
  8
LC-009-003-----0
 62
     7
370
    25
100
AcDbLine
 10
1060.979802
 20
2753.263155
 30
0.0
 11
1060.979802
 21
2746.736845
 31
0.0
  0
LINE
  5
2DB
330
2C9
100
AcDbEntity
  8
LC-009-003-----0
 62
     7
370
    25
100
AcDbLine
 10
1060.924193
 20
2747.585265
 30
0.0
 11
1079.265923
 21
2750.0
 31
0.0
  0
LINE
  5
2DC
330
2C9
100
AcDbEntity
  8
LC-009-003-----0
 62
     7
370
    25
100
AcDbLine
 10
1079.265923
 20
2750.0
 30
0.0
 11
1060.924193
 21
2752.414735
 31
0.0
  0
LINE
  5
2DD
330
2C9
100
AcDbEntity
  8
LC-009-003-----0
 62
     7
370
    25
100
AcDbLine
 10
1060.868585
 20
2748.433686
 30
0.0
 11
1072.765923
 21
2750.0
 31
0.0
  0
LINE
  5
2DE
330
2C9
100
AcDbEntity
  8
LC-009-003-----0
 62
     7
370
    25
100
AcDbLine
 10
1072.765923
 20
2750.0
 30
0.0
 11
1060.868585
 21
2751.566314
 31
0.0
  0
LINE
  5
2DF
330
2C9
100
AcDbEntity
  8
LC-009-003-----0
 62
     7
370
    25
100
AcDbLine
 10
1060.812976
 20
2749.282106
 30
0.0
 11
1066.265923
 21
2750.0
 31
0.0
  0
LINE
  5
2E0
330
2C9
100
AcDbEntity
  8
LC-009-003-----0
 62
     7
370
    25
100
AcDbLine
 10
1066.265923
 20
2750.0
 30
0.0
 11
1060.812976
 21
2750.717894
 31
0.0
  0
TEXT
  5
2E1
330
2C9
100
AcDbEntity
  8
LC-009-003-----0
 62
     7
370
    25
100
AcDbText
 10
893.178864
 20
2765.0
 30
0.0
 40
25.0
  1
338
 41
0.7
  7
LCTX0-400-0-0pDIN-Schrift
 72
     1
 11
918.178864
 21
2765.0
 31
0.0
100
AcDbText
  0
ENDBLK
  5
2CB
330
2C9
100
AcDbEntity
  8
0
100
AcDbBlockEnd
  0
BLOCK
  5
2E9
330
2E8
100
AcDbEntity
  8
0
100
AcDbBlockBegin
  2
*X18
 70
     1
 71
     0
 10
0.0
 20
0.0
 30
0.0
  3
*X18
  1

  4
*X1
  0
LINE
  5
2EC
330
2E8
100
AcDbEntity
  8
LC-011-005-----0
 62
     7
370
    25
100
AcDbLine
 10
1159.832166
 20
2602.33
 30
0.0
 11
1197.832166
 21
2640.33
 31
0.0
  0
LINE
  5
2ED
330
2E8
100
AcDbEntity
  8
LC-011-005-----0
 62
     7
370
    25
100
AcDbLine
 10
1117.40576
 20
2602.33
 30
0.0
 11
1155.40576
 21
2640.33
 31
0.0
  0
ENDBLK
  5
2EA
330
2E8
100
AcDbEntity
  8
0
100
AcDbBlockEnd
  0
BLOCK
  5
2F7
330
2F6
100
AcDbEntity
  8
0
100
AcDbBlockBegin
  2
LCDIM7
 70
     0
 71
     0
 10
0.0
 20
0.0
 30
0.0
  3
LCDIM7
  1

  4
LCDIM7
  0
LINE
  5
2F9
330
2F6
100
AcDbEntity
  8
LC-007-003-MTH-0
 62
     7
370
    25
100
AcDbLine
 10
330.330631
 20
2493.849812
 30
0.0
 11
330.330631
 21
2235.0
 31
0.0
  0
LINE
  5
2FA
330
2F6
100
AcDbEntity
  8
LC-007-003-MTH-0
 62
     7
370
    25
100
AcDbLine
 10
1130.330631
 20
2493.849812
 30
0.0
 11
1130.330631
 21
2235.0
 31
0.0
  0
LINE
  5
2FB
330
2F6
100
AcDbEntity
  8
LC-008-003-MTG-0
 62
     7
370
    25
100
AcDbLine
 10
330.330631
 20
2250.0
 30
0.0
 11
1130.330631
 21
2250.0
 31
0.0
  0
LINE
  5
2FC
330
2F6
100
AcDbEntity
  8
LC-009-003-----0
 62
     7
370
    25
100
AcDbLine
 10
355.116753
 20
2253.263155
 30
0.0
 11
330.330631
 21
2250.0
 31
0.0
  0
LINE
  5
2FD
330
2F6
100
AcDbEntity
  8
LC-009-003-----0
 62
     7
370
    25
100
AcDbLine
 10
330.330631
 20
2250.0
 30
0.0
 11
355.116753
 21
2246.736845
 31
0.0
  0
LINE
  5
2FE
330
2F6
100
AcDbEntity
  8
LC-009-003-----0
 62
     7
370
    25
100
AcDbLine
 10
355.116753
 20
2246.736845
 30
0.0
 11
355.116753
 21
2253.263155
 31
0.0
  0
LINE
  5
2FF
330
2F6
100
AcDbEntity
  8
LC-009-003-----0
 62
     7
370
    25
100
AcDbLine
 10
355.172361
 20
2252.414735
 30
0.0
 11
336.830631
 21
2250.0
 31
0.0
  0
LINE
  5
300
330
2F6
100
AcDbEntity
  8
LC-009-003-----0
 62
     7
370
    25
100
AcDbLine
 10
336.830631
 20
2250.0
 30
0.0
 11
355.172361
 21
2247.585265
 31
0.0
  0
LINE
  5
301
330
2F6
100
AcDbEntity
  8
LC-009-003-----0
 62
     7
370
    25
100
AcDbLine
 10
355.227969
 20
2251.566314
 30
0.0
 11
343.330631
 21
2250.0
 31
0.0
  0
LINE
  5
302
330
2F6
100
AcDbEntity
  8
LC-009-003-----0
 62
     7
370
    25
100
AcDbLine
 10
343.330631
 20
2250.0
 30
0.0
 11
355.227969
 21
2248.433686
 31
0.0
  0
LINE
  5
303
330
2F6
100
AcDbEntity
  8
LC-009-003-----0
 62
     7
370
    25
100
AcDbLine
 10
355.283578
 20
2250.717894
 30
0.0
 11
349.830631
 21
2250.0
 31
0.0
  0
LINE
  5
304
330
2F6
100
AcDbEntity
  8
LC-009-003-----0
 62
     7
370
    25
100
AcDbLine
 10
349.830631
 20
2250.0
 30
0.0
 11
355.283578
 21
2249.282106
 31
0.0
  0
LINE
  5
305
330
2F6
100
AcDbEntity
  8
LC-009-003-----0
 62
     7
370
    25
100
AcDbLine
 10
1105.544509
 20
2246.736845
 30
0.0
 11
1130.330631
 21
2250.0
 31
0.0
  0
LINE
  5
306
330
2F6
100
AcDbEntity
  8
LC-009-003-----0
 62
     7
370
    25
100
AcDbLine
 10
1130.330631
 20
2250.0
 30
0.0
 11
1105.544509
 21
2253.263155
 31
0.0
  0
LINE
  5
307
330
2F6
100
AcDbEntity
  8
LC-009-003-----0
 62
     7
370
    25
100
AcDbLine
 10
1105.544509
 20
2253.263155
 30
0.0
 11
1105.544509
 21
2246.736845
 31
0.0
  0
LINE
  5
308
330
2F6
100
AcDbEntity
  8
LC-009-003-----0
 62
     7
370
    25
100
AcDbLine
 10
1105.4889
 20
2247.585265
 30
0.0
 11
1123.830631
 21
2250.0
 31
0.0
  0
LINE
  5
309
330
2F6
100
AcDbEntity
  8
LC-009-003-----0
 62
     7
370
    25
100
AcDbLine
 10
1123.830631
 20
2250.0
 30
0.0
 11
1105.4889
 21
2252.414735
 31
0.0
  0
LINE
  5
30A
330
2F6
100
AcDbEntity
  8
LC-009-003-----0
 62
     7
370
    25
100
AcDbLine
 10
1105.433292
 20
2248.433686
 30
0.0
 11
1117.33063
 21
2250.0
 31
0.0
  0
LINE
  5
30B
330
2F6
100
AcDbEntity
  8
LC-009-003-----0
 62
     7
370
    25
100
AcDbLine
 10
1117.33063
 20
2250.0
 30
0.0
 11
1105.433292
 21
2251.566314
 31
0.0
  0
LINE
  5
30C
330
2F6
100
AcDbEntity
  8
LC-009-003-----0
 62
     7
370
    25
100
AcDbLine
 10
1105.377684
 20
2249.282106
 30
0.0
 11
1110.83063
 21
2250.0
 31
0.0
  0
LINE
  5
30D
330
2F6
100
AcDbEntity
  8
LC-009-003-----0
 62
     7
370
    25
100
AcDbLine
 10
1110.83063
 20
2250.0
 30
0.0
 11
1105.377684
 21
2250.717894
 31
0.0
  0
TEXT
  5
30E
330
2F6
100
AcDbEntity
  8
LC-009-003-----0
 62
     7
370
    25
100
AcDbText
 10
824.024981
 20
2265.0
 30
0.0
 40
25.0
  1
800
 41
0.7
  7
LCTX0-400-0-0pDIN-Schrift
 72
     1
 11
849.024981
 21
2265.0
 31
0.0
100
AcDbText
  0
ENDBLK
  5
2F8
330
2F6
100
AcDbEntity
  8
0
100
AcDbBlockEnd
  0
BLOCK
  5
31C
330
31B
100
AcDbEntity
  8
0
100
AcDbBlockBegin
  2
LCDIM8
 70
     0
 71
     0
 10
0.0
 20
0.0
 30
0.0
  3
LCDIM8
  1

  4
LCDIM8
  0
TEXT
  5
31E
330
31B
100
AcDbEntity
  8
LC-009-003-----0
 62
     7
370
    25
100
AcDbText
 10
430.227268
 20
888.344871
 30
0.0
 40
25.0
  1
R10
 50
34.280006
 41
0.7
  7
LCTX0-400-0-0pDIN-Schrift
100
AcDbText
  0
LINE
  5
31F
330
31B
100
AcDbEntity
  8
LC-008-003-MTG-0
 62
     7
370
    25
100
AcDbLine
 10
465.461602
 20
894.208766
 30
0.0
 11
390.817839
 21
843.328403
 31
0.0
  0
LINE
  5
320
330
31B
100
AcDbEntity
  8
LC-009-003-----0
 62
     7
370
    25
100
AcDbLine
 10
409.460553
 20
859.98521
 30
0.0
 11
390.817839
 21
843.328403
 31
0.0
  0
LINE
  5
321
330
31B
100
AcDbEntity
  8
LC-009-003-----0
 62
     7
370
    25
100
AcDbLine
 10
390.817839
 20
843.328403
 30
0.0
 11
413.136416
 21
854.592554
 31
0.0
  0
LINE
  5
322
330
31B
100
AcDbEntity
  8
LC-009-003-----0
 62
     7
370
    25
100
AcDbLine
 10
413.136416
 20
854.592554
 30
0.0
 11
409.460553
 21
859.98521
 31
0.0
  0
LINE
  5
323
330
31B
100
AcDbEntity
  8
LC-009-003-----0
 62
     7
370
    25
100
AcDbLine
 10
409.984364
 20
859.315486
 30
0.0
 11
396.188756
 21
846.989448
 31
0.0
  0
LINE
  5
324
330
31B
100
AcDbEntity
  8
LC-009-003-----0
 62
     7
370
    25
100
AcDbLine
 10
396.188756
 20
846.989448
 30
0.0
 11
412.704503
 21
855.32492
 31
0.0
  0
LINE
  5
325
330
31B
100
AcDbEntity
  8
LC-009-003-----0
 62
     7
370
    25
100
AcDbLine
 10
410.508175
 20
858.645761
 30
0.0
 11
401.559672
 21
850.650494
 31
0.0
  0
LINE
  5
326
330
31B
100
AcDbEntity
  8
LC-009-003-----0
 62
     7
370
    25
100
AcDbLine
 10
401.559672
 20
850.650494
 30
0.0
 11
412.27259
 21
856.057286
 31
0.0
  0
LINE
  5
327
330
31B
100
AcDbEntity
  8
LC-009-003-----0
 62
     7
370
    25
100
AcDbLine
 10
411.031986
 20
857.976036
 30
0.0
 11
406.930589
 21
854.311539
 31
0.0
  0
LINE
  5
328
330
31B
100
AcDbEntity
  8
LC-009-003-----0
 62
     7
370
    25
100
AcDbLine
 10
406.930589
 20
854.311539
 30
0.0
 11
411.840676
 21
856.789652
 31
0.0
  0
ENDBLK
  5
31D
330
31B
100
AcDbEntity
  8
0
100
AcDbBlockEnd
  0
BLOCK
  5
32B
330
32A
100
AcDbEntity
  8
0
100
AcDbBlockBegin
  2
LCDIM9
 70
     0
 71
     0
 10
0.0
 20
0.0
 30
0.0
  3
LCDIM9
  1

  4
LCDIM9
  0
LINE
  5
32D
330
32A
100
AcDbEntity
  8
LC-007-003-MTH-0
 62
     7
370
    25
100
AcDbLine
 10
389.949313
 20
846.144592
 30
0.0
 11
389.949313
 21
759.901968
 31
0.0
  0
LINE
  5
32E
330
32A
100
AcDbEntity
  8
LC-007-003-MTH-0
 62
     7
370
    25
100
AcDbLine
 10
774.949313
 20
846.144592
 30
0.0
 11
774.949313
 21
759.901968
 31
0.0
  0
LINE
  5
32F
330
32A
100
AcDbEntity
  8
LC-008-003-MTG-0
 62
     7
370
    25
100
AcDbLine
 10
389.949313
 20
774.901968
 30
0.0
 11
774.949313
 21
774.901968
 31
0.0
  0
LINE
  5
330
330
32A
100
AcDbEntity
  8
LC-009-003-----0
 62
     7
370
    25
100
AcDbLine
 10
414.735435
 20
778.165123
 30
0.0
 11
389.949313
 21
774.901968
 31
0.0
  0
LINE
  5
331
330
32A
100
AcDbEntity
  8
LC-009-003-----0
 62
     7
370
    25
100
AcDbLine
 10
389.949313
 20
774.901968
 30
0.0
 11
414.735435
 21
771.638813
 31
0.0
  0
LINE
  5
332
330
32A
100
AcDbEntity
  8
LC-009-003-----0
 62
     7
370
    25
100
AcDbLine
 10
414.735435
 20
771.638813
 30
0.0
 11
414.735435
 21
778.165123
 31
0.0
  0
LINE
  5
333
330
32A
100
AcDbEntity
  8
LC-009-003-----0
 62
     7
370
    25
100
AcDbLine
 10
414.791044
 20
777.316702
 30
0.0
 11
396.449313
 21
774.901968
 31
0.0
  0
LINE
  5
334
330
32A
100
AcDbEntity
  8
LC-009-003-----0
 62
     7
370
    25
100
AcDbLine
 10
396.449313
 20
774.901968
 30
0.0
 11
414.791044
 21
772.487233
 31
0.0
  0
LINE
  5
335
330
32A
100
AcDbEntity
  8
LC-009-003-----0
 62
     7
370
    25
100
AcDbLine
 10
414.846652
 20
776.468282
 30
0.0
 11
402.949313
 21
774.901968
 31
0.0
  0
LINE
  5
336
330
32A
100
AcDbEntity
  8
LC-009-003-----0
 62
     7
370
    25
100
AcDbLine
 10
402.949313
 20
774.901968
 30
0.0
 11
414.846652
 21
773.335653
 31
0.0
  0
LINE
  5
337
330
32A
100
AcDbEntity
  8
LC-009-003-----0
 62
     7
370
    25
100
AcDbLine
 10
414.90226
 20
775.619862
 30
0.0
 11
409.449314
 21
774.901968
 31
0.0
  0
LINE
  5
338
330
32A
100
AcDbEntity
  8
LC-009-003-----0
 62
     7
370
    25
100
AcDbLine
 10
409.449314
 20
774.901968
 30
0.0
 11
414.90226
 21
774.184074
 31
0.0
  0
LINE
  5
339
330
32A
100
AcDbEntity
  8
LC-009-003-----0
 62
     7
370
    25
100
AcDbLine
 10
750.163191
 20
771.638813
 30
0.0
 11
774.949313
 21
774.901968
 31
0.0
  0
LINE
  5
33A
330
32A
100
AcDbEntity
  8
LC-009-003-----0
 62
     7
370
    25
100
AcDbLine
 10
774.949313
 20
774.901968
 30
0.0
 11
750.163191
 21
778.165123
 31
0.0
  0
LINE
  5
33B
330
32A
100
AcDbEntity
  8
LC-009-003-----0
 62
     7
370
    25
100
AcDbLine
 10
750.163191
 20
778.165123
 30
0.0
 11
750.163191
 21
771.638813
 31
0.0
  0
LINE
  5
33C
330
32A
100
AcDbEntity
  8
LC-009-003-----0
 62
     7
370
    25
100
AcDbLine
 10
750.107583
 20
772.487233
 30
0.0
 11
768.449313
 21
774.901968
 31
0.0
  0
LINE
  5
33D
330
32A
100
AcDbEntity
  8
LC-009-003-----0
 62
     7
370
    25
100
AcDbLine
 10
768.449313
 20
774.901968
 30
0.0
 11
750.107583
 21
777.316702
 31
0.0
  0
LINE
  5
33E
330
32A
100
AcDbEntity
  8
LC-009-003-----0
 62
     7
370
    25
100
AcDbLine
 10
750.051975
 20
773.335653
 30
0.0
 11
761.949313
 21
774.901968
 31
0.0
  0
LINE
  5
33F
330
32A
100
AcDbEntity
  8
LC-009-003-----0
 62
     7
370
    25
100
AcDbLine
 10
761.949313
 20
774.901968
 30
0.0
 11
750.051975
 21
776.468282
 31
0.0
  0
LINE
  5
340
330
32A
100
AcDbEntity
  8
LC-009-003-----0
 62
     7
370
    25
100
AcDbLine
 10
749.996366
 20
774.184074
 30
0.0
 11
755.449313
 21
774.901968
 31
0.0
  0
LINE
  5
341
330
32A
100
AcDbEntity
  8
LC-009-003-----0
 62
     7
370
    25
100
AcDbLine
 10
755.449313
 20
774.901968
 30
0.0
 11
749.996366
 21
775.619862
 31
0.0
  0
TEXT
  5
342
330
32A
100
AcDbEntity
  8
LC-009-003-----0
 62
     7
370
    25
100
AcDbText
 10
547.842405
 20
789.901968
 30
0.0
 40
25.0
  1
770
 41
0.7
  7
LCTX0-400-0-0pDIN-Schrift
 72
     1
 11
572.842405
 21
789.901968
 31
0.0
100
AcDbText
  0
ENDBLK
  5
32C
330
32A
100
AcDbEntity
  8
0
100
AcDbBlockEnd
  0
BLOCK
  5
345
330
344
100
AcDbEntity
  8
0
100
AcDbBlockBegin
  2
LCDIM10
 70
     0
 71
     0
 10
0.0
 20
0.0
 30
0.0
  3
LCDIM10
  1

  4
LCDIM10
  0
LINE
  5
347
330
344
100
AcDbEntity
  8
LC-007-003-MTH-0
 62
     7
370
    25
100
AcDbLine
 10
769.949313
 20
841.144592
 30
0.0
 11
865.0
 21
841.144592
 31
0.0
  0
LINE
  5
348
330
344
100
AcDbEntity
  8
LC-007-003-MTH-0
 62
     7
370
    25
100
AcDbLine
 10
769.949313
 20
1081.144592
 30
0.0
 11
865.0
 21
1081.144592
 31
0.0
  0
LINE
  5
349
330
344
100
AcDbEntity
  8
LC-008-003-MTG-0
 62
     7
370
    25
100
AcDbLine
 10
850.0
 20
841.144592
 30
0.0
 11
850.0
 21
1081.144592
 31
0.0
  0
LINE
  5
34A
330
344
100
AcDbEntity
  8
LC-009-003-----0
 62
     7
370
    25
100
AcDbLine
 10
846.736845
 20
865.930714
 30
0.0
 11
850.0
 21
841.144592
 31
0.0
  0
LINE
  5
34B
330
344
100
AcDbEntity
  8
LC-009-003-----0
 62
     7
370
    25
100
AcDbLine
 10
850.0
 20
841.144592
 30
0.0
 11
853.263155
 21
865.930714
 31
0.0
  0
LINE
  5
34C
330
344
100
AcDbEntity
  8
LC-009-003-----0
 62
     7
370
    25
100
AcDbLine
 10
853.263155
 20
865.930714
 30
0.0
 11
846.736845
 21
865.930714
 31
0.0
  0
LINE
  5
34D
330
344
100
AcDbEntity
  8
LC-009-003-----0
 62
     7
370
    25
100
AcDbLine
 10
847.585265
 20
865.986322
 30
0.0
 11
850.0
 21
847.644592
 31
0.0
  0
LINE
  5
34E
330
344
100
AcDbEntity
  8
LC-009-003-----0
 62
     7
370
    25
100
AcDbLine
 10
850.0
 20
847.644592
 30
0.0
 11
852.414735
 21
865.986322
 31
0.0
  0
LINE
  5
34F
330
344
100
AcDbEntity
  8
LC-009-003-----0
 62
     7
370
    25
100
AcDbLine
 10
848.433686
 20
866.04193
 30
0.0
 11
850.0
 21
854.144592
 31
0.0
  0
LINE
  5
350
330
344
100
AcDbEntity
  8
LC-009-003-----0
 62
     7
370
    25
100
AcDbLine
 10
850.0
 20
854.144592
 30
0.0
 11
851.566314
 21
866.04193
 31
0.0
  0
LINE
  5
351
330
344
100
AcDbEntity
  8
LC-009-003-----0
 62
     7
370
    25
100
AcDbLine
 10
849.282106
 20
866.097539
 30
0.0
 11
850.0
 21
860.644592
 31
0.0
  0
LINE
  5
352
330
344
100
AcDbEntity
  8
LC-009-003-----0
 62
     7
370
    25
100
AcDbLine
 10
850.0
 20
860.644592
 30
0.0
 11
850.717894
 21
866.097539
 31
0.0
  0
LINE
  5
353
330
344
100
AcDbEntity
  8
LC-009-003-----0
 62
     7
370
    25
100
AcDbLine
 10
853.263155
 20
1056.35847
 30
0.0
 11
850.0
 21
1081.144592
 31
0.0
  0
LINE
  5
354
330
344
100
AcDbEntity
  8
LC-009-003-----0
 62
     7
370
    25
100
AcDbLine
 10
850.0
 20
1081.144592
 30
0.0
 11
846.736845
 21
1056.35847
 31
0.0
  0
LINE
  5
355
330
344
100
AcDbEntity
  8
LC-009-003-----0
 62
     7
370
    25
100
AcDbLine
 10
846.736845
 20
1056.35847
 30
0.0
 11
853.263155
 21
1056.35847
 31
0.0
  0
LINE
  5
356
330
344
100
AcDbEntity
  8
LC-009-003-----0
 62
     7
370
    25
100
AcDbLine
 10
852.414735
 20
1056.302861
 30
0.0
 11
850.0
 21
1074.644592
 31
0.0
  0
LINE
  5
357
330
344
100
AcDbEntity
  8
LC-009-003-----0
 62
     7
370
    25
100
AcDbLine
 10
850.0
 20
1074.644592
 30
0.0
 11
847.585265
 21
1056.302861
 31
0.0
  0
LINE
  5
358
330
344
100
AcDbEntity
  8
LC-009-003-----0
 62
     7
370
    25
100
AcDbLine
 10
851.566314
 20
1056.247253
 30
0.0
 11
850.0
 21
1068.144591
 31
0.0
  0
LINE
  5
359
330
344
100
AcDbEntity
  8
LC-009-003-----0
 62
     7
370
    25
100
AcDbLine
 10
850.0
 20
1068.144591
 30
0.0
 11
848.433686
 21
1056.247253
 31
0.0
  0
LINE
  5
35A
330
344
100
AcDbEntity
  8
LC-009-003-----0
 62
     7
370
    25
100
AcDbLine
 10
850.717894
 20
1056.191645
 30
0.0
 11
850.0
 21
1061.644591
 31
0.0
  0
LINE
  5
35B
330
344
100
AcDbEntity
  8
LC-009-003-----0
 62
     7
370
    25
100
AcDbLine
 10
850.0
 20
1061.644591
 30
0.0
 11
849.282106
 21
1056.191645
 31
0.0
  0
TEXT
  5
35C
330
344
100
AcDbEntity
  8
LC-009-003-----0
 62
     7
370
    25
100
AcDbText
 10
835.0
 20
937.625425
 30
0.0
 40
25.0
  1
480
 50
90.0
 41
0.7
  7
LCTX0-400-0-0pDIN-Schrift
 72
     1
 11
835.0
 21
962.625425
 31
0.0
100
AcDbText
  0
ENDBLK
  5
346
330
344
100
AcDbEntity
  8
0
100
AcDbBlockEnd
  0
BLOCK
  5
366
330
365
100
AcDbEntity
  8
0
100
AcDbBlockBegin
  2
*X213
 70
     1
 71
     0
 10
0.0
 20
0.0
 30
0.0
  3
*X213
  1

  4
*X2
  0
LINE
  5
368
330
365
100
AcDbEntity
  8
LC-011-005-----0
 62
     7
370
    25
100
AcDbLine
 10
257.562799
 20
2627.432868
 30
0.0
 11
282.665667
 21
2602.33
 31
0.0
  0
LINE
  5
369
330
365
100
AcDbEntity
  8
LC-011-005-----0
 62
     7
370
    25
100
AcDbLine
 10
287.092074
 20
2640.33
 30
0.0
 11
325.092074
 21
2602.33
 31
0.0
  0
LINE
  5
36A
330
365
100
AcDbEntity
  8
LC-011-005-----0
 62
     7
370
    25
100
AcDbLine
 10
329.518481
 20
2640.33
 30
0.0
 11
345.330631
 21
2624.51785
 31
0.0
  0
ENDBLK
  5
367
330
365
100
AcDbEntity
  8
0
100
AcDbBlockEnd
  0
BLOCK
  5
383
330
382
100
AcDbEntity
  8
0
100
AcDbBlockBegin
  2
POLY1
 70
     0
 71
     0
 10
0.0
 20
0.0
 30
0.0
  3
POLY1
  1

  4
POLY1
  0
LINE
  5
385
330
382
100
AcDbEntity
  8
LC-002-002-----0
 62
     7
370
    25
100
AcDbLine
 10
739.892566
 20
2580.947032
 30
0.0
 11
739.892566
 21
2580.947032
 31
0.0
  0
LINE
  5
386
330
382
100
AcDbEntity
  8
LC-002-002-----0
 62
     7
370
    25
100
AcDbLine
 10
739.892566
 20
2580.947032
 30
0.0
 11
739.93373
 21
2580.732099
 31
0.0
  0
LINE
  5
387
330
382
100
AcDbEntity
  8
LC-002-002-----0
 62
     7
370
    25
100
AcDbLine
 10
739.93373
 20
2580.732099
 30
0.0
 11
739.93373
 21
2580.732099
 31
0.0
  0
LINE
  5
388
330
382
100
AcDbEntity
  8
LC-002-002-----0
 62
     7
370
    25
100
AcDbLine
 10
739.93373
 20
2580.732099
 30
0.0
 11
740.006798
 21
2580.517137
 31
0.0
  0
LINE
  5
389
330
382
100
AcDbEntity
  8
LC-002-002-----0
 62
     7
370
    25
100
AcDbLine
 10
740.006798
 20
2580.517137
 30
0.0
 11
740.006798
 21
2580.517137
 31
0.0
  0
LINE
  5
38A
330
382
100
AcDbEntity
  8
LC-002-002-----0
 62
     7
370
    25
100
AcDbLine
 10
740.006798
 20
2580.517137
 30
0.0
 11
740.103339
 21
2580.311628
 31
0.0
  0
LINE
  5
38B
330
382
100
AcDbEntity
  8
LC-002-002-----0
 62
     7
370
    25
100
AcDbLine
 10
740.103339
 20
2580.311628
 30
0.0
 11
740.103339
 21
2580.311628
 31
0.0
  0
LINE
  5
38C
330
382
100
AcDbEntity
  8
LC-002-002-----0
 62
     7
370
    25
100
AcDbLine
 10
740.103339
 20
2580.311628
 30
0.0
 11
740.217926
 21
2580.117528
 31
0.0
  0
LINE
  5
38D
330
382
100
AcDbEntity
  8
LC-002-002-----0
 62
     7
370
    25
100
AcDbLine
 10
740.217926
 20
2580.117528
 30
0.0
 11
740.217926
 21
2580.117528
 31
0.0
  0
LINE
  5
38E
330
382
100
AcDbEntity
  8
LC-002-002-----0
 62
     7
370
    25
100
AcDbLine
 10
740.217926
 20
2580.117528
 30
0.0
 11
740.344233
 21
2579.937826
 31
0.0
  0
LINE
  5
38F
330
382
100
AcDbEntity
  8
LC-002-002-----0
 62
     7
370
    25
100
AcDbLine
 10
740.344233
 20
2579.937826
 30
0.0
 11
740.344233
 21
2579.937826
 31
0.0
  0
LINE
  5
390
330
382
100
AcDbEntity
  8
LC-002-002-----0
 62
     7
370
    25
100
AcDbLine
 10
740.344233
 20
2579.937826
 30
0.0
 11
740.479981
 21
2579.771651
 31
0.0
  0
LINE
  5
391
330
382
100
AcDbEntity
  8
LC-002-002-----0
 62
     7
370
    25
100
AcDbLine
 10
740.479981
 20
2579.771651
 30
0.0
 11
740.479981
 21
2579.771651
 31
0.0
  0
LINE
  5
392
330
382
100
AcDbEntity
  8
LC-002-002-----0
 62
     7
370
    25
100
AcDbLine
 10
740.479981
 20
2579.771651
 30
0.0
 11
740.623824
 21
2579.619467
 31
0.0
  0
LINE
  5
393
330
382
100
AcDbEntity
  8
LC-002-002-----0
 62
     7
370
    25
100
AcDbLine
 10
740.623824
 20
2579.619467
 30
0.0
 11
740.623824
 21
2579.619467
 31
0.0
  0
LINE
  5
394
330
382
100
AcDbEntity
  8
LC-002-002-----0
 62
     7
370
    25
100
AcDbLine
 10
740.623824
 20
2579.619467
 30
0.0
 11
740.773541
 21
2579.482882
 31
0.0
  0
LINE
  5
395
330
382
100
AcDbEntity
  8
LC-002-002-----0
 62
     7
370
    25
100
AcDbLine
 10
740.773541
 20
2579.482882
 30
0.0
 11
740.773541
 21
2579.482882
 31
0.0
  0
LINE
  5
396
330
382
100
AcDbEntity
  8
LC-002-002-----0
 62
     7
370
    25
100
AcDbLine
 10
740.773541
 20
2579.482882
 30
0.0
 11
740.925531
 21
2579.364001
 31
0.0
  0
LINE
  5
397
330
382
100
AcDbEntity
  8
LC-002-002-----0
 62
     7
370
    25
100
AcDbLine
 10
740.925531
 20
2579.364001
 30
0.0
 11
740.925531
 21
2579.364001
 31
0.0
  0
LINE
  5
398
330
382
100
AcDbEntity
  8
LC-002-002-----0
 62
     7
370
    25
100
AcDbLine
 10
740.925531
 20
2579.364001
 30
0.0
 11
741.074885
 21
2579.264787
 31
0.0
  0
ENDBLK
  5
384
330
382
100
AcDbEntity
  8
0
100
AcDbBlockEnd
  0
BLOCK
  5
39B
330
39A
100
AcDbEntity
  8
0
100
AcDbBlockBegin
  2
POLY2
 70
     0
 71
     0
 10
0.0
 20
0.0
 30
0.0
  3
POLY2
  1

  4
POLY2
  0
LINE
  5
39D
330
39A
100
AcDbEntity
  8
LC-002-002-----0
 62
     7
370
    25
100
AcDbLine
 10
741.61271
 20
2578.931111
 30
0.0
 11
741.61271
 21
2578.931111
 31
0.0
  0
LINE
  5
39E
330
39A
100
AcDbEntity
  8
LC-002-002-----0
 62
     7
370
    25
100
AcDbLine
 10
741.61271
 20
2578.931111
 30
0.0
 11
741.553258
 21
2578.968733
 31
0.0
  0
LINE
  5
39F
330
39A
100
AcDbEntity
  8
LC-002-002-----0
 62
     7
370
    25
100
AcDbLine
 10
741.553258
 20
2578.968733
 30
0.0
 11
741.553258
 21
2578.968733
 31
0.0
  0
LINE
  5
3A0
330
39A
100
AcDbEntity
  8
LC-002-002-----0
 62
     7
370
    25
100
AcDbLine
 10
741.553258
 20
2578.968733
 30
0.0
 11
741.374115
 21
2579.080641
 31
0.0
  0
LINE
  5
3A1
330
39A
100
AcDbEntity
  8
LC-002-002-----0
 62
     7
370
    25
100
AcDbLine
 10
741.374115
 20
2579.080641
 30
0.0
 11
741.374115
 21
2579.080641
 31
0.0
  0
LINE
  5
3A2
330
39A
100
AcDbEntity
  8
LC-002-002-----0
 62
     7
370
    25
100
AcDbLine
 10
741.374115
 20
2579.080641
 30
0.0
 11
741.074885
 21
2579.264787
 31
0.0
  0
ENDBLK
  5
39C
330
39A
100
AcDbEntity
  8
0
100
AcDbBlockEnd
  0
BLOCK
  5
3A5
330
3A4
100
AcDbEntity
  8
0
100
AcDbBlockBegin
  2
POLY3
 70
     0
 71
     0
 10
0.0
 20
0.0
 30
0.0
  3
POLY3
  1

  4
POLY3
  0
LINE
  5
3A7
330
3A4
100
AcDbEntity
  8
LC-002-002-----0
 62
     7
370
    25
100
AcDbLine
 10
724.133899
 20
2573.592705
 30
0.0
 11
724.133899
 21
2573.592705
 31
0.0
  0
LINE
  5
3A8
330
3A4
100
AcDbEntity
  8
LC-002-002-----0
 62
     7
370
    25
100
AcDbLine
 10
724.133899
 20
2573.592705
 30
0.0
 11
724.117006
 21
2573.467905
 31
0.0
  0
LINE
  5
3A9
330
3A4
100
AcDbEntity
  8
LC-002-002-----0
 62
     7
370
    25
100
AcDbLine
 10
724.117006
 20
2573.467905
 30
0.0
 11
724.117006
 21
2573.467905
 31
0.0
  0
LINE
  5
3AA
330
3A4
100
AcDbEntity
  8
LC-002-002-----0
 62
     7
370
    25
100
AcDbLine
 10
724.117006
 20
2573.467905
 30
0.0
 11
724.112703
 21
2573.408899
 31
0.0
  0
LINE
  5
3AB
330
3A4
100
AcDbEntity
  8
LC-002-002-----0
 62
     7
370
    25
100
AcDbLine
 10
724.112703
 20
2573.408899
 30
0.0
 11
724.112703
 21
2573.408899
 31
0.0
  0
LINE
  5
3AC
330
3A4
100
AcDbEntity
  8
LC-002-002-----0
 62
     7
370
    25
100
AcDbLine
 10
724.112703
 20
2573.408899
 30
0.0
 11
724.110732
 21
2573.349769
 31
0.0
  0
LINE
  5
3AD
330
3A4
100
AcDbEntity
  8
LC-002-002-----0
 62
     7
370
    25
100
AcDbLine
 10
724.110732
 20
2573.349769
 30
0.0
 11
724.110732
 21
2573.349769
 31
0.0
  0
LINE
  5
3AE
330
3A4
100
AcDbEntity
  8
LC-002-002-----0
 62
     7
370
    25
100
AcDbLine
 10
724.110732
 20
2573.349769
 30
0.0
 11
724.111093
 21
2573.290607
 31
0.0
  0
LINE
  5
3AF
330
3A4
100
AcDbEntity
  8
LC-002-002-----0
 62
     7
370
    25
100
AcDbLine
 10
724.111093
 20
2573.290607
 30
0.0
 11
724.111093
 21
2573.290607
 31
0.0
  0
LINE
  5
3B0
330
3A4
100
AcDbEntity
  8
LC-002-002-----0
 62
     7
370
    25
100
AcDbLine
 10
724.111093
 20
2573.290607
 30
0.0
 11
724.113787
 21
2573.231506
 31
0.0
  0
LINE
  5
3B1
330
3A4
100
AcDbEntity
  8
LC-002-002-----0
 62
     7
370
    25
100
AcDbLine
 10
724.113787
 20
2573.231506
 30
0.0
 11
724.113787
 21
2573.231506
 31
0.0
  0
LINE
  5
3B2
330
3A4
100
AcDbEntity
  8
LC-002-002-----0
 62
     7
370
    25
100
AcDbLine
 10
724.113787
 20
2573.231506
 30
0.0
 11
724.11881
 21
2573.172557
 31
0.0
  0
LINE
  5
3B3
330
3A4
100
AcDbEntity
  8
LC-002-002-----0
 62
     7
370
    25
100
AcDbLine
 10
724.11881
 20
2573.172557
 30
0.0
 11
724.11881
 21
2573.172557
 31
0.0
  0
LINE
  5
3B4
330
3A4
100
AcDbEntity
  8
LC-002-002-----0
 62
     7
370
    25
100
AcDbLine
 10
724.11881
 20
2573.172557
 30
0.0
 11
724.172403
 21
2572.903552
 31
0.0
  0
ENDBLK
  5
3A6
330
3A4
100
AcDbEntity
  8
0
100
AcDbBlockEnd
  0
BLOCK
  5
3CB
330
3CA
100
AcDbEntity
  8
0
100
AcDbBlockBegin
  2
POLY4
 70
     0
 71
     0
 10
0.0
 20
0.0
 30
0.0
  3
POLY4
  1

  4
POLY4
  0
LINE
  5
3CE
330
3CA
100
AcDbEntity
  8
LC-013-100-D00-0
 62
     6
370
    25
100
AcDbLine
 10
832.622882
 20
2352.321034
 30
0.0
 11
832.622882
 21
2352.321034
 31
0.0
  0
LINE
  5
3CF
330
3CA
100
AcDbEntity
  8
LC-013-100-D00-0
 62
     6
370
    25
100
AcDbLine
 10
832.622882
 20
2352.321034
 30
0.0
 11
832.624844
 21
2352.301284
 31
0.0
  0
LINE
  5
3D0
330
3CA
100
AcDbEntity
  8
LC-013-100-D00-0
 62
     6
370
    25
100
AcDbLine
 10
832.624844
 20
2352.301284
 30
0.0
 11
832.624844
 21
2352.301284
 31
0.0
  0
LINE
  5
3D1
330
3CA
100
AcDbEntity
  8
LC-013-100-D00-0
 62
     6
370
    25
100
AcDbLine
 10
832.624844
 20
2352.301284
 30
0.0
 11
832.624845
 21
2352.271788
 31
0.0
  0
LINE
  5
3D2
330
3CA
100
AcDbEntity
  8
LC-013-100-D00-0
 62
     6
370
    25
100
AcDbLine
 10
832.624845
 20
2352.271788
 30
0.0
 11
832.624845
 21
2352.271788
 31
0.0
  0
LINE
  5
3D3
330
3CA
100
AcDbEntity
  8
LC-013-100-D00-0
 62
     6
370
    25
100
AcDbLine
 10
832.624845
 20
2352.271788
 30
0.0
 11
832.622882
 21
2352.235881
 31
0.0
  0
ENDBLK
  5
3CC
330
3CA
100
AcDbEntity
  8
0
100
AcDbBlockEnd
  0
BLOCK
  5
40A
330
409
100
AcDbEntity
  8
0
100
AcDbBlockBegin
  2
POLY5
 70
     0
 71
     0
 10
0.0
 20
0.0
 30
0.0
  3
POLY5
  1

  4
POLY5
  0
LINE
  5
40C
330
409
100
AcDbEntity
  8
LC-002-002-----0
 62
     7
370
    25
100
AcDbLine
 10
785.426909
 20
2355.727772
 30
0.0
 11
785.426909
 21
2355.727772
 31
0.0
  0
LINE
  5
40D
330
409
100
AcDbEntity
  8
LC-002-002-----0
 62
     7
370
    25
100
AcDbLine
 10
785.426909
 20
2355.727772
 30
0.0
 11
784.912121
 21
2355.727805
 31
0.0
  0
LINE
  5
40E
330
409
100
AcDbEntity
  8
LC-002-002-----0
 62
     7
370
    25
100
AcDbLine
 10
784.912121
 20
2355.727805
 30
0.0
 11
784.912121
 21
2355.727805
 31
0.0
  0
LINE
  5
40F
330
409
100
AcDbEntity
  8
LC-002-002-----0
 62
     7
370
    25
100
AcDbLine
 10
784.912121
 20
2355.727805
 30
0.0
 11
784.430751
 21
2355.727769
 31
0.0
  0
LINE
  5
410
330
409
100
AcDbEntity
  8
LC-002-002-----0
 62
     7
370
    25
100
AcDbLine
 10
784.430751
 20
2355.727769
 30
0.0
 11
784.430751
 21
2355.727769
 31
0.0
  0
LINE
  5
411
330
409
100
AcDbEntity
  8
LC-002-002-----0
 62
     7
370
    25
100
AcDbLine
 10
784.430751
 20
2355.727769
 30
0.0
 11
784.017181
 21
2355.727775
 31
0.0
  0
LINE
  5
412
330
409
100
AcDbEntity
  8
LC-002-002-----0
 62
     7
370
    25
100
AcDbLine
 10
784.017181
 20
2355.727775
 30
0.0
 11
784.017181
 21
2355.727775
 31
0.0
  0
LINE
  5
413
330
409
100
AcDbEntity
  8
LC-002-002-----0
 62
     7
370
    25
100
AcDbLine
 10
784.017181
 20
2355.727775
 30
0.0
 11
783.698245
 21
2355.72775
 31
0.0
  0
LINE
  5
414
330
409
100
AcDbEntity
  8
LC-002-002-----0
 62
     7
370
    25
100
AcDbLine
 10
783.698245
 20
2355.72775
 30
0.0
 11
783.698245
 21
2355.72775
 31
0.0
  0
LINE
  5
415
330
409
100
AcDbEntity
  8
LC-002-002-----0
 62
     7
370
    25
100
AcDbLine
 10
783.698245
 20
2355.72775
 30
0.0
 11
783.496288
 21
2355.727798
 31
0.0
  0
LINE
  5
416
330
409
100
AcDbEntity
  8
LC-002-002-----0
 62
     7
370
    25
100
AcDbLine
 10
783.496288
 20
2355.727798
 30
0.0
 11
783.496288
 21
2355.727798
 31
0.0
  0
LINE
  5
417
330
409
100
AcDbEntity
  8
LC-002-002-----0
 62
     7
370
    25
100
AcDbLine
 10
783.496288
 20
2355.727798
 30
0.0
 11
783.426909
 21
2355.72778
 31
0.0
  0
ENDBLK
  5
40B
330
409
100
AcDbEntity
  8
0
100
AcDbBlockEnd
  0
BLOCK
  5
43E
330
43D
100
AcDbEntity
  8
0
100
AcDbBlockBegin
  2
POLY6
 70
     0
 71
     0
 10
0.0
 20
0.0
 30
0.0
  3
POLY6
  1

  4
POLY6
  0
LINE
  5
440
330
43D
100
AcDbEntity
  8
LC-002-002-----0
 62
     7
370
    25
100
AcDbLine
 10
806.697843
 20
2400.72395
 30
0.0
 11
806.697843
 21
2400.72395
 31
0.0
  0
LINE
  5
441
330
43D
100
AcDbEntity
  8
LC-002-002-----0
 62
     7
370
    25
100
AcDbLine
 10
806.697843
 20
2400.72395
 30
0.0
 11
807.017638
 21
2403.077213
 31
0.0
  0
LINE
  5
442
330
43D
100
AcDbEntity
  8
LC-002-002-----0
 62
     7
370
    25
100
AcDbLine
 10
807.017638
 20
2403.077213
 30
0.0
 11
807.017638
 21
2403.077213
 31
0.0
  0
LINE
  5
443
330
43D
100
AcDbEntity
  8
LC-002-002-----0
 62
     7
370
    25
100
AcDbLine
 10
807.017638
 20
2403.077213
 30
0.0
 11
807.22392
 21
2405.5556
 31
0.0
  0
LINE
  5
444
330
43D
100
AcDbEntity
  8
LC-002-002-----0
 62
     7
370
    25
100
AcDbLine
 10
807.22392
 20
2405.5556
 30
0.0
 11
807.22392
 21
2405.5556
 31
0.0
  0
LINE
  5
445
330
43D
100
AcDbEntity
  8
LC-002-002-----0
 62
     7
370
    25
100
AcDbLine
 10
807.22392
 20
2405.5556
 30
0.0
 11
807.294645
 21
2408.08
 31
0.0
  0
ENDBLK
  5
43F
330
43D
100
AcDbEntity
  8
0
100
AcDbBlockEnd
  0
BLOCK
  5
448
330
447
100
AcDbEntity
  8
0
100
AcDbBlockBegin
  2
POLY7
 70
     0
 71
     0
 10
0.0
 20
0.0
 30
0.0
  3
POLY7
  1

  4
POLY7
  0
LINE
  5
44A
330
447
100
AcDbEntity
  8
LC-002-002-----0
 62
     7
370
    25
100
AcDbLine
 10
808.629401
 20
2395.527809
 30
0.0
 11
808.629401
 21
2395.527809
 31
0.0
  0
LINE
  5
44B
330
447
100
AcDbEntity
  8
LC-002-002-----0
 62
     7
370
    25
100
AcDbLine
 10
808.629401
 20
2395.527809
 30
0.0
 11
809.16758
 21
2395.161396
 31
0.0
  0
LINE
  5
44C
330
447
100
AcDbEntity
  8
LC-002-002-----0
 62
     7
370
    25
100
AcDbLine
 10
809.16758
 20
2395.161396
 30
0.0
 11
809.16758
 21
2395.161396
 31
0.0
  0
LINE
  5
44D
330
447
100
AcDbEntity
  8
LC-002-002-----0
 62
     7
370
    25
100
AcDbLine
 10
809.16758
 20
2395.161396
 30
0.0
 11
809.657558
 21
2394.824309
 31
0.0
  0
LINE
  5
44E
330
447
100
AcDbEntity
  8
LC-002-002-----0
 62
     7
370
    25
100
AcDbLine
 10
809.657558
 20
2394.824309
 30
0.0
 11
809.657558
 21
2394.824309
 31
0.0
  0
LINE
  5
44F
330
447
100
AcDbEntity
  8
LC-002-002-----0
 62
     7
370
    25
100
AcDbLine
 10
809.657558
 20
2394.824309
 30
0.0
 11
810.099181
 21
2394.517425
 31
0.0
  0
ENDBLK
  5
449
330
447
100
AcDbEntity
  8
0
100
AcDbBlockEnd
  0
BLOCK
  5
452
330
451
100
AcDbEntity
  8
0
100
AcDbBlockBegin
  2
POLY8
 70
     0
 71
     0
 10
0.0
 20
0.0
 30
0.0
  3
POLY8
  1

  4
POLY8
  0
LINE
  5
454
330
451
100
AcDbEntity
  8
LC-002-002-----0
 62
     7
370
    25
100
AcDbLine
 10
806.697843
 20
2400.72395
 30
0.0
 11
806.697843
 21
2400.72395
 31
0.0
  0
LINE
  5
455
330
451
100
AcDbEntity
  8
LC-002-002-----0
 62
     7
370
    25
100
AcDbLine
 10
806.697843
 20
2400.72395
 30
0.0
 11
806.617804
 21
2399.428803
 31
0.0
  0
LINE
  5
456
330
451
100
AcDbEntity
  8
LC-002-002-----0
 62
     7
370
    25
100
AcDbLine
 10
806.617804
 20
2399.428803
 30
0.0
 11
806.617804
 21
2399.428803
 31
0.0
  0
LINE
  5
457
330
451
100
AcDbEntity
  8
LC-002-002-----0
 62
     7
370
    25
100
AcDbLine
 10
806.617804
 20
2399.428803
 30
0.0
 11
806.788869
 21
2398.232562
 31
0.0
  0
LINE
  5
458
330
451
100
AcDbEntity
  8
LC-002-002-----0
 62
     7
370
    25
100
AcDbLine
 10
806.788869
 20
2398.232562
 30
0.0
 11
806.788869
 21
2398.232562
 31
0.0
  0
LINE
  5
459
330
451
100
AcDbEntity
  8
LC-002-002-----0
 62
     7
370
    25
100
AcDbLine
 10
806.788869
 20
2398.232562
 30
0.0
 11
807.186874
 21
2397.171499
 31
0.0
  0
LINE
  5
45A
330
451
100
AcDbEntity
  8
LC-002-002-----0
 62
     7
370
    25
100
AcDbLine
 10
807.186874
 20
2397.171499
 30
0.0
 11
807.186874
 21
2397.171499
 31
0.0
  0
LINE
  5
45B
330
451
100
AcDbEntity
  8
LC-002-002-----0
 62
     7
370
    25
100
AcDbLine
 10
807.186874
 20
2397.171499
 30
0.0
 11
807.798272
 21
2396.263974
 31
0.0
  0
LINE
  5
45C
330
451
100
AcDbEntity
  8
LC-002-002-----0
 62
     7
370
    25
100
AcDbLine
 10
807.798272
 20
2396.263974
 30
0.0
 11
807.798272
 21
2396.263974
 31
0.0
  0
LINE
  5
45D
330
451
100
AcDbEntity
  8
LC-002-002-----0
 62
     7
370
    25
100
AcDbLine
 10
807.798272
 20
2396.263974
 30
0.0
 11
808.629401
 21
2395.527809
 31
0.0
  0
ENDBLK
  5
453
330
451
100
AcDbEntity
  8
0
100
AcDbBlockEnd
  0
BLOCK
  5
460
330
45F
100
AcDbEntity
  8
0
100
AcDbBlockBegin
  2
POLY9
 70
     0
 71
     0
 10
0.0
 20
0.0
 30
0.0
  3
POLY9
  1

  4
POLY9
  0
LINE
  5
462
330
45F
100
AcDbEntity
  8
LC-002-002-----0
 62
     7
370
    25
100
AcDbLine
 10
810.100209
 20
2394.516685
 30
0.0
 11
810.100209
 21
2394.516685
 31
0.0
  0
LINE
  5
463
330
45F
100
AcDbEntity
  8
LC-002-002-----0
 62
     7
370
    25
100
AcDbLine
 10
810.100209
 20
2394.516685
 30
0.0
 11
810.572436
 21
2394.109952
 31
0.0
  0
LINE
  5
464
330
45F
100
AcDbEntity
  8
LC-002-002-----0
 62
     7
370
    25
100
AcDbLine
 10
810.572436
 20
2394.109952
 30
0.0
 11
810.572436
 21
2394.109952
 31
0.0
  0
LINE
  5
465
330
45F
100
AcDbEntity
  8
LC-002-002-----0
 62
     7
370
    25
100
AcDbLine
 10
810.572436
 20
2394.109952
 30
0.0
 11
810.898088
 21
2393.693763
 31
0.0
  0
LINE
  5
466
330
45F
100
AcDbEntity
  8
LC-002-002-----0
 62
     7
370
    25
100
AcDbLine
 10
810.898088
 20
2393.693763
 30
0.0
 11
810.898088
 21
2393.693763
 31
0.0
  0
LINE
  5
467
330
45F
100
AcDbEntity
  8
LC-002-002-----0
 62
     7
370
    25
100
AcDbLine
 10
810.898088
 20
2393.693763
 30
0.0
 11
811.095117
 21
2393.33191
 31
0.0
  0
LINE
  5
468
330
45F
100
AcDbEntity
  8
LC-002-002-----0
 62
     7
370
    25
100
AcDbLine
 10
811.095117
 20
2393.33191
 30
0.0
 11
811.095117
 21
2393.33191
 31
0.0
  0
LINE
  5
469
330
45F
100
AcDbEntity
  8
LC-002-002-----0
 62
     7
370
    25
100
AcDbLine
 10
811.095117
 20
2393.33191
 30
0.0
 11
811.196644
 21
2393.077079
 31
0.0
  0
LINE
  5
46A
330
45F
100
AcDbEntity
  8
LC-002-002-----0
 62
     7
370
    25
100
AcDbLine
 10
811.196644
 20
2393.077079
 30
0.0
 11
811.196644
 21
2393.077079
 31
0.0
  0
LINE
  5
46B
330
45F
100
AcDbEntity
  8
LC-002-002-----0
 62
     7
370
    25
100
AcDbLine
 10
811.196644
 20
2393.077079
 30
0.0
 11
811.227925
 21
2392.980157
 31
0.0
  0
ENDBLK
  5
461
330
45F
100
AcDbEntity
  8
0
100
AcDbBlockEnd
  0
BLOCK
  5
46E
330
46D
100
AcDbEntity
  8
0
100
AcDbBlockBegin
  2
POLY10
 70
     0
 71
     0
 10
0.0
 20
0.0
 30
0.0
  3
POLY10
  1

  4
POLY10
  0
LINE
  5
470
330
46D
100
AcDbEntity
  8
LC-002-002-----0
 62
     7
370
    25
100
AcDbLine
 10
799.444054
 20
2425.869777
 30
0.0
 11
799.444054
 21
2425.869777
 31
0.0
  0
LINE
  5
471
330
46D
100
AcDbEntity
  8
LC-002-002-----0
 62
     7
370
    25
100
AcDbLine
 10
799.444054
 20
2425.869777
 30
0.0
 11
799.589134
 21
2424.583536
 31
0.0
  0
LINE
  5
472
330
46D
100
AcDbEntity
  8
LC-002-002-----0
 62
     7
370
    25
100
AcDbLine
 10
799.589134
 20
2424.583536
 30
0.0
 11
799.589134
 21
2424.583536
 31
0.0
  0
LINE
  5
473
330
46D
100
AcDbEntity
  8
LC-002-002-----0
 62
     7
370
    25
100
AcDbLine
 10
799.589134
 20
2424.583536
 30
0.0
 11
800.019407
 21
2423.353758
 31
0.0
  0
LINE
  5
474
330
46D
100
AcDbEntity
  8
LC-002-002-----0
 62
     7
370
    25
100
AcDbLine
 10
800.019407
 20
2423.353758
 30
0.0
 11
800.019407
 21
2423.353758
 31
0.0
  0
LINE
  5
475
330
46D
100
AcDbEntity
  8
LC-002-002-----0
 62
     7
370
    25
100
AcDbLine
 10
800.019407
 20
2423.353758
 30
0.0
 11
800.720525
 21
2422.235003
 31
0.0
  0
LINE
  5
476
330
46D
100
AcDbEntity
  8
LC-002-002-----0
 62
     7
370
    25
100
AcDbLine
 10
800.720525
 20
2422.235003
 30
0.0
 11
800.720525
 21
2422.235003
 31
0.0
  0
LINE
  5
477
330
46D
100
AcDbEntity
  8
LC-002-002-----0
 62
     7
370
    25
100
AcDbLine
 10
800.720525
 20
2422.235003
 30
0.0
 11
801.667773
 21
2421.280681
 31
0.0
  0
LINE
  5
478
330
46D
100
AcDbEntity
  8
LC-002-002-----0
 62
     7
370
    25
100
AcDbLine
 10
801.667773
 20
2421.280681
 30
0.0
 11
801.667773
 21
2421.280681
 31
0.0
  0
LINE
  5
479
330
46D
100
AcDbEntity
  8
LC-002-002-----0
 62
     7
370
    25
100
AcDbLine
 10
801.667773
 20
2421.280681
 30
0.0
 11
802.824534
 21
2420.541092
 31
0.0
  0
LINE
  5
47A
330
46D
100
AcDbEntity
  8
LC-002-002-----0
 62
     7
370
    25
100
AcDbLine
 10
802.824534
 20
2420.541092
 30
0.0
 11
802.824534
 21
2420.541092
 31
0.0
  0
LINE
  5
47B
330
46D
100
AcDbEntity
  8
LC-002-002-----0
 62
     7
370
    25
100
AcDbLine
 10
802.824534
 20
2420.541092
 30
0.0
 11
804.141005
 21
2420.060302
 31
0.0
  0
ENDBLK
  5
46F
330
46D
100
AcDbEntity
  8
0
100
AcDbBlockEnd
  0
BLOCK
  5
47E
330
47D
100
AcDbEntity
  8
0
100
AcDbBlockBegin
  2
POLY11
 70
     0
 71
     0
 10
0.0
 20
0.0
 30
0.0
  3
POLY11
  1

  4
POLY11
  0
LINE
  5
480
330
47D
100
AcDbEntity
  8
LC-002-002-----0
 62
     7
370
    25
100
AcDbLine
 10
804.141005
 20
2420.060302
 30
0.0
 11
804.141005
 21
2420.060302
 31
0.0
  0
LINE
  5
481
330
47D
100
AcDbEntity
  8
LC-002-002-----0
 62
     7
370
    25
100
AcDbLine
 10
804.141005
 20
2420.060302
 30
0.0
 11
805.191654
 21
2419.650553
 31
0.0
  0
LINE
  5
482
330
47D
100
AcDbEntity
  8
LC-002-002-----0
 62
     7
370
    25
100
AcDbLine
 10
805.191654
 20
2419.650553
 30
0.0
 11
805.191654
 21
2419.650553
 31
0.0
  0
LINE
  5
483
330
47D
100
AcDbEntity
  8
LC-002-002-----0
 62
     7
370
    25
100
AcDbLine
 10
805.191654
 20
2419.650553
 30
0.0
 11
806.079983
 21
2418.997237
 31
0.0
  0
LINE
  5
484
330
47D
100
AcDbEntity
  8
LC-002-002-----0
 62
     7
370
    25
100
AcDbLine
 10
806.079983
 20
2418.997237
 30
0.0
 11
806.079983
 21
2418.997237
 31
0.0
  0
LINE
  5
485
330
47D
100
AcDbEntity
  8
LC-002-002-----0
 62
     7
370
    25
100
AcDbLine
 10
806.079983
 20
2418.997237
 30
0.0
 11
806.746776
 21
2418.15911
 31
0.0
  0
LINE
  5
486
330
47D
100
AcDbEntity
  8
LC-002-002-----0
 62
     7
370
    25
100
AcDbLine
 10
806.746776
 20
2418.15911
 30
0.0
 11
806.746776
 21
2418.15911
 31
0.0
  0
LINE
  5
487
330
47D
100
AcDbEntity
  8
LC-002-002-----0
 62
     7
370
    25
100
AcDbLine
 10
806.746776
 20
2418.15911
 30
0.0
 11
807.156859
 21
2417.201321
 31
0.0
  0
LINE
  5
488
330
47D
100
AcDbEntity
  8
LC-002-002-----0
 62
     7
370
    25
100
AcDbLine
 10
807.156859
 20
2417.201321
 30
0.0
 11
807.156859
 21
2417.201321
 31
0.0
  0
LINE
  5
489
330
47D
100
AcDbEntity
  8
LC-002-002-----0
 62
     7
370
    25
100
AcDbLine
 10
807.156859
 20
2417.201321
 30
0.0
 11
807.294645
 21
2416.187319
 31
0.0
  0
ENDBLK
  5
47F
330
47D
100
AcDbEntity
  8
0
100
AcDbBlockEnd
  0
BLOCK
  5
4B2
330
4B1
100
AcDbEntity
  8
0
100
AcDbBlockBegin
  2
POLY12
 70
     0
 71
     0
 10
0.0
 20
0.0
 30
0.0
  3
POLY12
  1

  4
POLY12
  0
LINE
  5
4B4
330
4B1
100
AcDbEntity
  8
LC-002-002-----0
 62
     7
370
    25
100
AcDbLine
 10
732.935696
 20
2428.052543
 30
0.0
 11
732.935696
 21
2428.052543
 31
0.0
  0
LINE
  5
4B5
330
4B1
100
AcDbEntity
  8
LC-002-002-----0
 62
     7
370
    25
100
AcDbLine
 10
732.935696
 20
2428.052543
 30
0.0
 11
733.098315
 21
2428.052608
 31
0.0
  0
LINE
  5
4B6
330
4B1
100
AcDbEntity
  8
LC-002-002-----0
 62
     7
370
    25
100
AcDbLine
 10
733.098315
 20
2428.052608
 30
0.0
 11
733.098315
 21
2428.052608
 31
0.0
  0
LINE
  5
4B7
330
4B1
100
AcDbEntity
  8
LC-002-002-----0
 62
     7
370
    25
100
AcDbLine
 10
733.098315
 20
2428.052608
 30
0.0
 11
733.565452
 21
2428.052964
 31
0.0
  0
LINE
  5
4B8
330
4B1
100
AcDbEntity
  8
LC-002-002-----0
 62
     7
370
    25
100
AcDbLine
 10
733.565452
 20
2428.052964
 30
0.0
 11
733.565452
 21
2428.052964
 31
0.0
  0
LINE
  5
4B9
330
4B1
100
AcDbEntity
  8
LC-002-002-----0
 62
     7
370
    25
100
AcDbLine
 10
733.565452
 20
2428.052964
 30
0.0
 11
734.318515
 21
2428.052674
 31
0.0
  0
LINE
  5
4BA
330
4B1
100
AcDbEntity
  8
LC-002-002-----0
 62
     7
370
    25
100
AcDbLine
 10
734.318515
 20
2428.052674
 30
0.0
 11
734.318515
 21
2428.052674
 31
0.0
  0
LINE
  5
4BB
330
4B1
100
AcDbEntity
  8
LC-002-002-----0
 62
     7
370
    25
100
AcDbLine
 10
734.318515
 20
2428.052674
 30
0.0
 11
735.352844
 21
2428.052432
 31
0.0
  0
LINE
  5
4BC
330
4B1
100
AcDbEntity
  8
LC-002-002-----0
 62
     7
370
    25
100
AcDbLine
 10
735.352844
 20
2428.052432
 30
0.0
 11
735.352844
 21
2428.052432
 31
0.0
  0
LINE
  5
4BD
330
4B1
100
AcDbEntity
  8
LC-002-002-----0
 62
     7
370
    25
100
AcDbLine
 10
735.352844
 20
2428.052432
 30
0.0
 11
736.700098
 21
2428.052398
 31
0.0
  0
LINE
  5
4BE
330
4B1
100
AcDbEntity
  8
LC-002-002-----0
 62
     7
370
    25
100
AcDbLine
 10
736.700098
 20
2428.052398
 30
0.0
 11
736.700098
 21
2428.052398
 31
0.0
  0
LINE
  5
4BF
330
4B1
100
AcDbEntity
  8
LC-002-002-----0
 62
     7
370
    25
100
AcDbLine
 10
736.700098
 20
2428.052398
 30
0.0
 11
738.355802
 21
2428.052482
 31
0.0
  0
LINE
  5
4C0
330
4B1
100
AcDbEntity
  8
LC-002-002-----0
 62
     7
370
    25
100
AcDbLine
 10
738.355802
 20
2428.052482
 30
0.0
 11
738.355802
 21
2428.052482
 31
0.0
  0
LINE
  5
4C1
330
4B1
100
AcDbEntity
  8
LC-002-002-----0
 62
     7
370
    25
100
AcDbLine
 10
738.355802
 20
2428.052482
 30
0.0
 11
740.303257
 21
2428.05281
 31
0.0
  0
LINE
  5
4C2
330
4B1
100
AcDbEntity
  8
LC-002-002-----0
 62
     7
370
    25
100
AcDbLine
 10
740.303257
 20
2428.05281
 30
0.0
 11
740.303257
 21
2428.05281
 31
0.0
  0
LINE
  5
4C3
330
4B1
100
AcDbEntity
  8
LC-002-002-----0
 62
     7
370
    25
100
AcDbLine
 10
740.303257
 20
2428.05281
 30
0.0
 11
742.516998
 21
2428.052662
 31
0.0
  0
LINE
  5
4C4
330
4B1
100
AcDbEntity
  8
LC-002-002-----0
 62
     7
370
    25
100
AcDbLine
 10
742.516998
 20
2428.052662
 30
0.0
 11
742.516998
 21
2428.052662
 31
0.0
  0
LINE
  5
4C5
330
4B1
100
AcDbEntity
  8
LC-002-002-----0
 62
     7
370
    25
100
AcDbLine
 10
742.516998
 20
2428.052662
 30
0.0
 11
744.928004
 21
2428.052629
 31
0.0
  0
LINE
  5
4C6
330
4B1
100
AcDbEntity
  8
LC-002-002-----0
 62
     7
370
    25
100
AcDbLine
 10
744.928004
 20
2428.052629
 30
0.0
 11
744.928004
 21
2428.052629
 31
0.0
  0
LINE
  5
4C7
330
4B1
100
AcDbEntity
  8
LC-002-002-----0
 62
     7
370
    25
100
AcDbLine
 10
744.928004
 20
2428.052629
 30
0.0
 11
747.412365
 21
2428.052631
 31
0.0
  0
LINE
  5
4C8
330
4B1
100
AcDbEntity
  8
LC-002-002-----0
 62
     7
370
    25
100
AcDbLine
 10
747.412365
 20
2428.052631
 30
0.0
 11
747.412365
 21
2428.052631
 31
0.0
  0
LINE
  5
4C9
330
4B1
100
AcDbEntity
  8
LC-002-002-----0
 62
     7
370
    25
100
AcDbLine
 10
747.412365
 20
2428.052631
 30
0.0
 11
749.812676
 21
2428.052678
 31
0.0
  0
LINE
  5
4CA
330
4B1
100
AcDbEntity
  8
LC-002-002-----0
 62
     7
370
    25
100
AcDbLine
 10
749.812676
 20
2428.052678
 30
0.0
 11
749.812676
 21
2428.052678
 31
0.0
  0
LINE
  5
4CB
330
4B1
100
AcDbEntity
  8
LC-002-002-----0
 62
     7
370
    25
100
AcDbLine
 10
749.812676
 20
2428.052678
 30
0.0
 11
752.007362
 21
2428.052815
 31
0.0
  0
LINE
  5
4CC
330
4B1
100
AcDbEntity
  8
LC-002-002-----0
 62
     7
370
    25
100
AcDbLine
 10
752.007362
 20
2428.052815
 30
0.0
 11
752.007362
 21
2428.052815
 31
0.0
  0
LINE
  5
4CD
330
4B1
100
AcDbEntity
  8
LC-002-002-----0
 62
     7
370
    25
100
AcDbLine
 10
752.007362
 20
2428.052815
 30
0.0
 11
753.934269
 21
2428.05249
 31
0.0
  0
LINE
  5
4CE
330
4B1
100
AcDbEntity
  8
LC-002-002-----0
 62
     7
370
    25
100
AcDbLine
 10
753.934269
 20
2428.05249
 30
0.0
 11
753.934269
 21
2428.05249
 31
0.0
  0
LINE
  5
4CF
330
4B1
100
AcDbEntity
  8
LC-002-002-----0
 62
     7
370
    25
100
AcDbLine
 10
753.934269
 20
2428.05249
 30
0.0
 11
755.573005
 21
2428.052407
 31
0.0
  0
LINE
  5
4D0
330
4B1
100
AcDbEntity
  8
LC-002-002-----0
 62
     7
370
    25
100
AcDbLine
 10
755.573005
 20
2428.052407
 30
0.0
 11
755.573005
 21
2428.052407
 31
0.0
  0
LINE
  5
4D1
330
4B1
100
AcDbEntity
  8
LC-002-002-----0
 62
     7
370
    25
100
AcDbLine
 10
755.573005
 20
2428.052407
 30
0.0
 11
756.910134
 21
2428.052435
 31
0.0
  0
LINE
  5
4D2
330
4B1
100
AcDbEntity
  8
LC-002-002-----0
 62
     7
370
    25
100
AcDbLine
 10
756.910134
 20
2428.052435
 30
0.0
 11
756.910134
 21
2428.052435
 31
0.0
  0
LINE
  5
4D3
330
4B1
100
AcDbEntity
  8
LC-002-002-----0
 62
     7
370
    25
100
AcDbLine
 10
756.910134
 20
2428.052435
 30
0.0
 11
757.941406
 21
2428.05266
 31
0.0
  0
LINE
  5
4D4
330
4B1
100
AcDbEntity
  8
LC-002-002-----0
 62
     7
370
    25
100
AcDbLine
 10
757.941406
 20
2428.05266
 30
0.0
 11
757.941406
 21
2428.05266
 31
0.0
  0
LINE
  5
4D5
330
4B1
100
AcDbEntity
  8
LC-002-002-----0
 62
     7
370
    25
100
AcDbLine
 10
757.941406
 20
2428.05266
 30
0.0
 11
758.695964
 21
2428.052931
 31
0.0
  0
LINE
  5
4D6
330
4B1
100
AcDbEntity
  8
LC-002-002-----0
 62
     7
370
    25
100
AcDbLine
 10
758.695964
 20
2428.052931
 30
0.0
 11
758.695964
 21
2428.052931
 31
0.0
  0
LINE
  5
4D7
330
4B1
100
AcDbEntity
  8
LC-002-002-----0
 62
     7
370
    25
100
AcDbLine
 10
758.695964
 20
2428.052931
 30
0.0
 11
759.166355
 21
2428.05258
 31
0.0
  0
LINE
  5
4D8
330
4B1
100
AcDbEntity
  8
LC-002-002-----0
 62
     7
370
    25
100
AcDbLine
 10
759.166355
 20
2428.05258
 30
0.0
 11
759.166355
 21
2428.05258
 31
0.0
  0
LINE
  5
4D9
330
4B1
100
AcDbEntity
  8
LC-002-002-----0
 62
     7
370
    25
100
AcDbLine
 10
759.166355
 20
2428.05258
 30
0.0
 11
759.330776
 21
2428.052512
 31
0.0
  0
ENDBLK
  5
4B3
330
4B1
100
AcDbEntity
  8
0
100
AcDbBlockEnd
  0
BLOCK
  5
585
330
584
100
AcDbEntity
  8
0
100
AcDbBlockBegin
  2
POLY13
 70
     0
 71
     0
 10
0.0
 20
0.0
 30
0.0
  3
POLY13
  1

  4
POLY13
  0
LINE
  5
587
330
584
100
AcDbEntity
  8
LC-002-002-----0
 62
     7
370
    25
100
AcDbLine
 10
1510.170196
 20
1954.78
 30
0.0
 11
1510.170196
 21
1954.78
 31
0.0
  0
LINE
  5
588
330
584
100
AcDbEntity
  8
LC-002-002-----0
 62
     7
370
    25
100
AcDbLine
 10
1510.170196
 20
1954.78
 30
0.0
 11
1510.17023
 21
1954.265212
 31
0.0
  0
LINE
  5
589
330
584
100
AcDbEntity
  8
LC-002-002-----0
 62
     7
370
    25
100
AcDbLine
 10
1510.17023
 20
1954.265212
 30
0.0
 11
1510.17023
 21
1954.265212
 31
0.0
  0
LINE
  5
58A
330
584
100
AcDbEntity
  8
LC-002-002-----0
 62
     7
370
    25
100
AcDbLine
 10
1510.17023
 20
1954.265212
 30
0.0
 11
1510.170193
 21
1953.783842
 31
0.0
  0
LINE
  5
58B
330
584
100
AcDbEntity
  8
LC-002-002-----0
 62
     7
370
    25
100
AcDbLine
 10
1510.170193
 20
1953.783842
 30
0.0
 11
1510.170193
 21
1953.783842
 31
0.0
  0
LINE
  5
58C
330
584
100
AcDbEntity
  8
LC-002-002-----0
 62
     7
370
    25
100
AcDbLine
 10
1510.170193
 20
1953.783842
 30
0.0
 11
1510.1702
 21
1953.370272
 31
0.0
  0
LINE
  5
58D
330
584
100
AcDbEntity
  8
LC-002-002-----0
 62
     7
370
    25
100
AcDbLine
 10
1510.1702
 20
1953.370272
 30
0.0
 11
1510.1702
 21
1953.370272
 31
0.0
  0
LINE
  5
58E
330
584
100
AcDbEntity
  8
LC-002-002-----0
 62
     7
370
    25
100
AcDbLine
 10
1510.1702
 20
1953.370272
 30
0.0
 11
1510.170174
 21
1953.051335
 31
0.0
  0
LINE
  5
58F
330
584
100
AcDbEntity
  8
LC-002-002-----0
 62
     7
370
    25
100
AcDbLine
 10
1510.170174
 20
1953.051335
 30
0.0
 11
1510.170174
 21
1953.051335
 31
0.0
  0
LINE
  5
590
330
584
100
AcDbEntity
  8
LC-002-002-----0
 62
     7
370
    25
100
AcDbLine
 10
1510.170174
 20
1953.051335
 30
0.0
 11
1510.170223
 21
1952.849379
 31
0.0
  0
LINE
  5
591
330
584
100
AcDbEntity
  8
LC-002-002-----0
 62
     7
370
    25
100
AcDbLine
 10
1510.170223
 20
1952.849379
 30
0.0
 11
1510.170223
 21
1952.849379
 31
0.0
  0
LINE
  5
592
330
584
100
AcDbEntity
  8
LC-002-002-----0
 62
     7
370
    25
100
AcDbLine
 10
1510.170223
 20
1952.849379
 30
0.0
 11
1510.170205
 21
1952.78
 31
0.0
  0
ENDBLK
  5
586
330
584
100
AcDbEntity
  8
0
100
AcDbBlockEnd
  0
BLOCK
  5
5B7
330
5B6
100
AcDbEntity
  8
0
100
AcDbBlockBegin
  2
POLY14
 70
     0
 71
     0
 10
0.0
 20
0.0
 30
0.0
  3
POLY14
  1

  4
POLY14
  0
LINE
  5
5B9
330
5B6
100
AcDbEntity
  8
LC-002-002-----0
 62
     7
370
    25
100
AcDbLine
 10
1510.170196
 20
1818.78
 30
0.0
 11
1510.170196
 21
1818.78
 31
0.0
  0
LINE
  5
5BA
330
5B6
100
AcDbEntity
  8
LC-002-002-----0
 62
     7
370
    25
100
AcDbLine
 10
1510.170196
 20
1818.78
 30
0.0
 11
1510.17023
 21
1819.294788
 31
0.0
  0
LINE
  5
5BB
330
5B6
100
AcDbEntity
  8
LC-002-002-----0
 62
     7
370
    25
100
AcDbLine
 10
1510.17023
 20
1819.294788
 30
0.0
 11
1510.17023
 21
1819.294788
 31
0.0
  0
LINE
  5
5BC
330
5B6
100
AcDbEntity
  8
LC-002-002-----0
 62
     7
370
    25
100
AcDbLine
 10
1510.17023
 20
1819.294788
 30
0.0
 11
1510.170193
 21
1819.776158
 31
0.0
  0
LINE
  5
5BD
330
5B6
100
AcDbEntity
  8
LC-002-002-----0
 62
     7
370
    25
100
AcDbLine
 10
1510.170193
 20
1819.776158
 30
0.0
 11
1510.170193
 21
1819.776158
 31
0.0
  0
LINE
  5
5BE
330
5B6
100
AcDbEntity
  8
LC-002-002-----0
 62
     7
370
    25
100
AcDbLine
 10
1510.170193
 20
1819.776158
 30
0.0
 11
1510.1702
 21
1820.189728
 31
0.0
  0
LINE
  5
5BF
330
5B6
100
AcDbEntity
  8
LC-002-002-----0
 62
     7
370
    25
100
AcDbLine
 10
1510.1702
 20
1820.189728
 30
0.0
 11
1510.1702
 21
1820.189728
 31
0.0
  0
LINE
  5
5C0
330
5B6
100
AcDbEntity
  8
LC-002-002-----0
 62
     7
370
    25
100
AcDbLine
 10
1510.1702
 20
1820.189728
 30
0.0
 11
1510.170174
 21
1820.508665
 31
0.0
  0
LINE
  5
5C1
330
5B6
100
AcDbEntity
  8
LC-002-002-----0
 62
     7
370
    25
100
AcDbLine
 10
1510.170174
 20
1820.508665
 30
0.0
 11
1510.170174
 21
1820.508665
 31
0.0
  0
LINE
  5
5C2
330
5B6
100
AcDbEntity
  8
LC-002-002-----0
 62
     7
370
    25
100
AcDbLine
 10
1510.170174
 20
1820.508665
 30
0.0
 11
1510.170223
 21
1820.710621
 31
0.0
  0
LINE
  5
5C3
330
5B6
100
AcDbEntity
  8
LC-002-002-----0
 62
     7
370
    25
100
AcDbLine
 10
1510.170223
 20
1820.710621
 30
0.0
 11
1510.170223
 21
1820.710621
 31
0.0
  0
LINE
  5
5C4
330
5B6
100
AcDbEntity
  8
LC-002-002-----0
 62
     7
370
    25
100
AcDbLine
 10
1510.170223
 20
1820.710621
 30
0.0
 11
1510.170205
 21
1820.78
 31
0.0
  0
ENDBLK
  5
5B8
330
5B6
100
AcDbEntity
  8
0
100
AcDbBlockEnd
  0
BLOCK
  5
5F6
330
5F5
100
AcDbEntity
  8
0
100
AcDbBlockBegin
  2
LCDIM11
 70
     0
 71
     0
 10
0.0
 20
0.0
 30
0.0
  3
LCDIM11
  1

  4
LCDIM11
  0
LINE
  5
5F8
330
5F5
100
AcDbEntity
  8
LC-007-003-MTH-0
 62
     7
370
    25
100
AcDbLine
 10
730.330631
 20
1952.28
 30
0.0
 11
730.330631
 21
2065.0
 31
0.0
  0
LINE
  5
5F9
330
5F5
100
AcDbEntity
  8
LC-007-003-MTH-0
 62
     7
370
    25
100
AcDbLine
 10
1125.330631
 20
1995.78
 30
0.0
 11
1125.330631
 21
2065.0
 31
0.0
  0
LINE
  5
5FA
330
5F5
100
AcDbEntity
  8
LC-008-003-MTG-0
 62
     7
370
    25
100
AcDbLine
 10
730.330631
 20
2050.0
 30
0.0
 11
1125.330631
 21
2050.0
 31
0.0
  0
LINE
  5
5FB
330
5F5
100
AcDbEntity
  8
LC-009-003-----0
 62
     7
370
    25
100
AcDbLine
 10
755.116753
 20
2053.263155
 30
0.0
 11
730.330631
 21
2050.0
 31
0.0
  0
LINE
  5
5FC
330
5F5
100
AcDbEntity
  8
LC-009-003-----0
 62
     7
370
    25
100
AcDbLine
 10
730.330631
 20
2050.0
 30
0.0
 11
755.116753
 21
2046.736845
 31
0.0
  0
LINE
  5
5FD
330
5F5
100
AcDbEntity
  8
LC-009-003-----0
 62
     7
370
    25
100
AcDbLine
 10
755.116753
 20
2046.736845
 30
0.0
 11
755.116753
 21
2053.263155
 31
0.0
  0
LINE
  5
5FE
330
5F5
100
AcDbEntity
  8
LC-009-003-----0
 62
     7
370
    25
100
AcDbLine
 10
755.172361
 20
2052.414735
 30
0.0
 11
736.830631
 21
2050.0
 31
0.0
  0
LINE
  5
5FF
330
5F5
100
AcDbEntity
  8
LC-009-003-----0
 62
     7
370
    25
100
AcDbLine
 10
736.830631
 20
2050.0
 30
0.0
 11
755.172361
 21
2047.585265
 31
0.0
  0
LINE
  5
600
330
5F5
100
AcDbEntity
  8
LC-009-003-----0
 62
     7
370
    25
100
AcDbLine
 10
755.227969
 20
2051.566314
 30
0.0
 11
743.330631
 21
2050.0
 31
0.0
  0
LINE
  5
601
330
5F5
100
AcDbEntity
  8
LC-009-003-----0
 62
     7
370
    25
100
AcDbLine
 10
743.330631
 20
2050.0
 30
0.0
 11
755.227969
 21
2048.433686
 31
0.0
  0
LINE
  5
602
330
5F5
100
AcDbEntity
  8
LC-009-003-----0
 62
     7
370
    25
100
AcDbLine
 10
755.283578
 20
2050.717894
 30
0.0
 11
749.830631
 21
2050.0
 31
0.0
  0
LINE
  5
603
330
5F5
100
AcDbEntity
  8
LC-009-003-----0
 62
     7
370
    25
100
AcDbLine
 10
749.830631
 20
2050.0
 30
0.0
 11
755.283578
 21
2049.282106
 31
0.0
  0
LINE
  5
604
330
5F5
100
AcDbEntity
  8
LC-009-003-----0
 62
     7
370
    25
100
AcDbLine
 10
1100.544509
 20
2046.736845
 30
0.0
 11
1125.330631
 21
2050.0
 31
0.0
  0
LINE
  5
605
330
5F5
100
AcDbEntity
  8
LC-009-003-----0
 62
     7
370
    25
100
AcDbLine
 10
1125.330631
 20
2050.0
 30
0.0
 11
1100.544509
 21
2053.263155
 31
0.0
  0
LINE
  5
606
330
5F5
100
AcDbEntity
  8
LC-009-003-----0
 62
     7
370
    25
100
AcDbLine
 10
1100.544509
 20
2053.263155
 30
0.0
 11
1100.544509
 21
2046.736845
 31
0.0
  0
LINE
  5
607
330
5F5
100
AcDbEntity
  8
LC-009-003-----0
 62
     7
370
    25
100
AcDbLine
 10
1100.4889
 20
2047.585265
 30
0.0
 11
1118.830631
 21
2050.0
 31
0.0
  0
LINE
  5
608
330
5F5
100
AcDbEntity
  8
LC-009-003-----0
 62
     7
370
    25
100
AcDbLine
 10
1118.830631
 20
2050.0
 30
0.0
 11
1100.4889
 21
2052.414735
 31
0.0
  0
LINE
  5
609
330
5F5
100
AcDbEntity
  8
LC-009-003-----0
 62
     7
370
    25
100
AcDbLine
 10
1100.433292
 20
2048.433686
 30
0.0
 11
1112.33063
 21
2050.0
 31
0.0
  0
LINE
  5
60A
330
5F5
100
AcDbEntity
  8
LC-009-003-----0
 62
     7
370
    25
100
AcDbLine
 10
1112.33063
 20
2050.0
 30
0.0
 11
1100.433292
 21
2051.566314
 31
0.0
  0
LINE
  5
60B
330
5F5
100
AcDbEntity
  8
LC-009-003-----0
 62
     7
370
    25
100
AcDbLine
 10
1100.377684
 20
2049.282106
 30
0.0
 11
1105.83063
 21
2050.0
 31
0.0
  0
LINE
  5
60C
330
5F5
100
AcDbEntity
  8
LC-009-003-----0
 62
     7
370
    25
100
AcDbLine
 10
1105.83063
 20
2050.0
 30
0.0
 11
1100.377684
 21
2050.717894
 31
0.0
  0
TEXT
  5
60D
330
5F5
100
AcDbEntity
  8
LC-009-003-----0
 62
     7
370
    25
100
AcDbText
 10
904.234099
 20
2065.0
 30
0.0
 40
25.0
  1
395
 41
0.8
  7
LCTX0-400-0-0pDIN-Schrift
 72
     1
 11
932.805528
 21
2065.0
 31
0.0
100
AcDbText
  0
ENDBLK
  5
5F7
330
5F5
100
AcDbEntity
  8
0
100
AcDbBlockEnd
  0
BLOCK
  5
610
330
60F
100
AcDbEntity
  8
0
100
AcDbBlockBegin
  2
LCDIM12
 70
     0
 71
     0
 10
0.0
 20
0.0
 30
0.0
  3
LCDIM12
  1

  4
LCDIM12
  0
LINE
  5
612
330
60F
100
AcDbEntity
  8
LC-007-003-MTH-0
 62
     7
370
    25
100
AcDbLine
 10
712.830631
 20
1934.78
 30
0.0
 11
635.0
 21
1934.78
 31
0.0
  0
LINE
  5
613
330
60F
100
AcDbEntity
  8
LC-007-003-MTH-0
 62
     7
370
    25
100
AcDbLine
 10
730.330631
 20
2001.78
 30
0.0
 11
635.0
 21
2001.78
 31
0.0
  0
LINE
  5
614
330
60F
100
AcDbEntity
  8
LC-009-003-----0
 62
     7
370
    25
100
AcDbLine
 10
653.263155
 20
1909.993878
 30
0.0
 11
650.0
 21
1934.78
 31
0.0
  0
LINE
  5
615
330
60F
100
AcDbEntity
  8
LC-009-003-----0
 62
     7
370
    25
100
AcDbLine
 10
650.0
 20
1934.78
 30
0.0
 11
646.736845
 21
1909.993878
 31
0.0
  0
LINE
  5
616
330
60F
100
AcDbEntity
  8
LC-009-003-----0
 62
     7
370
    25
100
AcDbLine
 10
646.736845
 20
1909.993878
 30
0.0
 11
653.263155
 21
1909.993878
 31
0.0
  0
LINE
  5
617
330
60F
100
AcDbEntity
  8
LC-009-003-----0
 62
     7
370
    25
100
AcDbLine
 10
652.414735
 20
1909.93827
 30
0.0
 11
650.0
 21
1928.28
 31
0.0
  0
LINE
  5
618
330
60F
100
AcDbEntity
  8
LC-009-003-----0
 62
     7
370
    25
100
AcDbLine
 10
650.0
 20
1928.28
 30
0.0
 11
647.585265
 21
1909.93827
 31
0.0
  0
LINE
  5
619
330
60F
100
AcDbEntity
  8
LC-009-003-----0
 62
     7
370
    25
100
AcDbLine
 10
651.566314
 20
1909.882661
 30
0.0
 11
650.0
 21
1921.78
 31
0.0
  0
LINE
  5
61A
330
60F
100
AcDbEntity
  8
LC-009-003-----0
 62
     7
370
    25
100
AcDbLine
 10
650.0
 20
1921.78
 30
0.0
 11
648.433686
 21
1909.882661
 31
0.0
  0
LINE
  5
61B
330
60F
100
AcDbEntity
  8
LC-009-003-----0
 62
     7
370
    25
100
AcDbLine
 10
650.717894
 20
1909.827053
 30
0.0
 11
650.0
 21
1915.28
 31
0.0
  0
LINE
  5
61C
330
60F
100
AcDbEntity
  8
LC-009-003-----0
 62
     7
370
    25
100
AcDbLine
 10
650.0
 20
1915.28
 30
0.0
 11
649.282106
 21
1909.827053
 31
0.0
  0
LINE
  5
61D
330
60F
100
AcDbEntity
  8
LC-009-003-----0
 62
     7
370
    25
100
AcDbLine
 10
646.736845
 20
2026.566122
 30
0.0
 11
650.0
 21
2001.78
 31
0.0
  0
LINE
  5
61E
330
60F
100
AcDbEntity
  8
LC-009-003-----0
 62
     7
370
    25
100
AcDbLine
 10
650.0
 20
2001.78
 30
0.0
 11
653.263155
 21
2026.566122
 31
0.0
  0
LINE
  5
61F
330
60F
100
AcDbEntity
  8
LC-009-003-----0
 62
     7
370
    25
100
AcDbLine
 10
653.263155
 20
2026.566122
 30
0.0
 11
646.736845
 21
2026.566122
 31
0.0
  0
LINE
  5
620
330
60F
100
AcDbEntity
  8
LC-009-003-----0
 62
     7
370
    25
100
AcDbLine
 10
647.585265
 20
2026.62173
 30
0.0
 11
650.0
 21
2008.28
 31
0.0
  0
LINE
  5
621
330
60F
100
AcDbEntity
  8
LC-009-003-----0
 62
     7
370
    25
100
AcDbLine
 10
650.0
 20
2008.28
 30
0.0
 11
652.414735
 21
2026.62173
 31
0.0
  0
LINE
  5
622
330
60F
100
AcDbEntity
  8
LC-009-003-----0
 62
     7
370
    25
100
AcDbLine
 10
648.433686
 20
2026.677339
 30
0.0
 11
650.0
 21
2014.78
 31
0.0
  0
LINE
  5
623
330
60F
100
AcDbEntity
  8
LC-009-003-----0
 62
     7
370
    25
100
AcDbLine
 10
650.0
 20
2014.78
 30
0.0
 11
651.566314
 21
2026.677339
 31
0.0
  0
LINE
  5
624
330
60F
100
AcDbEntity
  8
LC-009-003-----0
 62
     7
370
    25
100
AcDbLine
 10
649.282106
 20
2026.732947
 30
0.0
 11
650.0
 21
2021.28
 31
0.0
  0
LINE
  5
625
330
60F
100
AcDbEntity
  8
LC-009-003-----0
 62
     7
370
    25
100
AcDbLine
 10
650.0
 20
2021.28
 30
0.0
 11
650.717894
 21
2026.732947
 31
0.0
  0
LINE
  5
626
330
60F
100
AcDbEntity
  8
LC-008-003-MTG-0
 62
     7
370
    25
100
AcDbLine
 10
650.0
 20
1899.779999
 30
0.0
 11
650.0
 21
2082.264354
 31
0.0
  0
TEXT
  5
627
330
60F
100
AcDbEntity
  8
LC-009-003-----0
 62
     7
370
    25
100
AcDbText
 10
635.0
 20
2062.536916
 30
0.0
 40
25.0
  1
67
 50
90.0
 41
0.8
  7
LCTX0-400-0-0pDIN-Schrift
100
AcDbText
  0
ENDBLK
  5
611
330
60F
100
AcDbEntity
  8
0
100
AcDbBlockEnd
  0
BLOCK
  5
62A
330
629
100
AcDbEntity
  8
0
100
AcDbBlockBegin
  2
LCDIM13
 70
     0
 71
     0
 10
0.0
 20
0.0
 30
0.0
  3
LCDIM13
  1

  4
LCDIM13
  0
LINE
  5
62C
330
629
100
AcDbEntity
  8
LC-007-003-MTH-0
 62
     7
370
    25
100
AcDbLine
 10
335.330631
 20
1507.78
 30
0.0
 11
335.330631
 21
1385.0
 31
0.0
  0
LINE
  5
62D
330
629
100
AcDbEntity
  8
LC-007-003-MTH-0
 62
     7
370
    25
100
AcDbLine
 10
1125.330631
 20
1507.78
 30
0.0
 11
1125.330631
 21
1385.0
 31
0.0
  0
LINE
  5
62E
330
629
100
AcDbEntity
  8
LC-008-003-MTG-0
 62
     7
370
    25
100
AcDbLine
 10
335.330631
 20
1400.0
 30
0.0
 11
1125.330631
 21
1400.0
 31
0.0
  0
LINE
  5
62F
330
629
100
AcDbEntity
  8
LC-009-003-----0
 62
     7
370
    25
100
AcDbLine
 10
360.116753
 20
1403.263155
 30
0.0
 11
335.330631
 21
1400.0
 31
0.0
  0
LINE
  5
630
330
629
100
AcDbEntity
  8
LC-009-003-----0
 62
     7
370
    25
100
AcDbLine
 10
335.330631
 20
1400.0
 30
0.0
 11
360.116753
 21
1396.736845
 31
0.0
  0
LINE
  5
631
330
629
100
AcDbEntity
  8
LC-009-003-----0
 62
     7
370
    25
100
AcDbLine
 10
360.116753
 20
1396.736845
 30
0.0
 11
360.116753
 21
1403.263155
 31
0.0
  0
LINE
  5
632
330
629
100
AcDbEntity
  8
LC-009-003-----0
 62
     7
370
    25
100
AcDbLine
 10
360.172361
 20
1402.414735
 30
0.0
 11
341.830631
 21
1400.0
 31
0.0
  0
LINE
  5
633
330
629
100
AcDbEntity
  8
LC-009-003-----0
 62
     7
370
    25
100
AcDbLine
 10
341.830631
 20
1400.0
 30
0.0
 11
360.172361
 21
1397.585265
 31
0.0
  0
LINE
  5
634
330
629
100
AcDbEntity
  8
LC-009-003-----0
 62
     7
370
    25
100
AcDbLine
 10
360.227969
 20
1401.566314
 30
0.0
 11
348.330631
 21
1400.0
 31
0.0
  0
LINE
  5
635
330
629
100
AcDbEntity
  8
LC-009-003-----0
 62
     7
370
    25
100
AcDbLine
 10
348.330631
 20
1400.0
 30
0.0
 11
360.227969
 21
1398.433686
 31
0.0
  0
LINE
  5
636
330
629
100
AcDbEntity
  8
LC-009-003-----0
 62
     7
370
    25
100
AcDbLine
 10
360.283578
 20
1400.717894
 30
0.0
 11
354.830631
 21
1400.0
 31
0.0
  0
LINE
  5
637
330
629
100
AcDbEntity
  8
LC-009-003-----0
 62
     7
370
    25
100
AcDbLine
 10
354.830631
 20
1400.0
 30
0.0
 11
360.283578
 21
1399.282106
 31
0.0
  0
LINE
  5
638
330
629
100
AcDbEntity
  8
LC-009-003-----0
 62
     7
370
    25
100
AcDbLine
 10
1100.544509
 20
1396.736845
 30
0.0
 11
1125.330631
 21
1400.0
 31
0.0
  0
LINE
  5
639
330
629
100
AcDbEntity
  8
LC-009-003-----0
 62
     7
370
    25
100
AcDbLine
 10
1125.330631
 20
1400.0
 30
0.0
 11
1100.544509
 21
1403.263155
 31
0.0
  0
LINE
  5
63A
330
629
100
AcDbEntity
  8
LC-009-003-----0
 62
     7
370
    25
100
AcDbLine
 10
1100.544509
 20
1403.263155
 30
0.0
 11
1100.544509
 21
1396.736845
 31
0.0
  0
LINE
  5
63B
330
629
100
AcDbEntity
  8
LC-009-003-----0
 62
     7
370
    25
100
AcDbLine
 10
1100.4889
 20
1397.585265
 30
0.0
 11
1118.830631
 21
1400.0
 31
0.0
  0
LINE
  5
63C
330
629
100
AcDbEntity
  8
LC-009-003-----0
 62
     7
370
    25
100
AcDbLine
 10
1118.830631
 20
1400.0
 30
0.0
 11
1100.4889
 21
1402.414735
 31
0.0
  0
LINE
  5
63D
330
629
100
AcDbEntity
  8
LC-009-003-----0
 62
     7
370
    25
100
AcDbLine
 10
1100.433292
 20
1398.433686
 30
0.0
 11
1112.33063
 21
1400.0
 31
0.0
  0
LINE
  5
63E
330
629
100
AcDbEntity
  8
LC-009-003-----0
 62
     7
370
    25
100
AcDbLine
 10
1112.33063
 20
1400.0
 30
0.0
 11
1100.433292
 21
1401.566314
 31
0.0
  0
LINE
  5
63F
330
629
100
AcDbEntity
  8
LC-009-003-----0
 62
     7
370
    25
100
AcDbLine
 10
1100.377684
 20
1399.282106
 30
0.0
 11
1105.83063
 21
1400.0
 31
0.0
  0
LINE
  5
640
330
629
100
AcDbEntity
  8
LC-009-003-----0
 62
     7
370
    25
100
AcDbLine
 10
1105.83063
 20
1400.0
 30
0.0
 11
1100.377684
 21
1400.717894
 31
0.0
  0
TEXT
  5
641
330
629
100
AcDbEntity
  8
LC-009-003-----0
 62
     7
370
    25
100
AcDbText
 10
704.584523
 20
1415.0
 30
0.0
 40
25.0
  1
790
 41
0.8
  7
LCTX0-400-0-0pDIN-Schrift
 72
     1
 11
733.155951
 21
1415.0
 31
0.0
100
AcDbText
  0
ENDBLK
  5
62B
330
629
100
AcDbEntity
  8
0
100
AcDbBlockEnd
  0
BLOCK
  5
644
330
643
100
AcDbEntity
  8
0
100
AcDbBlockBegin
  2
LCDIM14
 70
     0
 71
     0
 10
0.0
 20
0.0
 30
0.0
  3
LCDIM14
  1

  4
LCDIM14
  0
LINE
  5
646
330
643
100
AcDbEntity
  8
LC-007-003-MTH-0
 62
     7
370
    25
100
AcDbLine
 10
382.449313
 20
1103.736499
 30
0.0
 11
382.449313
 21
1148.289315
 31
0.0
  0
LINE
  5
647
330
643
100
AcDbEntity
  8
LC-007-003-MTH-0
 62
     7
370
    25
100
AcDbLine
 10
782.449313
 20
1103.736499
 30
0.0
 11
782.449313
 21
1148.289315
 31
0.0
  0
LINE
  5
648
330
643
100
AcDbEntity
  8
LC-008-003-MTG-0
 62
     7
370
    25
100
AcDbLine
 10
382.449313
 20
1133.289314
 30
0.0
 11
782.449313
 21
1133.289314
 31
0.0
  0
LINE
  5
649
330
643
100
AcDbEntity
  8
LC-009-003-----0
 62
     7
370
    25
100
AcDbLine
 10
407.235435
 20
1136.552469
 30
0.0
 11
382.449313
 21
1133.289314
 31
0.0
  0
LINE
  5
64A
330
643
100
AcDbEntity
  8
LC-009-003-----0
 62
     7
370
    25
100
AcDbLine
 10
382.449313
 20
1133.289314
 30
0.0
 11
407.235435
 21
1130.02616
 31
0.0
  0
LINE
  5
64B
330
643
100
AcDbEntity
  8
LC-009-003-----0
 62
     7
370
    25
100
AcDbLine
 10
407.235435
 20
1130.02616
 30
0.0
 11
407.235435
 21
1136.552469
 31
0.0
  0
LINE
  5
64C
330
643
100
AcDbEntity
  8
LC-009-003-----0
 62
     7
370
    25
100
AcDbLine
 10
407.291044
 20
1135.704049
 30
0.0
 11
388.949313
 21
1133.289314
 31
0.0
  0
LINE
  5
64D
330
643
100
AcDbEntity
  8
LC-009-003-----0
 62
     7
370
    25
100
AcDbLine
 10
388.949313
 20
1133.289314
 30
0.0
 11
407.291044
 21
1130.87458
 31
0.0
  0
LINE
  5
64E
330
643
100
AcDbEntity
  8
LC-009-003-----0
 62
     7
370
    25
100
AcDbLine
 10
407.346652
 20
1134.855629
 30
0.0
 11
395.449313
 21
1133.289314
 31
0.0
  0
LINE
  5
64F
330
643
100
AcDbEntity
  8
LC-009-003-----0
 62
     7
370
    25
100
AcDbLine
 10
395.449313
 20
1133.289314
 30
0.0
 11
407.346652
 21
1131.723
 31
0.0
  0
LINE
  5
650
330
643
100
AcDbEntity
  8
LC-009-003-----0
 62
     7
370
    25
100
AcDbLine
 10
407.40226
 20
1134.007208
 30
0.0
 11
401.949314
 21
1133.289314
 31
0.0
  0
LINE
  5
651
330
643
100
AcDbEntity
  8
LC-009-003-----0
 62
     7
370
    25
100
AcDbLine
 10
401.949314
 20
1133.289314
 30
0.0
 11
407.40226
 21
1132.57142
 31
0.0
  0
LINE
  5
652
330
643
100
AcDbEntity
  8
LC-009-003-----0
 62
     7
370
    25
100
AcDbLine
 10
757.663191
 20
1130.02616
 30
0.0
 11
782.449313
 21
1133.289314
 31
0.0
  0
LINE
  5
653
330
643
100
AcDbEntity
  8
LC-009-003-----0
 62
     7
370
    25
100
AcDbLine
 10
782.449313
 20
1133.289314
 30
0.0
 11
757.663191
 21
1136.552469
 31
0.0
  0
LINE
  5
654
330
643
100
AcDbEntity
  8
LC-009-003-----0
 62
     7
370
    25
100
AcDbLine
 10
757.663191
 20
1136.552469
 30
0.0
 11
757.663191
 21
1130.02616
 31
0.0
  0
LINE
  5
655
330
643
100
AcDbEntity
  8
LC-009-003-----0
 62
     7
370
    25
100
AcDbLine
 10
757.607583
 20
1130.87458
 30
0.0
 11
775.949313
 21
1133.289314
 31
0.0
  0
LINE
  5
656
330
643
100
AcDbEntity
  8
LC-009-003-----0
 62
     7
370
    25
100
AcDbLine
 10
775.949313
 20
1133.289314
 30
0.0
 11
757.607583
 21
1135.704049
 31
0.0
  0
LINE
  5
657
330
643
100
AcDbEntity
  8
LC-009-003-----0
 62
     7
370
    25
100
AcDbLine
 10
757.551975
 20
1131.723
 30
0.0
 11
769.449313
 21
1133.289314
 31
0.0
  0
LINE
  5
658
330
643
100
AcDbEntity
  8
LC-009-003-----0
 62
     7
370
    25
100
AcDbLine
 10
769.449313
 20
1133.289314
 30
0.0
 11
757.551975
 21
1134.855629
 31
0.0
  0
LINE
  5
659
330
643
100
AcDbEntity
  8
LC-009-003-----0
 62
     7
370
    25
100
AcDbLine
 10
757.496366
 20
1132.57142
 30
0.0
 11
762.949313
 21
1133.289314
 31
0.0
  0
LINE
  5
65A
330
643
100
AcDbEntity
  8
LC-009-003-----0
 62
     7
370
    25
100
AcDbLine
 10
762.949313
 20
1133.289314
 30
0.0
 11
757.496366
 21
1134.007208
 31
0.0
  0
TEXT
  5
65B
330
643
100
AcDbEntity
  8
LC-009-003-----0
 62
     7
370
    25
100
AcDbText
 10
555.63066
 20
1148.289315
 30
0.0
 40
25.0
  1
800
 41
0.8
  7
LCTX0-400-0-0pDIN-Schrift
 72
     1
 11
584.202088
 21
1148.289315
 31
0.0
100
AcDbText
  0
ENDBLK
  5
645
330
643
100
AcDbEntity
  8
0
100
AcDbBlockEnd
  0
BLOCK
  5
65E
330
65D
100
AcDbEntity
  8
0
100
AcDbBlockBegin
  2
LCDIM15
 70
     0
 71
     0
 10
0.0
 20
0.0
 30
0.0
  3
LCDIM15
  1

  4
LCDIM15
  0
LINE
  5
660
330
65D
100
AcDbEntity
  8
LC-007-003-MTH-0
 62
     7
370
    25
100
AcDbLine
 10
1482.465403
 20
1801.78
 30
0.0
 11
1482.465403
 21
1435.0
 31
0.0
  0
LINE
  5
661
330
65D
100
AcDbEntity
  8
LC-007-003-MTH-0
 62
     7
370
    25
100
AcDbLine
 10
1794.772425
 20
1501.78
 30
0.0
 11
1794.772425
 21
1435.0
 31
0.0
  0
LINE
  5
662
330
65D
100
AcDbEntity
  8
LC-008-003-MTG-0
 62
     7
370
    25
100
AcDbLine
 10
1482.465403
 20
1450.0
 30
0.0
 11
1794.772425
 21
1450.0
 31
0.0
  0
LINE
  5
663
330
65D
100
AcDbEntity
  8
LC-009-003-----0
 62
     7
370
    25
100
AcDbLine
 10
1507.251525
 20
1453.263155
 30
0.0
 11
1482.465403
 21
1450.0
 31
0.0
  0
LINE
  5
664
330
65D
100
AcDbEntity
  8
LC-009-003-----0
 62
     7
370
    25
100
AcDbLine
 10
1482.465403
 20
1450.0
 30
0.0
 11
1507.251525
 21
1446.736845
 31
0.0
  0
LINE
  5
665
330
65D
100
AcDbEntity
  8
LC-009-003-----0
 62
     7
370
    25
100
AcDbLine
 10
1507.251525
 20
1446.736845
 30
0.0
 11
1507.251525
 21
1453.263155
 31
0.0
  0
LINE
  5
666
330
65D
100
AcDbEntity
  8
LC-009-003-----0
 62
     7
370
    25
100
AcDbLine
 10
1507.307133
 20
1452.414735
 30
0.0
 11
1488.965403
 21
1450.0
 31
0.0
  0
LINE
  5
667
330
65D
100
AcDbEntity
  8
LC-009-003-----0
 62
     7
370
    25
100
AcDbLine
 10
1488.965403
 20
1450.0
 30
0.0
 11
1507.307133
 21
1447.585265
 31
0.0
  0
LINE
  5
668
330
65D
100
AcDbEntity
  8
LC-009-003-----0
 62
     7
370
    25
100
AcDbLine
 10
1507.362742
 20
1451.566314
 30
0.0
 11
1495.465403
 21
1450.0
 31
0.0
  0
LINE
  5
669
330
65D
100
AcDbEntity
  8
LC-009-003-----0
 62
     7
370
    25
100
AcDbLine
 10
1495.465403
 20
1450.0
 30
0.0
 11
1507.362742
 21
1448.433686
 31
0.0
  0
LINE
  5
66A
330
65D
100
AcDbEntity
  8
LC-009-003-----0
 62
     7
370
    25
100
AcDbLine
 10
1507.41835
 20
1450.717894
 30
0.0
 11
1501.965403
 21
1450.0
 31
0.0
  0
LINE
  5
66B
330
65D
100
AcDbEntity
  8
LC-009-003-----0
 62
     7
370
    25
100
AcDbLine
 10
1501.965403
 20
1450.0
 30
0.0
 11
1507.41835
 21
1449.282106
 31
0.0
  0
LINE
  5
66C
330
65D
100
AcDbEntity
  8
LC-009-003-----0
 62
     7
370
    25
100
AcDbLine
 10
1769.986303
 20
1446.736845
 30
0.0
 11
1794.772425
 21
1450.0
 31
0.0
  0
LINE
  5
66D
330
65D
100
AcDbEntity
  8
LC-009-003-----0
 62
     7
370
    25
100
AcDbLine
 10
1794.772425
 20
1450.0
 30
0.0
 11
1769.986303
 21
1453.263155
 31
0.0
  0
LINE
  5
66E
330
65D
100
AcDbEntity
  8
LC-009-003-----0
 62
     7
370
    25
100
AcDbLine
 10
1769.986303
 20
1453.263155
 30
0.0
 11
1769.986303
 21
1446.736845
 31
0.0
  0
LINE
  5
66F
330
65D
100
AcDbEntity
  8
LC-009-003-----0
 62
     7
370
    25
100
AcDbLine
 10
1769.930694
 20
1447.585265
 30
0.0
 11
1788.272425
 21
1450.0
 31
0.0
  0
LINE
  5
670
330
65D
100
AcDbEntity
  8
LC-009-003-----0
 62
     7
370
    25
100
AcDbLine
 10
1788.272425
 20
1450.0
 30
0.0
 11
1769.930694
 21
1452.414735
 31
0.0
  0
LINE
  5
671
330
65D
100
AcDbEntity
  8
LC-009-003-----0
 62
     7
370
    25
100
AcDbLine
 10
1769.875086
 20
1448.433686
 30
0.0
 11
1781.772424
 21
1450.0
 31
0.0
  0
LINE
  5
672
330
65D
100
AcDbEntity
  8
LC-009-003-----0
 62
     7
370
    25
100
AcDbLine
 10
1781.772424
 20
1450.0
 30
0.0
 11
1769.875086
 21
1451.566314
 31
0.0
  0
LINE
  5
673
330
65D
100
AcDbEntity
  8
LC-009-003-----0
 62
     7
370
    25
100
AcDbLine
 10
1769.819477
 20
1449.282106
 30
0.0
 11
1775.272424
 21
1450.0
 31
0.0
  0
LINE
  5
674
330
65D
100
AcDbEntity
  8
LC-009-003-----0
 62
     7
370
    25
100
AcDbLine
 10
1775.272424
 20
1450.0
 30
0.0
 11
1769.819477
 21
1450.717894
 31
0.0
  0
TEXT
  5
675
330
65D
100
AcDbEntity
  8
LC-009-003-----0
 62
     7
370
    25
100
AcDbText
 10
1606.868047
 20
1465.0
 30
0.0
 40
25.0
  1
312
 41
0.8
  7
LCTX0-400-0-0pDIN-Schrift
 72
     1
 11
1635.439476
 21
1465.0
 31
0.0
100
AcDbText
  0
ENDBLK
  5
65F
330
65D
100
AcDbEntity
  8
0
100
AcDbBlockEnd
  0
BLOCK
  5
678
330
677
100
AcDbEntity
  8
0
100
AcDbBlockBegin
  2
*X333
 70
     1
 71
     0
 10
0.0
 20
0.0
 30
0.0
  3
*X333
  1

  4
*X3
  0
LINE
  5
67A
330
677
100
AcDbEntity
  8
LC-011-005-----0
 62
     7
370
    25
100
AcDbLine
 10
1111.330631
 20
2497.259922
 30
0.0
 11
1130.330631
 21
2516.259922
 31
0.0
  0
LINE
  5
67B
330
677
100
AcDbEntity
  8
LC-011-005-----0
 62
     7
370
    25
100
AcDbLine
 10
1111.330631
 20
2525.544193
 30
0.0
 11
1130.330631
 21
2544.544193
 31
0.0
  0
LINE
  5
67C
330
677
100
AcDbEntity
  8
LC-011-005-----0
 62
     7
370
    25
100
AcDbLine
 10
1111.330631
 20
2553.828464
 30
0.0
 11
1130.330631
 21
2572.828464
 31
0.0
  0
LINE
  5
67D
330
677
100
AcDbEntity
  8
LC-011-005-----0
 62
     7
370
    25
100
AcDbLine
 10
1111.330631
 20
2582.112736
 30
0.0
 11
1130.330631
 21
2601.112736
 31
0.0
  0
LINE
  5
67E
330
677
100
AcDbEntity
  8
LC-011-005-----0
 62
     7
370
    25
100
AcDbLine
 10
340.866715
 20
2490.47133
 30
0.0
 11
349.330631
 21
2498.935245
 31
0.0
  0
LINE
  5
67F
330
677
100
AcDbEntity
  8
LC-011-005-----0
 62
     7
370
    25
100
AcDbLine
 10
330.330631
 20
2508.219517
 30
0.0
 11
349.330631
 21
2527.219517
 31
0.0
  0
LINE
  5
680
330
677
100
AcDbEntity
  8
LC-011-005-----0
 62
     7
370
    25
100
AcDbLine
 10
330.330631
 20
2536.503788
 30
0.0
 11
349.330631
 21
2555.503788
 31
0.0
  0
LINE
  5
681
330
677
100
AcDbEntity
  8
LC-011-005-----0
 62
     7
370
    25
100
AcDbLine
 10
330.330631
 20
2564.788059
 30
0.0
 11
349.330631
 21
2583.788059
 31
0.0
  0
LINE
  5
682
330
677
100
AcDbEntity
  8
LC-011-005-----0
 62
     7
370
    25
100
AcDbLine
 10
330.330631
 20
2593.07233
 30
0.0
 11
339.5883
 21
2602.33
 31
0.0
  0
ENDBLK
  5
679
330
677
100
AcDbEntity
  8
0
100
AcDbBlockEnd
  0
BLOCK
  5
68B
330
68A
100
AcDbEntity
  8
0
100
AcDbBlockBegin
  2
LCDIM16
 70
     0
 71
     0
 10
0.0
 20
0.0
 30
0.0
  3
LCDIM16
  1

  4
LCDIM16
  0
LINE
  5
68D
330
68A
100
AcDbEntity
  8
LC-007-003-MTH-0
 62
     7
370
    25
100
AcDbLine
 10
1650.853675
 20
833.956964
 30
0.0
 11
1751.548191
 21
833.956964
 31
0.0
  0
LINE
  5
68E
330
68A
100
AcDbEntity
  8
LC-007-003-MTH-0
 62
     7
370
    25
100
AcDbLine
 10
1650.853675
 20
1076.456964
 30
0.0
 11
1751.548191
 21
1076.456964
 31
0.0
  0
LINE
  5
68F
330
68A
100
AcDbEntity
  8
LC-008-003-MTG-0
 62
     7
370
    25
100
AcDbLine
 10
1736.54819
 20
833.956964
 30
0.0
 11
1736.54819
 21
1076.456964
 31
0.0
  0
LINE
  5
690
330
68A
100
AcDbEntity
  8
LC-009-003-----0
 62
     7
370
    25
100
AcDbLine
 10
1733.285036
 20
858.743086
 30
0.0
 11
1736.54819
 21
833.956964
 31
0.0
  0
LINE
  5
691
330
68A
100
AcDbEntity
  8
LC-009-003-----0
 62
     7
370
    25
100
AcDbLine
 10
1736.54819
 20
833.956964
 30
0.0
 11
1739.811345
 21
858.743086
 31
0.0
  0
LINE
  5
692
330
68A
100
AcDbEntity
  8
LC-009-003-----0
 62
     7
370
    25
100
AcDbLine
 10
1739.811345
 20
858.743086
 30
0.0
 11
1733.285036
 21
858.743086
 31
0.0
  0
LINE
  5
693
330
68A
100
AcDbEntity
  8
LC-009-003-----0
 62
     7
370
    25
100
AcDbLine
 10
1734.133456
 20
858.798694
 30
0.0
 11
1736.54819
 21
840.456964
 31
0.0
  0
LINE
  5
694
330
68A
100
AcDbEntity
  8
LC-009-003-----0
 62
     7
370
    25
100
AcDbLine
 10
1736.54819
 20
840.456964
 30
0.0
 11
1738.962925
 21
858.798694
 31
0.0
  0
LINE
  5
695
330
68A
100
AcDbEntity
  8
LC-009-003-----0
 62
     7
370
    25
100
AcDbLine
 10
1734.981876
 20
858.854302
 30
0.0
 11
1736.54819
 21
846.956964
 31
0.0
  0
LINE
  5
696
330
68A
100
AcDbEntity
  8
LC-009-003-----0
 62
     7
370
    25
100
AcDbLine
 10
1736.54819
 20
846.956964
 30
0.0
 11
1738.114505
 21
858.854302
 31
0.0
  0
LINE
  5
697
330
68A
100
AcDbEntity
  8
LC-009-003-----0
 62
     7
370
    25
100
AcDbLine
 10
1735.830296
 20
858.909911
 30
0.0
 11
1736.54819
 21
853.456964
 31
0.0
  0
LINE
  5
698
330
68A
100
AcDbEntity
  8
LC-009-003-----0
 62
     7
370
    25
100
AcDbLine
 10
1736.54819
 20
853.456964
 30
0.0
 11
1737.266084
 21
858.909911
 31
0.0
  0
LINE
  5
699
330
68A
100
AcDbEntity
  8
LC-009-003-----0
 62
     7
370
    25
100
AcDbLine
 10
1739.811345
 20
1051.670842
 30
0.0
 11
1736.54819
 21
1076.456964
 31
0.0
  0
LINE
  5
69A
330
68A
100
AcDbEntity
  8
LC-009-003-----0
 62
     7
370
    25
100
AcDbLine
 10
1736.54819
 20
1076.456964
 30
0.0
 11
1733.285036
 21
1051.670842
 31
0.0
  0
LINE
  5
69B
330
68A
100
AcDbEntity
  8
LC-009-003-----0
 62
     7
370
    25
100
AcDbLine
 10
1733.285036
 20
1051.670842
 30
0.0
 11
1739.811345
 21
1051.670842
 31
0.0
  0
LINE
  5
69C
330
68A
100
AcDbEntity
  8
LC-009-003-----0
 62
     7
370
    25
100
AcDbLine
 10
1738.962925
 20
1051.615233
 30
0.0
 11
1736.54819
 21
1069.956964
 31
0.0
  0
LINE
  5
69D
330
68A
100
AcDbEntity
  8
LC-009-003-----0
 62
     7
370
    25
100
AcDbLine
 10
1736.54819
 20
1069.956964
 30
0.0
 11
1734.133456
 21
1051.615233
 31
0.0
  0
LINE
  5
69E
330
68A
100
AcDbEntity
  8
LC-009-003-----0
 62
     7
370
    25
100
AcDbLine
 10
1738.114505
 20
1051.559625
 30
0.0
 11
1736.54819
 21
1063.456964
 31
0.0
  0
LINE
  5
69F
330
68A
100
AcDbEntity
  8
LC-009-003-----0
 62
     7
370
    25
100
AcDbLine
 10
1736.54819
 20
1063.456964
 30
0.0
 11
1734.981876
 21
1051.559625
 31
0.0
  0
LINE
  5
6A0
330
68A
100
AcDbEntity
  8
LC-009-003-----0
 62
     7
370
    25
100
AcDbLine
 10
1737.266084
 20
1051.504017
 30
0.0
 11
1736.54819
 21
1056.956963
 31
0.0
  0
LINE
  5
6A1
330
68A
100
AcDbEntity
  8
LC-009-003-----0
 62
     7
370
    25
100
AcDbLine
 10
1736.54819
 20
1056.956963
 30
0.0
 11
1735.830296
 21
1051.504017
 31
0.0
  0
TEXT
  5
6A2
330
68A
100
AcDbEntity
  8
LC-009-003-----0
 62
     7
370
    25
100
AcDbText
 10
1721.54819
 20
932.878922
 30
0.0
 40
25.0
  1
485
 50
90.0
 41
0.7
  7
LCTX0-400-0-0pDIN-Schrift
 72
     1
 11
1721.54819
 21
957.878922
 31
0.0
100
AcDbText
  0
ENDBLK
  5
68C
330
68A
100
AcDbEntity
  8
0
100
AcDbBlockEnd
  0
BLOCK
  5
6A5
330
6A4
100
AcDbEntity
  8
0
100
AcDbBlockBegin
  2
LCDIM17
 70
     0
 71
     0
 10
0.0
 20
0.0
 30
0.0
  3
LCDIM17
  1

  4
LCDIM17
  0
LINE
  5
6A7
330
6A4
100
AcDbEntity
  8
LC-007-003-MTH-0
 62
     7
370
    25
100
AcDbLine
 10
1283.353675
 20
853.956964
 30
0.0
 11
1283.353675
 21
755.135895
 31
0.0
  0
LINE
  5
6A8
330
6A4
100
AcDbEntity
  8
LC-007-003-MTH-0
 62
     7
370
    25
100
AcDbLine
 10
1670.853675
 20
853.956964
 30
0.0
 11
1670.853675
 21
755.135895
 31
0.0
  0
LINE
  5
6A9
330
6A4
100
AcDbEntity
  8
LC-008-003-MTG-0
 62
     7
370
    25
100
AcDbLine
 10
1283.353675
 20
770.135896
 30
0.0
 11
1670.853675
 21
770.135896
 31
0.0
  0
LINE
  5
6AA
330
6A4
100
AcDbEntity
  8
LC-009-003-----0
 62
     7
370
    25
100
AcDbLine
 10
1308.139797
 20
773.39905
 30
0.0
 11
1283.353675
 21
770.135896
 31
0.0
  0
LINE
  5
6AB
330
6A4
100
AcDbEntity
  8
LC-009-003-----0
 62
     7
370
    25
100
AcDbLine
 10
1283.353675
 20
770.135896
 30
0.0
 11
1308.139797
 21
766.872741
 31
0.0
  0
LINE
  5
6AC
330
6A4
100
AcDbEntity
  8
LC-009-003-----0
 62
     7
370
    25
100
AcDbLine
 10
1308.139797
 20
766.872741
 30
0.0
 11
1308.139797
 21
773.39905
 31
0.0
  0
LINE
  5
6AD
330
6A4
100
AcDbEntity
  8
LC-009-003-----0
 62
     7
370
    25
100
AcDbLine
 10
1308.195406
 20
772.55063
 30
0.0
 11
1289.853676
 21
770.135896
 31
0.0
  0
LINE
  5
6AE
330
6A4
100
AcDbEntity
  8
LC-009-003-----0
 62
     7
370
    25
100
AcDbLine
 10
1289.853676
 20
770.135896
 30
0.0
 11
1308.195406
 21
767.721161
 31
0.0
  0
LINE
  5
6AF
330
6A4
100
AcDbEntity
  8
LC-009-003-----0
 62
     7
370
    25
100
AcDbLine
 10
1308.251014
 20
771.70221
 30
0.0
 11
1296.353676
 21
770.135896
 31
0.0
  0
LINE
  5
6B0
330
6A4
100
AcDbEntity
  8
LC-009-003-----0
 62
     7
370
    25
100
AcDbLine
 10
1296.353676
 20
770.135896
 30
0.0
 11
1308.251014
 21
768.569581
 31
0.0
  0
LINE
  5
6B1
330
6A4
100
AcDbEntity
  8
LC-009-003-----0
 62
     7
370
    25
100
AcDbLine
 10
1308.306623
 20
770.85379
 30
0.0
 11
1302.853676
 21
770.135896
 31
0.0
  0
LINE
  5
6B2
330
6A4
100
AcDbEntity
  8
LC-009-003-----0
 62
     7
370
    25
100
AcDbLine
 10
1302.853676
 20
770.135896
 30
0.0
 11
1308.306623
 21
769.418002
 31
0.0
  0
LINE
  5
6B3
330
6A4
100
AcDbEntity
  8
LC-009-003-----0
 62
     7
370
    25
100
AcDbLine
 10
1646.067554
 20
766.872741
 30
0.0
 11
1670.853675
 21
770.135896
 31
0.0
  0
LINE
  5
6B4
330
6A4
100
AcDbEntity
  8
LC-009-003-----0
 62
     7
370
    25
100
AcDbLine
 10
1670.853675
 20
770.135896
 30
0.0
 11
1646.067554
 21
773.39905
 31
0.0
  0
LINE
  5
6B5
330
6A4
100
AcDbEntity
  8
LC-009-003-----0
 62
     7
370
    25
100
AcDbLine
 10
1646.067554
 20
773.39905
 30
0.0
 11
1646.067554
 21
766.872741
 31
0.0
  0
LINE
  5
6B6
330
6A4
100
AcDbEntity
  8
LC-009-003-----0
 62
     7
370
    25
100
AcDbLine
 10
1646.011945
 20
767.721161
 30
0.0
 11
1664.353675
 21
770.135896
 31
0.0
  0
LINE
  5
6B7
330
6A4
100
AcDbEntity
  8
LC-009-003-----0
 62
     7
370
    25
100
AcDbLine
 10
1664.353675
 20
770.135896
 30
0.0
 11
1646.011945
 21
772.55063
 31
0.0
  0
LINE
  5
6B8
330
6A4
100
AcDbEntity
  8
LC-009-003-----0
 62
     7
370
    25
100
AcDbLine
 10
1645.956337
 20
768.569581
 30
0.0
 11
1657.853675
 21
770.135896
 31
0.0
  0
LINE
  5
6B9
330
6A4
100
AcDbEntity
  8
LC-009-003-----0
 62
     7
370
    25
100
AcDbLine
 10
1657.853675
 20
770.135896
 30
0.0
 11
1645.956337
 21
771.70221
 31
0.0
  0
LINE
  5
6BA
330
6A4
100
AcDbEntity
  8
LC-009-003-----0
 62
     7
370
    25
100
AcDbLine
 10
1645.900728
 20
769.418002
 30
0.0
 11
1651.353675
 21
770.135896
 31
0.0
  0
LINE
  5
6BB
330
6A4
100
AcDbEntity
  8
LC-009-003-----0
 62
     7
370
    25
100
AcDbLine
 10
1651.353675
 20
770.135896
 30
0.0
 11
1645.900728
 21
770.85379
 31
0.0
  0
TEXT
  5
6BC
330
6A4
100
AcDbEntity
  8
LC-009-003-----0
 62
     7
370
    25
100
AcDbText
 10
1453.617515
 20
785.135896
 30
0.0
 40
25.0
  1
775
 41
0.7
  7
LCTX0-400-0-0pDIN-Schrift
 72
     1
 11
1478.617515
 21
785.135896
 31
0.0
100
AcDbText
  0
ENDBLK
  5
6A6
330
6A4
100
AcDbEntity
  8
0
100
AcDbBlockEnd
  0
BLOCK
  5
6BF
330
6BE
100
AcDbEntity
  8
0
100
AcDbBlockBegin
  2
LCDIM18
 70
     0
 71
     0
 10
0.0
 20
0.0
 30
0.0
  3
LCDIM18
  1

  4
LCDIM18
  0
TEXT
  5
6C1
330
6BE
100
AcDbEntity
  8
LC-009-003-----0
 62
     7
370
    25
100
AcDbText
 10
1356.943655
 20
1031.733708
 30
0.0
 40
25.0
  1
R40
 50
320.510376
 41
0.7
  7
LCTX0-400-0-0pDIN-Schrift
100
AcDbText
  0
LINE
  5
6C2
330
6BE
100
AcDbEntity
  8
LC-008-003-MTG-0
 62
     7
370
    25
100
AcDbLine
 10
1377.419925
 20
995.423996
 30
0.0
 11
1287.918877
 21
1069.17573
 31
0.0
  0
LINE
  5
6C3
330
6BE
100
AcDbEntity
  8
LC-009-003-----0
 62
     7
370
    25
100
AcDbLine
 10
1309.12248
 20
1055.93159
 30
0.0
 11
1287.918877
 21
1069.17573
 31
0.0
  0
LINE
  5
6C4
330
6BE
100
AcDbEntity
  8
LC-009-003-----0
 62
     7
370
    25
100
AcDbLine
 10
1287.918877
 20
1069.17573
 30
0.0
 11
1304.972149
 21
1050.894977
 31
0.0
  0
LINE
  5
6C5
330
6BE
100
AcDbEntity
  8
LC-009-003-----0
 62
     7
370
    25
100
AcDbLine
 10
1304.972149
 20
1050.894977
 30
0.0
 11
1309.12248
 21
1055.93159
 31
0.0
  0
LINE
  5
6C6
330
6BE
100
AcDbEntity
  8
LC-009-003-----0
 62
     7
370
    25
100
AcDbLine
 10
1308.625852
 20
1055.241467
 30
0.0
 11
1292.935186
 21
1065.04213
 31
0.0
  0
LINE
  5
6C7
330
6BE
100
AcDbEntity
  8
LC-009-003-----0
 62
     7
370
    25
100
AcDbLine
 10
1292.935186
 20
1065.04213
 30
0.0
 11
1305.554608
 21
1051.514373
 31
0.0
  0
LINE
  5
6C8
330
6BE
100
AcDbEntity
  8
LC-009-003-----0
 62
     7
370
    25
100
AcDbLine
 10
1308.129224
 20
1054.551344
 30
0.0
 11
1297.951495
 21
1060.908531
 31
0.0
  0
LINE
  5
6C9
330
6BE
100
AcDbEntity
  8
LC-009-003-----0
 62
     7
370
    25
100
AcDbLine
 10
1297.951495
 20
1060.908531
 30
0.0
 11
1306.137066
 21
1052.133769
 31
0.0
  0
LINE
  5
6CA
330
6BE
100
AcDbEntity
  8
LC-009-003-----0
 62
     7
370
    25
100
AcDbLine
 10
1307.632597
 20
1053.861221
 30
0.0
 11
1302.967804
 21
1056.774931
 31
0.0
  0
LINE
  5
6CB
330
6BE
100
AcDbEntity
  8
LC-009-003-----0
 62
     7
370
    25
100
AcDbLine
 10
1302.967804
 20
1056.774931
 30
0.0
 11
1306.719524
 21
1052.753166
 31
0.0
  0
ENDBLK
  5
6C0
330
6BE
100
AcDbEntity
  8
0
100
AcDbBlockEnd
  0
ENDSEC
  0
SECTION
  2
ENTITIES
  0
INSERT
  5
101
330
1F
100
AcDbEntity
  8
LC-003-230-ZVN-0
 62
     7
370
   211
100
AcDbBlockReference
  2
SYM1
 10
0.0
 20
0.0
 30
0.0
  0
LINE
  5
103
330
1F
100
AcDbEntity
  8
LC-002-002-----0
  6
DASHDOT
 62
     7
370
    25
100
AcDbLine
 10
782.449313
 20
1103.736499
 30
0.0
 11
782.449313
 21
823.439971
 31
0.0
  0
LINE
  5
105
102
{ACAD_REACTORS
330
6D6
102
}
330
1F
100
AcDbEntity
  8
LC-004-099-----0
 62
     7
370
    50
100
AcDbLine
 10
335.330631
 20
1507.78
 30
0.0
 11
335.330631
 21
1995.78
 31
0.0
  0
LINE
  5
106
102
{ACAD_REACTORS
330
6D6
102
}
330
1F
100
AcDbEntity
  8
LC-004-099-----0
 62
     7
370
    50
100
AcDbLine
 10
341.330631
 20
1501.78
 30
0.0
 11
341.330631
 21
1502.209317
 31
0.0
  0
LINE
  5
107
102
{ACAD_REACTORS
330
6D6
102
}
330
1F
100
AcDbEntity
  8
LC-004-099-----0
 62
     7
370
    50
100
AcDbLine
 10
341.330631
 20
2001.78
 30
0.0
 11
341.330631
 21
2001.350683
 31
0.0
  0
LINE
  5
108
102
{ACAD_REACTORS
330
6D6
102
}
330
1F
100
AcDbEntity
  8
LC-004-099-----0
 62
     7
370
    25
100
AcDbLine
 10
358.330631
 20
1953.78
 30
0.0
 11
358.330631
 21
1549.78
 31
0.0
  0
LINE
  5
109
330
1F
100
AcDbEntity
  8
LC-002-002-----0
  6
DASHDOT
 62
     7
370
    25
100
AcDbLine
 10
772.949313
 20
1103.736499
 30
0.0
 11
772.949313
 21
823.439971
 31
0.0
  0
LINE
  5
10A
102
{ACAD_REACTORS
330
6D6
102
}
330
1F
100
AcDbEntity
  8
LC-004-099-----0
 62
     7
370
    50
100
AcDbLine
 10
374.330631
 20
1902.78
 30
0.0
 11
374.330631
 21
1600.78
 31
0.0
  0
LINE
  5
10B
330
1F
100
AcDbEntity
  8
LC-002-002-----0
  6
DASHDOT
 62
     7
370
    25
100
AcDbLine
 10
382.449313
 20
1103.736499
 30
0.0
 11
382.449313
 21
823.439971
 31
0.0
  0
LINE
  5
10C
330
1F
100
AcDbEntity
  8
LC-002-002-----0
  6
DASHDOT
 62
     7
370
    25
100
AcDbLine
 10
391.949313
 20
1103.736499
 30
0.0
 11
391.949313
 21
823.439971
 31
0.0
  0
LINE
  5
10D
102
{ACAD_REACTORS
330
6E0
102
}
330
1F
100
AcDbEntity
  8
LC-002-002-----0
 62
     7
370
    25
100
AcDbLine
 10
330.330631
 20
2493.849812
 30
0.0
 11
343.314326
 21
2489.686484
 31
0.0
  0
LINE
  5
10E
102
{ACAD_REACTORS
330
6E0
102
}
330
1F
100
AcDbEntity
  8
LC-002-002-----0
 62
     7
370
    25
100
AcDbLine
 10
343.314326
 20
2489.686484
 30
0.0
 11
349.330631
 21
2493.849812
 31
0.0
  0
LINE
  5
10F
102
{ACAD_REACTORS
330
6E0
102
}
330
1F
100
AcDbEntity
  8
LC-002-002-----0
 62
     7
370
    25
100
AcDbLine
 10
1111.330631
 20
2493.849812
 30
0.0
 11
1121.0765
 21
2489.161493
 31
0.0
  0
LINE
  5
110
102
{ACAD_REACTORS
330
6E0
102
}
330
1F
100
AcDbEntity
  8
LC-002-002-----0
 62
     7
370
    25
100
AcDbLine
 10
1121.0765
 20
2489.161493
 30
0.0
 11
1130.330631
 21
2493.849812
 31
0.0
  0
LINE
  5
111
330
1F
100
AcDbEntity
  8
LC-002-002-----0
 62
     7
370
    50
100
AcDbLine
 10
1303.353675
 20
1076.456964
 30
0.0
 11
1650.853675
 21
1076.456964
 31
0.0
  0
LINE
  5
112
102
{ACAD_REACTORS
330
6D6
102
}
330
1F
100
AcDbEntity
  8
LC-004-099-----0
 62
     7
370
    25
100
AcDbLine
 10
414.694591
 20
1599.70286
 30
0.0
 11
414.725103
 21
1662.593086
 31
0.0
  0
LINE
  5
113
102
{ACAD_REACTORS
330
6D6
102
}
330
1F
100
AcDbEntity
  8
LC-004-099-----0
 62
     7
370
    25
100
AcDbLine
 10
414.725103
 20
1662.593086
 30
0.0
 11
414.719263
 21
1871.791549
 31
0.0
  0
LINE
  5
114
102
{ACAD_REACTORS
330
6D6
102
}
330
1F
100
AcDbEntity
  8
LC-004-099-----0
 62
     7
370
    25
100
AcDbLine
 10
414.719263
 20
1871.791549
 30
0.0
 11
414.694591
 21
1903.85714
 31
0.0
  0
LINE
  5
115
330
1F
100
AcDbEntity
  8
LC-002-002-----0
 62
     7
370
    50
100
AcDbLine
 10
1670.853675
 20
853.956964
 30
0.0
 11
1670.853675
 21
1056.456964
 31
0.0
  0
ARC
  5
117
330
1F
100
AcDbEntity
  8
LC-005-002-RND-0
 62
     7
370
    50
100
AcDbCircle
 10
1303.353675
 20
1056.456964
 30
0.0
 40
20.0
100
AcDbArc
 50
90.0
 51
180.0
  0
ARC
  5
118
330
1F
100
AcDbEntity
  8
LC-005-002-RND-0
 62
     7
370
    50
100
AcDbCircle
 10
1303.353675
 20
853.956964
 30
0.0
 40
20.0
100
AcDbArc
 50
180.0
 51
270.0
  0
ARC
  5
119
330
1F
100
AcDbEntity
  8
LC-005-002-RND-0
 62
     7
370
    50
100
AcDbCircle
 10
1650.853675
 20
853.956964
 30
0.0
 40
20.0
100
AcDbArc
 50
270.0
 51
0.0
  0
ARC
  5
11A
330
1F
100
AcDbEntity
  8
LC-005-002-RND-0
 62
     7
370
    50
100
AcDbCircle
 10
1650.853675
 20
1056.456964
 30
0.0
 40
20.0
100
AcDbArc
 50
0.0
 51
90.0
  0
LINE
  5
11B
102
{ACAD_REACTORS
330
6D6
102
}
330
1F
100
AcDbEntity
  8
LC-004-099-----0
 62
     7
370
    25
100
AcDbLine
 10
414.694591
 20
1903.85714
 30
0.0
 11
415.1524
 21
1907.94534
 31
0.0
  0
LINE
  5
11C
102
{ACAD_REACTORS
330
6D6
102
}
330
1F
100
AcDbEntity
  8
LC-004-099-----0
 62
     7
370
    25
100
AcDbLine
 10
415.1524
 20
1907.94534
 30
0.0
 11
416.512027
 21
1911.83361
 31
0.0
  0
LINE
  5
11D
102
{ACAD_REACTORS
330
6D6
102
}
330
1F
100
AcDbEntity
  8
LC-004-099-----0
 62
     7
370
    25
100
AcDbLine
 10
416.512027
 20
1911.83361
 30
0.0
 11
418.705989
 21
1915.325746
 31
0.0
  0
LINE
  5
11E
102
{ACAD_REACTORS
330
6D6
102
}
330
1F
100
AcDbEntity
  8
LC-004-099-----0
 62
     7
370
    25
100
AcDbLine
 10
418.705989
 20
1915.325746
 30
0.0
 11
421.621478
 21
1918.241493
 31
0.0
  0
LINE
  5
11F
102
{ACAD_REACTORS
330
6D6
102
}
330
1F
100
AcDbEntity
  8
LC-004-099-----0
 62
     7
370
    25
100
AcDbLine
 10
421.621478
 20
1918.241493
 30
0.0
 11
425.111939
 21
1920.434516
 31
0.0
  0
LINE
  5
120
102
{ACAD_REACTORS
330
6D6
102
}
330
1F
100
AcDbEntity
  8
LC-004-099-----0
 62
     7
370
    25
100
AcDbLine
 10
425.111939
 20
1920.434516
 30
0.0
 11
428.996912
 21
1921.79229
 31
0.0
  0
LINE
  5
121
102
{ACAD_REACTORS
330
6D6
102
}
330
1F
100
AcDbEntity
  8
LC-004-099-----0
 62
     7
370
    25
100
AcDbLine
 10
428.996912
 20
1921.79229
 30
0.0
 11
433.08056
 21
1922.247763
 31
0.0
  0
LINE
  5
122
102
{ACAD_REACTORS
330
6D6
102
}
330
1F
100
AcDbEntity
  8
LC-004-099-----0
 62
     7
370
    50
100
AcDbLine
 10
1119.330631
 20
2001.78
 30
0.0
 11
341.330631
 21
2001.78
 31
0.0
  0
LINE
  5
123
102
{ACAD_REACTORS
330
6D6
102
}
330
1F
100
AcDbEntity
  8
LC-004-099-----0
 62
     7
370
    25
100
AcDbLine
 10
1077.330631
 20
1978.78
 30
0.0
 11
383.330631
 21
1978.78
 31
0.0
  0
LINE
  5
124
102
{ACAD_REACTORS
330
6D6
102
}
330
1F
100
AcDbEntity
  8
LC-004-099-----0
 62
     7
370
    50
100
AcDbLine
 10
1026.330631
 20
1962.78
 30
0.0
 11
852.330631
 21
1962.78
 31
0.0
  0
LINE
  5
125
102
{ACAD_REACTORS
330
6D6
102
}
330
1F
100
AcDbEntity
  8
LC-004-099-----0
 62
     7
370
    50
100
AcDbLine
 10
608.330631
 20
1962.78
 30
0.0
 11
434.330631
 21
1962.78
 31
0.0
  0
LINE
  5
126
102
{ACAD_REACTORS
330
6D6
102
}
330
1F
100
AcDbEntity
  8
LC-004-099-----0
 62
     7
370
    25
100
AcDbLine
 10
608.330631
 20
1922.231617
 30
0.0
 11
619.298849
 21
1921.276723
 31
0.0
  0
LINE
  5
127
102
{ACAD_REACTORS
330
6D6
102
}
330
1F
100
AcDbEntity
  8
LC-004-099-----0
 62
     7
370
    25
100
AcDbLine
 10
619.298849
 20
1921.276723
 30
0.0
 11
629.957332
 21
1918.432969
 31
0.0
  0
LINE
  5
128
102
{ACAD_REACTORS
330
6D6
102
}
330
1F
100
AcDbEntity
  8
LC-004-099-----0
 62
     7
370
    25
100
AcDbLine
 10
629.957332
 20
1918.432969
 30
0.0
 11
639.966418
 21
1913.782497
 31
0.0
  0
LINE
  5
129
102
{ACAD_REACTORS
330
6D6
102
}
330
1F
100
AcDbEntity
  8
LC-004-099-----0
 62
     7
370
    25
100
AcDbLine
 10
639.966418
 20
1913.782497
 30
0.0
 11
649.010373
 21
1907.470447
 31
0.0
  0
LINE
  5
12A
102
{ACAD_REACTORS
330
6D6
102
}
330
1F
100
AcDbEntity
  8
LC-004-099-----0
 62
     7
370
    25
100
AcDbLine
 10
649.010373
 20
1907.470447
 30
0.0
 11
656.812569
 21
1899.692658
 31
0.0
  0
LINE
  5
12B
102
{ACAD_REACTORS
330
6D6
102
}
330
1F
100
AcDbEntity
  8
LC-004-099-----0
 62
     7
370
    25
100
AcDbLine
 10
656.812569
 20
1899.692658
 30
0.0
 11
663.139319
 21
1890.68431
 31
0.0
  0
LINE
  5
12C
102
{ACAD_REACTORS
330
6D6
102
}
330
1F
100
AcDbEntity
  8
LC-004-099-----0
 62
     7
370
    25
100
AcDbLine
 10
663.139319
 20
1890.68431
 30
0.0
 11
667.795143
 21
1880.726319
 31
0.0
  0
LINE
  5
12D
102
{ACAD_REACTORS
330
6D6
102
}
330
1F
100
AcDbEntity
  8
LC-004-099-----0
 62
     7
370
    25
100
AcDbLine
 10
667.795143
 20
1880.726319
 30
0.0
 11
670.6365
 21
1870.142235
 31
0.0
  0
LINE
  5
12E
102
{ACAD_REACTORS
330
6D6
102
}
330
1F
100
AcDbEntity
  8
LC-004-099-----0
 62
     7
370
    25
100
AcDbLine
 10
670.6365
 20
1870.142235
 30
0.0
 11
671.586716
 21
1859.283021
 31
0.0
  0
LINE
  5
12F
102
{ACAD_REACTORS
330
6D6
102
}
330
1F
100
AcDbEntity
  8
LC-004-099-----0
 62
     7
370
    25
100
AcDbLine
 10
433.08056
 20
1922.247763
 30
0.0
 11
483.749964
 21
1922.194256
 31
0.0
  0
LINE
  5
130
102
{ACAD_REACTORS
330
6D6
102
}
330
1F
100
AcDbEntity
  8
LC-004-099-----0
 62
     7
370
    25
100
AcDbLine
 10
483.749964
 20
1922.194256
 30
0.0
 11
608.330631
 21
1922.231617
 31
0.0
  0
LINE
  5
131
102
{ACAD_REACTORS
330
6D6
102
}
330
1F
100
AcDbEntity
  8
LC-004-099-----0
 62
     7
370
    25
100
AcDbLine
 10
811.650888
 20
1907.470447
 30
0.0
 11
803.848693
 21
1899.692658
 31
0.0
  0
LINE
  5
132
102
{ACAD_REACTORS
330
6D6
102
}
330
1F
100
AcDbEntity
  8
LC-004-099-----0
 62
     7
370
    25
100
AcDbLine
 10
803.848693
 20
1899.692658
 30
0.0
 11
797.521943
 21
1890.68431
 31
0.0
  0
LINE
  5
133
102
{ACAD_REACTORS
330
6D6
102
}
330
1F
100
AcDbEntity
  8
LC-004-099-----0
 62
     7
370
    25
100
AcDbLine
 10
797.521943
 20
1890.68431
 30
0.0
 11
792.866118
 21
1880.726319
 31
0.0
  0
LINE
  5
134
102
{ACAD_REACTORS
330
6D6
102
}
330
1F
100
AcDbEntity
  8
LC-004-099-----0
 62
     7
370
    25
100
AcDbLine
 10
792.866118
 20
1880.726319
 30
0.0
 11
790.024762
 21
1870.142235
 31
0.0
  0
LINE
  5
135
102
{ACAD_REACTORS
330
6D6
102
}
330
1F
100
AcDbEntity
  8
LC-004-099-----0
 62
     7
370
    25
100
AcDbLine
 10
790.024762
 20
1870.142235
 30
0.0
 11
789.074546
 21
1859.283021
 31
0.0
  0
LINE
  5
136
102
{ACAD_REACTORS
330
6D6
102
}
330
1F
100
AcDbEntity
  8
LC-004-099-----0
 62
     7
370
    25
100
AcDbLine
 10
671.725257
 20
1697.790179
 30
0.0
 11
671.599599
 21
1663.432199
 31
0.0
  0
LINE
  5
137
102
{ACAD_REACTORS
330
6D6
102
}
330
1F
100
AcDbEntity
  8
LC-004-099-----0
 62
     7
370
    25
100
AcDbLine
 10
671.599599
 20
1663.432199
 30
0.0
 11
671.586716
 21
1644.276979
 31
0.0
  0
LINE
  5
138
102
{ACAD_REACTORS
330
6D6
102
}
330
1F
100
AcDbEntity
  8
LC-004-099-----0
 62
     7
370
    25
100
AcDbLine
 10
671.971352
 20
1738.713212
 30
0.0
 11
671.725257
 21
1697.790179
 31
0.0
  0
LINE
  5
139
102
{ACAD_REACTORS
330
6D6
102
}
330
1F
100
AcDbEntity
  8
LC-004-099-----0
 62
     7
370
    25
100
AcDbLine
 10
671.586716
 20
1859.283021
 30
0.0
 11
671.649093
 21
1821.799577
 31
0.0
  0
LINE
  5
13A
102
{ACAD_REACTORS
330
6D6
102
}
330
1F
100
AcDbEntity
  8
LC-004-099-----0
 62
     7
370
    25
100
AcDbLine
 10
671.649093
 20
1821.799577
 30
0.0
 11
671.971352
 21
1764.846788
 31
0.0
  0
LINE
  5
13B
102
{ACAD_REACTORS
330
6D6
102
}
330
1F
100
AcDbEntity
  8
LC-004-099-----0
 62
     7
370
    25
100
AcDbLine
 10
671.586716
 20
1644.276979
 30
0.0
 11
670.6365
 21
1633.417765
 31
0.0
  0
LINE
  5
13C
102
{ACAD_REACTORS
330
6D6
102
}
330
1F
100
AcDbEntity
  8
LC-004-099-----0
 62
     7
370
    25
100
AcDbLine
 10
670.6365
 20
1633.417765
 30
0.0
 11
667.795143
 21
1622.833681
 31
0.0
  0
LINE
  5
13D
102
{ACAD_REACTORS
330
6D6
102
}
330
1F
100
AcDbEntity
  8
LC-004-099-----0
 62
     7
370
    25
100
AcDbLine
 10
667.795143
 20
1622.833681
 30
0.0
 11
663.139319
 21
1612.87569
 31
0.0
  0
LINE
  5
13E
102
{ACAD_REACTORS
330
6D6
102
}
330
1F
100
AcDbEntity
  8
LC-004-099-----0
 62
     7
370
    25
100
AcDbLine
 10
663.139319
 20
1612.87569
 30
0.0
 11
656.812569
 21
1603.867342
 31
0.0
  0
LINE
  5
13F
102
{ACAD_REACTORS
330
6D6
102
}
330
1F
100
AcDbEntity
  8
LC-004-099-----0
 62
     7
370
    25
100
AcDbLine
 10
656.812569
 20
1603.867342
 30
0.0
 11
649.010373
 21
1596.089553
 31
0.0
  0
LINE
  5
140
102
{ACAD_REACTORS
330
6D6
102
}
330
1F
100
AcDbEntity
  8
LC-004-099-----0
 62
     7
370
    25
100
AcDbLine
 10
649.010373
 20
1596.089553
 30
0.0
 11
639.966418
 21
1589.777503
 31
0.0
  0
LINE
  5
141
102
{ACAD_REACTORS
330
6D6
102
}
330
1F
100
AcDbEntity
  8
LC-004-099-----0
 62
     7
370
    25
100
AcDbLine
 10
639.966418
 20
1589.777503
 30
0.0
 11
629.957332
 21
1585.127031
 31
0.0
  0
LINE
  5
142
102
{ACAD_REACTORS
330
6D6
102
}
330
1F
100
AcDbEntity
  8
LC-004-099-----0
 62
     7
370
    25
100
AcDbLine
 10
629.957332
 20
1585.127031
 30
0.0
 11
619.298849
 21
1582.283277
 31
0.0
  0
LINE
  5
143
102
{ACAD_REACTORS
330
6D6
102
}
330
1F
100
AcDbEntity
  8
LC-004-099-----0
 62
     7
370
    25
100
AcDbLine
 10
619.298849
 20
1582.283277
 30
0.0
 11
608.330631
 21
1581.328383
 31
0.0
  0
LINE
  5
144
102
{ACAD_REACTORS
330
6D6
102
}
330
1F
100
AcDbEntity
  8
LC-004-099-----0
 62
     7
370
    50
100
AcDbLine
 10
713.330631
 20
1645.78
 30
0.0
 11
713.330631
 21
1857.78
 31
0.0
  0
LINE
  5
145
102
{ACAD_REACTORS
330
6D6
102
}
330
1F
100
AcDbEntity
  8
LC-004-099-----0
 62
     7
370
    50
100
AcDbLine
 10
747.330631
 20
1857.78
 30
0.0
 11
747.330631
 21
1645.78
 31
0.0
  0
LINE
  5
146
102
{ACAD_REACTORS
330
6D6
102
}
330
1F
100
AcDbEntity
  8
LC-004-099-----0
 62
     7
370
    25
100
AcDbLine
 10
789.012168
 20
1821.799577
 30
0.0
 11
788.689909
 21
1764.846788
 31
0.0
  0
LINE
  5
147
102
{ACAD_REACTORS
330
6D6
102
}
330
1F
100
AcDbEntity
  8
LC-004-099-----0
 62
     7
370
    25
100
AcDbLine
 10
788.689909
 20
1764.846788
 30
0.0
 11
788.663839
 21
1751.78
 31
0.0
  0
LINE
  5
148
102
{ACAD_REACTORS
330
6D6
102
}
330
1F
100
AcDbEntity
  8
LC-004-099-----0
 62
     7
370
    25
100
AcDbLine
 10
789.074546
 20
1859.283021
 30
0.0
 11
789.012168
 21
1821.799577
 31
0.0
  0
LINE
  5
149
102
{ACAD_REACTORS
330
6D6
102
}
330
1F
100
AcDbEntity
  8
LC-004-099-----0
 62
     7
370
    25
100
AcDbLine
 10
788.663839
 20
1751.78
 30
0.0
 11
788.689909
 21
1738.713212
 31
0.0
  0
LINE
  5
14A
102
{ACAD_REACTORS
330
6D6
102
}
330
1F
100
AcDbEntity
  8
LC-004-099-----0
 62
     7
370
    25
100
AcDbLine
 10
789.012168
 20
1681.760423
 30
0.0
 11
789.074546
 21
1644.276979
 31
0.0
  0
LINE
  5
14B
102
{ACAD_REACTORS
330
6D6
102
}
330
1F
100
AcDbEntity
  8
LC-004-099-----0
 62
     7
370
    25
100
AcDbLine
 10
788.689909
 20
1738.713212
 30
0.0
 11
789.012168
 21
1681.760423
 31
0.0
  0
LINE
  5
14C
102
{ACAD_REACTORS
330
6D6
102
}
330
1F
100
AcDbEntity
  8
LC-004-099-----0
 62
     7
370
    25
100
AcDbLine
 10
789.074546
 20
1644.276979
 30
0.0
 11
790.024762
 21
1633.417765
 31
0.0
  0
LINE
  5
14D
102
{ACAD_REACTORS
330
6D6
102
}
330
1F
100
AcDbEntity
  8
LC-004-099-----0
 62
     7
370
    25
100
AcDbLine
 10
790.024762
 20
1633.417765
 30
0.0
 11
792.866118
 21
1622.833681
 31
0.0
  0
LINE
  5
14E
102
{ACAD_REACTORS
330
6D6
102
}
330
1F
100
AcDbEntity
  8
LC-004-099-----0
 62
     7
370
    25
100
AcDbLine
 10
792.866118
 20
1622.833681
 30
0.0
 11
797.521943
 21
1612.87569
 31
0.0
  0
LINE
  5
14F
102
{ACAD_REACTORS
330
6D6
102
}
330
1F
100
AcDbEntity
  8
LC-004-099-----0
 62
     7
370
    25
100
AcDbLine
 10
797.521943
 20
1612.87569
 30
0.0
 11
803.848693
 21
1603.867342
 31
0.0
  0
LINE
  5
150
102
{ACAD_REACTORS
330
6D6
102
}
330
1F
100
AcDbEntity
  8
LC-004-099-----0
 62
     7
370
    25
100
AcDbLine
 10
803.848693
 20
1603.867342
 30
0.0
 11
811.650888
 21
1596.089553
 31
0.0
  0
LINE
  5
151
102
{ACAD_REACTORS
330
6D6
102
}
330
1F
100
AcDbEntity
  8
LC-004-099-----0
 62
     7
370
    25
100
AcDbLine
 10
811.650888
 20
1596.089553
 30
0.0
 11
820.694843
 21
1589.777503
 31
0.0
  0
LINE
  5
152
102
{ACAD_REACTORS
330
6D6
102
}
330
1F
100
AcDbEntity
  8
LC-004-099-----0
 62
     7
370
    25
100
AcDbLine
 10
820.694843
 20
1589.777503
 30
0.0
 11
830.70393
 21
1585.127031
 31
0.0
  0
LINE
  5
153
102
{ACAD_REACTORS
330
6D6
102
}
330
1F
100
AcDbEntity
  8
LC-004-099-----0
 62
     7
370
    25
100
AcDbLine
 10
830.70393
 20
1585.127031
 30
0.0
 11
841.362412
 21
1582.283277
 31
0.0
  0
LINE
  5
154
102
{ACAD_REACTORS
330
6D6
102
}
330
1F
100
AcDbEntity
  8
LC-004-099-----0
 62
     7
370
    25
100
AcDbLine
 10
841.362412
 20
1582.283277
 30
0.0
 11
852.330631
 21
1581.328383
 31
0.0
  0
LINE
  5
155
102
{ACAD_REACTORS
330
6D6
102
}
330
1F
100
AcDbEntity
  8
LC-004-099-----0
 62
     7
370
    25
100
AcDbLine
 10
608.330631
 20
1581.328383
 30
0.0
 11
483.755528
 21
1581.365746
 31
0.0
  0
LINE
  5
156
102
{ACAD_REACTORS
330
6D6
102
}
330
1F
100
AcDbEntity
  8
LC-004-099-----0
 62
     7
370
    25
100
AcDbLine
 10
852.330631
 20
1581.328383
 30
0.0
 11
1027.580701
 21
1581.312237
 31
0.0
  0
LINE
  5
157
102
{ACAD_REACTORS
330
6D6
102
}
330
1F
100
AcDbEntity
  8
LC-004-099-----0
 62
     7
370
    25
100
AcDbLine
 10
483.755528
 20
1581.365746
 30
0.0
 11
433.08056
 21
1581.312237
 31
0.0
  0
LINE
  5
158
102
{ACAD_REACTORS
330
6D6
102
}
330
1F
100
AcDbEntity
  8
LC-004-099-----0
 62
     7
370
    25
100
AcDbLine
 10
433.08056
 20
1581.312237
 30
0.0
 11
428.996912
 21
1581.76771
 31
0.0
  0
LINE
  5
159
102
{ACAD_REACTORS
330
6D6
102
}
330
1F
100
AcDbEntity
  8
LC-004-099-----0
 62
     7
370
    25
100
AcDbLine
 10
428.996912
 20
1581.76771
 30
0.0
 11
425.111939
 21
1583.125484
 31
0.0
  0
LINE
  5
15A
102
{ACAD_REACTORS
330
6D6
102
}
330
1F
100
AcDbEntity
  8
LC-004-099-----0
 62
     7
370
    25
100
AcDbLine
 10
425.111939
 20
1583.125484
 30
0.0
 11
421.621478
 21
1585.318507
 31
0.0
  0
LINE
  5
15B
102
{ACAD_REACTORS
330
6D6
102
}
330
1F
100
AcDbEntity
  8
LC-004-099-----0
 62
     7
370
    25
100
AcDbLine
 10
421.621478
 20
1585.318507
 30
0.0
 11
418.705989
 21
1588.234254
 31
0.0
  0
LINE
  5
15C
102
{ACAD_REACTORS
330
6D6
102
}
330
1F
100
AcDbEntity
  8
LC-004-099-----0
 62
     7
370
    25
100
AcDbLine
 10
418.705989
 20
1588.234254
 30
0.0
 11
416.512027
 21
1591.72639
 31
0.0
  0
LINE
  5
15D
102
{ACAD_REACTORS
330
6D6
102
}
330
1F
100
AcDbEntity
  8
LC-004-099-----0
 62
     7
370
    25
100
AcDbLine
 10
416.512027
 20
1591.72639
 30
0.0
 11
415.1524
 21
1595.61466
 31
0.0
  0
LINE
  5
15E
102
{ACAD_REACTORS
330
6D6
102
}
330
1F
100
AcDbEntity
  8
LC-004-099-----0
 62
     7
370
    25
100
AcDbLine
 10
415.1524
 20
1595.61466
 30
0.0
 11
414.694591
 21
1599.70286
 31
0.0
  0
LINE
  5
15F
102
{ACAD_REACTORS
330
6D6
102
}
330
1F
100
AcDbEntity
  8
LC-004-099-----0
 62
     7
370
    50
100
AcDbLine
 10
434.330631
 20
1540.78
 30
0.0
 11
608.330631
 21
1540.78
 31
0.0
  0
LINE
  5
160
102
{ACAD_REACTORS
330
6D6
102
}
330
1F
100
AcDbEntity
  8
LC-004-099-----0
 62
     7
370
    50
100
AcDbLine
 10
852.330631
 20
1540.78
 30
0.0
 11
1026.330631
 21
1540.78
 31
0.0
  0
LINE
  5
161
102
{ACAD_REACTORS
330
6D6
102
}
330
1F
100
AcDbEntity
  8
LC-004-099-----0
 62
     7
370
    25
100
AcDbLine
 10
1027.580701
 20
1581.312237
 30
0.0
 11
1031.66435
 21
1581.76771
 31
0.0
  0
LINE
  5
162
102
{ACAD_REACTORS
330
6D6
102
}
330
1F
100
AcDbEntity
  8
LC-004-099-----0
 62
     7
370
    25
100
AcDbLine
 10
1031.66435
 20
1581.76771
 30
0.0
 11
1035.549322
 21
1583.125484
 31
0.0
  0
LINE
  5
163
102
{ACAD_REACTORS
330
6D6
102
}
330
1F
100
AcDbEntity
  8
LC-004-099-----0
 62
     7
370
    25
100
AcDbLine
 10
1035.549322
 20
1583.125484
 30
0.0
 11
1039.039784
 21
1585.318507
 31
0.0
  0
LINE
  5
164
102
{ACAD_REACTORS
330
6D6
102
}
330
1F
100
AcDbEntity
  8
LC-004-099-----0
 62
     7
370
    25
100
AcDbLine
 10
1039.039784
 20
1585.318507
 30
0.0
 11
1041.955272
 21
1588.234254
 31
0.0
  0
LINE
  5
165
102
{ACAD_REACTORS
330
6D6
102
}
330
1F
100
AcDbEntity
  8
LC-004-099-----0
 62
     7
370
    25
100
AcDbLine
 10
1041.955272
 20
1588.234254
 30
0.0
 11
1044.149234
 21
1591.72639
 31
0.0
  0
LINE
  5
166
102
{ACAD_REACTORS
330
6D6
102
}
330
1F
100
AcDbEntity
  8
LC-004-099-----0
 62
     7
370
    25
100
AcDbLine
 10
1044.149234
 20
1591.72639
 30
0.0
 11
1045.508861
 21
1595.61466
 31
0.0
  0
LINE
  5
167
102
{ACAD_REACTORS
330
6D6
102
}
330
1F
100
AcDbEntity
  8
LC-004-099-----0
 62
     7
370
    25
100
AcDbLine
 10
1045.508861
 20
1595.61466
 30
0.0
 11
1045.96667
 21
1599.70286
 31
0.0
  0
LINE
  5
168
102
{ACAD_REACTORS
330
6D6
102
}
330
1F
100
AcDbEntity
  8
LC-004-099-----0
 62
     7
370
    25
100
AcDbLine
 10
383.330631
 20
1524.78
 30
0.0
 11
1077.330631
 21
1524.78
 31
0.0
  0
LINE
  5
169
102
{ACAD_REACTORS
330
6D6
102
}
330
1F
100
AcDbEntity
  8
LC-004-099-----0
 62
     7
370
    50
100
AcDbLine
 10
335.330631
 20
1507.78
 30
0.0
 11
335.759947
 21
1507.78
 31
0.0
  0
LINE
  5
16A
102
{ACAD_REACTORS
330
6D6
102
}
330
1F
100
AcDbEntity
  8
LC-004-099-----0
 62
     7
370
    50
100
AcDbLine
 10
1119.330631
 20
1501.78
 30
0.0
 11
341.330631
 21
1501.78
 31
0.0
  0
LINE
  5
16B
102
{ACAD_REACTORS
330
6D6
102
}
330
1F
100
AcDbEntity
  8
LC-004-099-----0
 62
     7
370
    25
100
AcDbLine
 10
1045.96667
 20
1599.70286
 30
0.0
 11
1045.96667
 21
1903.85714
 31
0.0
  0
LINE
  5
16C
102
{ACAD_REACTORS
330
6D6
102
}
330
1F
100
AcDbEntity
  8
LC-004-099-----0
 62
     7
370
    25
100
AcDbLine
 10
1045.96667
 20
1903.85714
 30
0.0
 11
1045.508861
 21
1907.94534
 31
0.0
  0
LINE
  5
16D
102
{ACAD_REACTORS
330
6D6
102
}
330
1F
100
AcDbEntity
  8
LC-004-099-----0
 62
     7
370
    25
100
AcDbLine
 10
1045.508861
 20
1907.94534
 30
0.0
 11
1044.149234
 21
1911.83361
 31
0.0
  0
LINE
  5
16E
102
{ACAD_REACTORS
330
6D6
102
}
330
1F
100
AcDbEntity
  8
LC-004-099-----0
 62
     7
370
    25
100
AcDbLine
 10
1044.149234
 20
1911.83361
 30
0.0
 11
1041.955272
 21
1915.325746
 31
0.0
  0
LINE
  5
16F
102
{ACAD_REACTORS
330
6D6
102
}
330
1F
100
AcDbEntity
  8
LC-004-099-----0
 62
     7
370
    25
100
AcDbLine
 10
1041.955272
 20
1915.325746
 30
0.0
 11
1039.039784
 21
1918.241493
 31
0.0
  0
LINE
  5
170
102
{ACAD_REACTORS
330
6D6
102
}
330
1F
100
AcDbEntity
  8
LC-004-099-----0
 62
     7
370
    25
100
AcDbLine
 10
1039.039784
 20
1918.241493
 30
0.0
 11
1035.549322
 21
1920.434516
 31
0.0
  0
LINE
  5
171
102
{ACAD_REACTORS
330
6D6
102
}
330
1F
100
AcDbEntity
  8
LC-004-099-----0
 62
     7
370
    25
100
AcDbLine
 10
1035.549322
 20
1920.434516
 30
0.0
 11
1031.66435
 21
1921.79229
 31
0.0
  0
LINE
  5
172
102
{ACAD_REACTORS
330
6D6
102
}
330
1F
100
AcDbEntity
  8
LC-004-099-----0
 62
     7
370
    25
100
AcDbLine
 10
1031.66435
 20
1921.79229
 30
0.0
 11
1027.580701
 21
1922.247763
 31
0.0
  0
LINE
  5
173
102
{ACAD_REACTORS
330
6D6
102
}
330
1F
100
AcDbEntity
  8
LC-004-099-----0
 62
     7
370
    50
100
AcDbLine
 10
1086.330631
 20
1600.78
 30
0.0
 11
1086.330631
 21
1902.78
 31
0.0
  0
LINE
  5
174
102
{ACAD_REACTORS
330
6D6
102
}
330
1F
100
AcDbEntity
  8
LC-004-099-----0
 62
     7
370
    25
100
AcDbLine
 10
1102.330631
 20
1549.78
 30
0.0
 11
1102.330631
 21
1953.78
 31
0.0
  0
LINE
  5
175
102
{ACAD_REACTORS
330
6D6
102
}
330
1F
100
AcDbEntity
  8
LC-004-099-----0
 62
     7
370
    50
100
AcDbLine
 10
1125.330631
 20
1507.78
 30
0.0
 11
1125.330631
 21
1995.78
 31
0.0
  0
CIRCLE
  5
176
102
{ACAD_REACTORS
330
6D6
102
}
330
1F
100
AcDbEntity
  8
LC-004-099-----0
 62
     7
370
    50
100
AcDbCircle
 10
608.330631
 20
1751.78
 30
0.0
 40
45.0
  0
ARC
  5
177
102
{ACAD_REACTORS
330
6D6
102
}
330
1F
100
AcDbEntity
  8
LC-004-099-----0
 62
     7
370
    50
100
AcDbCircle
 10
341.330631
 20
1507.78
 30
0.0
 40
6.0
100
AcDbArc
 50
180.0
 51
270.0
  0
ARC
  5
178
102
{ACAD_REACTORS
330
6D6
102
}
330
1F
100
AcDbEntity
  8
LC-004-099-----0
 62
     7
370
    50
100
AcDbCircle
 10
341.330631
 20
1995.78
 30
0.0
 40
6.0
100
AcDbArc
 50
90.0
 51
180.0
  0
ARC
  5
179
102
{ACAD_REACTORS
330
6D6
102
}
330
1F
100
AcDbEntity
  8
LC-004-099-----0
 62
     7
370
    50
100
AcDbCircle
 10
1119.330631
 20
1995.78
 30
0.0
 40
6.0
100
AcDbArc
 50
0.0
 51
90.0
  0
ARC
  5
17A
102
{ACAD_REACTORS
330
6D6
102
}
330
1F
100
AcDbEntity
  8
LC-004-099-----0
 62
     7
370
    50
100
AcDbCircle
 10
1119.330631
 20
1507.78
 30
0.0
 40
6.0
100
AcDbArc
 50
270.0
 51
0.0
  0
CIRCLE
  5
17B
102
{ACAD_REACTORS
330
6D6
102
}
330
1F
100
AcDbEntity
  8
LC-004-099-----0
 62
     7
370
    50
100
AcDbCircle
 10
852.330631
 20
1751.78
 30
0.0
 40
45.0
  0
CIRCLE
  5
17C
102
{ACAD_REACTORS
330
6D6
102
}
330
1F
100
AcDbEntity
  8
LC-004-099-----0
 62
     7
370
    50
100
AcDbCircle
 10
608.330631
 20
1751.78
 30
0.0
 40
57.31935241359952
  0
CIRCLE
  5
17D
102
{ACAD_REACTORS
330
6D6
102
}
330
1F
100
AcDbEntity
  8
LC-004-099-----0
 62
     7
370
    50
100
AcDbCircle
 10
852.330631
 20
1751.78
 30
0.0
 40
57.31935241359952
  0
ARC
  5
17E
102
{ACAD_REACTORS
330
6D6
102
}
330
1F
100
AcDbEntity
  8
LC-004-099-----0
 62
     7
370
    25
100
AcDbCircle
 10
1077.330631
 20
1549.78
 30
0.0
 40
25.0
100
AcDbArc
 50
270.0
 51
0.0
  0
ARC
  5
17F
102
{ACAD_REACTORS
330
6D6
102
}
330
1F
100
AcDbEntity
  8
LC-004-099-----0
 62
     7
370
    25
100
AcDbCircle
 10
383.330631
 20
1549.78
 30
0.0
 40
25.0
100
AcDbArc
 50
180.0
 51
270.0
  0
ARC
  5
180
102
{ACAD_REACTORS
330
6D6
102
}
330
1F
100
AcDbEntity
  8
LC-004-099-----0
 62
     7
370
    25
100
AcDbCircle
 10
383.330631
 20
1953.78
 30
0.0
 40
25.0
100
AcDbArc
 50
90.0
 51
180.0
  0
ARC
  5
181
102
{ACAD_REACTORS
330
6D6
102
}
330
1F
100
AcDbEntity
  8
LC-004-099-----0
 62
     7
370
    25
100
AcDbCircle
 10
1077.330631
 20
1953.78
 30
0.0
 40
25.0
100
AcDbArc
 50
0.0
 51
90.0
  0
ARC
  5
182
102
{ACAD_REACTORS
330
6D6
102
}
330
1F
100
AcDbEntity
  8
LC-004-099-----0
 62
     7
370
    50
100
AcDbCircle
 10
608.330631
 20
1645.78
 30
0.0
 40
105.0
100
AcDbArc
 50
270.0
 51
0.0
  0
ARC
  5
183
102
{ACAD_REACTORS
330
6D6
102
}
330
1F
100
AcDbEntity
  8
LC-004-099-----0
 62
     7
370
    50
100
AcDbCircle
 10
434.330631
 20
1600.78
 30
0.0
 40
60.0
100
AcDbArc
 50
180.0
 51
270.0
  0
ARC
  5
184
102
{ACAD_REACTORS
330
6D6
102
}
330
1F
100
AcDbEntity
  8
LC-004-099-----0
 62
     7
370
    50
100
AcDbCircle
 10
434.330631
 20
1902.78
 30
0.0
 40
60.0
100
AcDbArc
 50
90.0
 51
180.0
  0
ARC
  5
185
102
{ACAD_REACTORS
330
6D6
102
}
330
1F
100
AcDbEntity
  8
LC-004-099-----0
 62
     7
370
    50
100
AcDbCircle
 10
608.330631
 20
1857.78
 30
0.0
 40
105.0
100
AcDbArc
 50
0.0
 51
90.0
  0
ARC
  5
186
102
{ACAD_REACTORS
330
6D6
102
}
330
1F
100
AcDbEntity
  8
LC-004-099-----0
 62
     7
370
    50
100
AcDbCircle
 10
1026.330631
 20
1600.78
 30
0.0
 40
60.0
100
AcDbArc
 50
270.0
 51
0.0
  0
ARC
  5
187
102
{ACAD_REACTORS
330
6D6
102
}
330
1F
100
AcDbEntity
  8
LC-004-099-----0
 62
     7
370
    50
100
AcDbCircle
 10
852.330631
 20
1645.78
 30
0.0
 40
105.0000000000005
100
AcDbArc
 50
180.0
 51
270.0
  0
ARC
  5
188
102
{ACAD_REACTORS
330
6D6
102
}
330
1F
100
AcDbEntity
  8
LC-004-099-----0
 62
     7
370
    50
100
AcDbCircle
 10
852.330631
 20
1857.78
 30
0.0
 40
105.0
100
AcDbArc
 50
90.0
 51
180.0
  0
ARC
  5
189
102
{ACAD_REACTORS
330
6D6
102
}
330
1F
100
AcDbEntity
  8
LC-004-099-----0
 62
     7
370
    50
100
AcDbCircle
 10
1026.330631
 20
1902.78
 30
0.0
 40
60.0
100
AcDbArc
 50
0.0
 51
90.0
  0
ARC
  5
18A
102
{ACAD_REACTORS
330
6DA
102
}
330
1F
100
AcDbEntity
  8
LC-004-099-----0
 62
     7
370
    50
100
AcDbCircle
 10
909.476336
 20
2442.181563
 30
0.0
 40
0.9999999999998422
100
AcDbArc
 50
280.000007
 51
355.0
  0
LINE
  5
18B
102
{ACAD_REACTORS
330
6DA
102
}
330
1F
100
AcDbEntity
  8
LC-004-099-----0
 62
     7
370
    50
100
AcDbLine
 10
349.330631
 20
2638.33
 30
0.0
 11
349.330631
 21
2640.33
 31
0.0
  0
LINE
  5
18C
102
{ACAD_REACTORS
330
6DA
102
}
330
1F
100
AcDbEntity
  8
LC-004-099-----0
 62
     7
370
    50
100
AcDbLine
 10
335.330631
 20
2640.33
 30
0.0
 11
335.759947
 21
2646.469513
 31
0.0
  0
LINE
  5
18D
102
{ACAD_REACTORS
330
6DA
102
}
330
1F
100
AcDbEntity
  8
LC-004-099-----0
 62
     7
370
    50
100
AcDbLine
 10
352.830631
 20
2636.33
 30
0.0
 11
352.690777
 21
2638.33
 31
0.0
  0
LINE
  5
18E
102
{ACAD_REACTORS
330
6DA
102
}
330
1F
100
AcDbEntity
  8
LC-004-099-----0
 62
     7
370
    50
100
AcDbLine
 10
368.498392
 20
2627.852642
 30
0.0
 11
385.241901
 21
2468.548796
 31
0.0
  0
LINE
  5
18F
102
{ACAD_REACTORS
330
6DA
102
}
330
1F
100
AcDbEntity
  8
LC-004-099-----0
 62
     7
370
    50
100
AcDbLine
 10
374.895338
 20
2633.957171
 30
0.0
 11
391.589585
 21
2475.122016
 31
0.0
  0
LINE
  5
190
102
{ACAD_REACTORS
330
6DA
102
}
330
1F
100
AcDbEntity
  8
LC-004-099-----0
 62
     7
370
    50
100
AcDbLine
 10
361.398791
 20
2619.514038
 30
0.0
 11
352.830631
 21
2636.33
 31
0.0
  0
LINE
  5
191
102
{ACAD_REACTORS
330
6DA
102
}
330
1F
100
AcDbEntity
  8
LC-004-099-----0
 62
     7
370
    50
100
AcDbLine
 10
358.907981
 20
2647.33
 30
0.0
 11
362.083407
 21
2641.83
 31
0.0
  0
LINE
  5
192
102
{ACAD_REACTORS
330
6DA
102
}
330
1F
100
AcDbEntity
  8
LC-004-099-----0
 62
     7
370
    50
100
AcDbLine
 10
545.650002
 20
2432.394599
 30
0.0
 11
545.670904
 21
2432.155689
 31
0.0
  0
LINE
  5
193
102
{ACAD_REACTORS
330
6DA
102
}
330
1F
100
AcDbEntity
  8
LC-004-099-----0
 62
     7
370
    50
100
AcDbLine
 10
550.155069
 20
2442.479169
 30
0.0
 11
550.188731
 21
2442.094407
 31
0.0
  0
LINE
  5
194
102
{ACAD_REACTORS
330
6DA
102
}
330
1F
100
AcDbEntity
  8
LC-004-099-----0
 62
     7
370
    50
100
AcDbLine
 10
563.330631
 20
2430.33
 30
0.0
 11
563.330631
 21
2439.024521
 31
0.0
  0
LINE
  5
195
102
{ACAD_REACTORS
330
6DA
102
}
330
1F
100
AcDbEntity
  8
LC-004-099-----0
 62
     7
370
    50
100
AcDbLine
 10
897.330631
 20
2439.024521
 30
0.0
 11
909.649984
 21
2441.196755
 31
0.0
  0
LINE
  5
196
102
{ACAD_REACTORS
330
6DA
102
}
330
1F
100
AcDbEntity
  8
LC-004-099-----0
 62
     7
370
    50
100
AcDbLine
 10
919.643451
 20
2436.946641
 30
0.0
 11
1052.300225
 21
2446.222906
 31
0.0
  0
LINE
  5
197
102
{ACAD_REACTORS
330
6DA
102
}
330
1F
100
AcDbEntity
  8
LC-004-099-----0
 62
     7
370
    50
100
AcDbLine
 10
911.432631
 20
2443.389578
 30
0.0
 11
1045.95254
 21
2452.796126
 31
0.0
  0
LINE
  5
198
102
{ACAD_REACTORS
330
6DA
102
}
330
1F
100
AcDbEntity
  8
LC-004-099-----0
 62
     7
370
    50
100
AcDbLine
 10
668.997968
 20
2430.33
 30
0.0
 11
547.663293
 21
2430.33
 31
0.0
  0
LINE
  5
199
102
{ACAD_REACTORS
330
6DA
102
}
330
1F
100
AcDbEntity
  8
LC-004-099-----0
 62
     7
370
    50
100
AcDbLine
 10
791.663293
 20
2430.33
 30
0.0
 11
912.997968
 21
2430.33
 31
0.0
  0
LINE
  5
19A
102
{ACAD_REACTORS
330
6DA
102
}
330
1F
100
AcDbEntity
  8
LC-004-099-----0
 62
     7
370
    50
100
AcDbLine
 10
408.361036
 20
2446.222906
 30
0.0
 11
541.01781
 21
2436.946641
 31
0.0
  0
LINE
  5
19B
102
{ACAD_REACTORS
330
6DA
102
}
330
1F
100
AcDbEntity
  8
LC-004-099-----0
 62
     7
370
    50
100
AcDbLine
 10
414.708721
 20
2452.796126
 30
0.0
 11
549.22863
 21
2443.389578
 31
0.0
  0
LINE
  5
19C
102
{ACAD_REACTORS
330
6DA
102
}
330
1F
100
AcDbEntity
  8
LC-004-099-----0
 62
     7
370
    50
100
AcDbLine
 10
551.011278
 20
2441.196755
 30
0.0
 11
563.330631
 21
2439.024521
 31
0.0
  0
LINE
  5
19D
102
{ACAD_REACTORS
330
6DA
102
}
330
1F
100
AcDbEntity
  8
LC-004-099-----0
 62
     7
370
    50
100
AcDbLine
 10
665.649984
 20
2441.196755
 30
0.0
 11
653.330631
 21
2439.024521
 31
0.0
  0
LINE
  5
19E
102
{ACAD_REACTORS
330
6DA
102
}
330
1F
100
AcDbEntity
  8
LC-004-099-----0
 62
     7
370
    50
100
AcDbLine
 10
678.345107
 20
2437.135559
 30
0.0
 11
675.643451
 21
2436.946641
 31
0.0
  0
LINE
  5
19F
102
{ACAD_REACTORS
330
6DA
102
}
330
1F
100
AcDbEntity
  8
LC-004-099-----0
 62
     7
370
    50
100
AcDbLine
 10
671.997422
 20
2443.708779
 30
0.0
 11
667.432631
 21
2443.389578
 31
0.0
  0
LINE
  5
1A0
102
{ACAD_REACTORS
330
6DA
102
}
330
1F
100
AcDbEntity
  8
LC-004-099-----0
 62
     7
370
    50
100
AcDbLine
 10
897.330631
 20
2439.024521
 30
0.0
 11
807.330631
 21
2439.024521
 31
0.0
  0
LINE
  5
1A1
102
{ACAD_REACTORS
330
6DA
102
}
330
1F
100
AcDbEntity
  8
LC-004-099-----0
 62
     7
370
    50
100
AcDbLine
 10
653.330631
 20
2439.024521
 30
0.0
 11
563.330631
 21
2439.024521
 31
0.0
  0
LINE
  5
1A2
102
{ACAD_REACTORS
330
6DA
102
}
330
1F
100
AcDbEntity
  8
LC-004-099-----0
 62
     7
370
    50
100
AcDbLine
 10
785.01781
 20
2436.946641
 30
0.0
 11
782.316155
 21
2437.135559
 31
0.0
  0
LINE
  5
1A3
102
{ACAD_REACTORS
330
6DA
102
}
330
1F
100
AcDbEntity
  8
LC-004-099-----0
 62
     7
370
    50
100
AcDbLine
 10
793.22863
 20
2443.389578
 30
0.0
 11
788.663839
 21
2443.708779
 31
0.0
  0
LINE
  5
1A4
102
{ACAD_REACTORS
330
6DA
102
}
330
1F
100
AcDbEntity
  8
LC-004-099-----0
 62
     7
370
    50
100
AcDbLine
 10
807.330631
 20
2439.024521
 30
0.0
 11
795.011278
 21
2441.196755
 31
0.0
  0
LINE
  5
1A5
102
{ACAD_REACTORS
330
6DA
102
}
330
1F
100
AcDbEntity
  8
LC-004-099-----0
 62
     7
370
    50
100
AcDbLine
 10
653.330631
 20
2430.33
 30
0.0
 11
653.330631
 21
2439.024521
 31
0.0
  0
LINE
  5
1A6
102
{ACAD_REACTORS
330
6DA
102
}
330
1F
100
AcDbEntity
  8
LC-004-099-----0
 62
     7
370
    50
100
AcDbLine
 10
666.506193
 20
2442.479169
 30
0.0
 11
666.47253
 21
2442.094407
 31
0.0
  0
LINE
  5
1A7
102
{ACAD_REACTORS
330
6DA
102
}
330
1F
100
AcDbEntity
  8
LC-004-099-----0
 62
     7
370
    50
100
AcDbLine
 10
671.01126
 20
2432.394599
 30
0.0
 11
670.990358
 21
2432.155689
 31
0.0
  0
LINE
  5
1A8
102
{ACAD_REACTORS
330
6DA
102
}
330
1F
100
AcDbEntity
  8
LC-004-099-----0
 62
     7
370
    50
100
AcDbLine
 10
712.765924
 20
2633.957171
 30
0.0
 11
695.116557
 21
2466.034669
 31
0.0
  0
LINE
  5
1A9
102
{ACAD_REACTORS
330
6DA
102
}
330
1F
100
AcDbEntity
  8
LC-004-099-----0
 62
     7
370
    50
100
AcDbLine
 10
719.16287
 20
2627.852642
 30
0.0
 11
701.464242
 21
2459.461449
 31
0.0
  0
LINE
  5
1AA
102
{ACAD_REACTORS
330
6DA
102
}
330
1F
100
AcDbEntity
  8
LC-004-099-----0
 62
     7
370
    50
100
AcDbLine
 10
741.498392
 20
2627.852642
 30
0.0
 11
759.197019
 21
2459.461449
 31
0.0
  0
LINE
  5
1AB
102
{ACAD_REACTORS
330
6DA
102
}
330
1F
100
AcDbEntity
  8
LC-004-099-----0
 62
     7
370
    50
100
AcDbLine
 10
747.895338
 20
2633.957171
 30
0.0
 11
765.544704
 21
2466.034669
 31
0.0
  0
LINE
  5
1AC
102
{ACAD_REACTORS
330
6DA
102
}
330
1F
100
AcDbEntity
  8
LC-004-099-----0
 62
     7
370
    50
100
AcDbLine
 10
789.670904
 20
2432.155689
 30
0.0
 11
789.650002
 21
2432.394599
 31
0.0
  0
LINE
  5
1AD
102
{ACAD_REACTORS
330
6DA
102
}
330
1F
100
AcDbEntity
  8
LC-004-099-----0
 62
     7
370
    50
100
AcDbLine
 10
794.188731
 20
2442.094407
 30
0.0
 11
794.155069
 21
2442.479169
 31
0.0
  0
LINE
  5
1AE
102
{ACAD_REACTORS
330
6DA
102
}
330
1F
100
AcDbEntity
  8
LC-004-099-----0
 62
     7
370
    50
100
AcDbLine
 10
807.330631
 20
2430.33
 30
0.0
 11
807.330631
 21
2439.024521
 31
0.0
  0
LINE
  5
1AF
102
{ACAD_REACTORS
330
6DA
102
}
330
1F
100
AcDbEntity
  8
LC-004-099-----0
 62
     7
370
    50
100
AcDbLine
 10
724.135479
 20
2632.33
 30
0.0
 11
736.525782
 21
2632.33
 31
0.0
  0
LINE
  5
1B0
102
{ACAD_REACTORS
330
6DA
102
}
330
1F
100
AcDbEntity
  8
LC-004-099-----0
 62
     7
370
    50
100
AcDbLine
 10
349.330631
 20
2638.33
 30
0.0
 11
353.806668
 21
2638.33
 31
0.0
  0
LINE
  5
1B1
102
{ACAD_REACTORS
330
6DA
102
}
330
1F
100
AcDbEntity
  8
LC-004-099-----0
 62
     7
370
    50
100
AcDbLine
 10
1106.854593
 20
2638.33
 30
0.0
 11
1111.330631
 21
2638.33
 31
0.0
  0
LINE
  5
1B2
102
{ACAD_REACTORS
330
6DA
102
}
330
1F
100
AcDbEntity
  8
LC-004-099-----0
 62
     7
370
    50
100
AcDbLine
 10
366.413534
 20
2639.33
 30
0.0
 11
1094.247727
 21
2639.33
 31
0.0
  0
LINE
  5
1B3
102
{ACAD_REACTORS
330
6DA
102
}
330
1F
100
AcDbEntity
  8
LC-004-099-----0
 62
     7
370
    50
100
AcDbLine
 10
335.330631
 20
2640.33
 30
0.0
 11
349.330631
 21
2640.33
 31
0.0
  0
LINE
  5
1B4
102
{ACAD_REACTORS
330
6DA
102
}
330
1F
100
AcDbEntity
  8
LC-004-099-----0
 62
     7
370
    50
100
AcDbLine
 10
1111.330631
 20
2640.33
 30
0.0
 11
1125.330631
 21
2640.33
 31
0.0
  0
LINE
  5
1B5
102
{ACAD_REACTORS
330
6DA
102
}
330
1F
100
AcDbEntity
  8
LC-004-099-----0
 62
     7
370
    50
100
AcDbLine
 10
337.755075
 20
2648.33
 30
0.0
 11
357.17593
 21
2648.33
 31
0.0
  0
LINE
  5
1B6
102
{ACAD_REACTORS
330
6DA
102
}
330
1F
100
AcDbEntity
  8
LC-004-099-----0
 62
     7
370
    50
100
AcDbLine
 10
358.330631
 20
2648.33
 30
0.0
 11
1102.330631
 21
2648.33
 31
0.0
  0
LINE
  5
1B7
102
{ACAD_REACTORS
330
6DA
102
}
330
1F
100
AcDbEntity
  8
LC-004-099-----0
 62
     7
370
    50
100
AcDbLine
 10
897.330631
 20
2430.33
 30
0.0
 11
897.330631
 21
2439.024521
 31
0.0
  0
LINE
  5
1B8
102
{ACAD_REACTORS
330
6DA
102
}
330
1F
100
AcDbEntity
  8
LC-004-099-----0
 62
     7
370
    50
100
AcDbLine
 10
910.47253
 20
2442.094407
 30
0.0
 11
910.506193
 21
2442.479169
 31
0.0
  0
LINE
  5
1B9
102
{ACAD_REACTORS
330
6DA
102
}
330
1F
100
AcDbEntity
  8
LC-004-099-----0
 62
     7
370
    50
100
AcDbLine
 10
914.990358
 20
2432.155689
 30
0.0
 11
915.01126
 21
2432.394599
 31
0.0
  0
LINE
  5
1BA
102
{ACAD_REACTORS
330
6DA
102
}
330
1F
100
AcDbEntity
  8
LC-004-099-----0
 62
     7
370
    50
100
AcDbLine
 10
1101.75328
 20
2647.33
 30
0.0
 11
1098.577854
 21
2641.83
 31
0.0
  0
LINE
  5
1BB
102
{ACAD_REACTORS
330
6DA
102
}
330
1F
100
AcDbEntity
  8
LC-004-099-----0
 62
     7
370
    50
100
AcDbLine
 10
1099.26247
 20
2619.514038
 30
0.0
 11
1107.830631
 21
2636.33
 31
0.0
  0
LINE
  5
1BC
102
{ACAD_REACTORS
330
6DA
102
}
330
1F
100
AcDbEntity
  8
LC-004-099-----0
 62
     7
370
    50
100
AcDbLine
 10
1085.765924
 20
2633.957171
 30
0.0
 11
1069.071676
 21
2475.122016
 31
0.0
  0
LINE
  5
1BD
102
{ACAD_REACTORS
330
6DA
102
}
330
1F
100
AcDbEntity
  8
LC-004-099-----0
 62
     7
370
    50
100
AcDbLine
 10
1092.16287
 20
2627.852642
 30
0.0
 11
1075.419361
 21
2468.548796
 31
0.0
  0
LINE
  5
1BE
102
{ACAD_REACTORS
330
6DA
102
}
330
1F
100
AcDbEntity
  8
LC-004-099-----0
 62
     7
370
    50
100
AcDbLine
 10
1125.330631
 20
2640.33
 30
0.0
 11
1124.901314
 21
2646.469513
 31
0.0
  0
LINE
  5
1BF
102
{ACAD_REACTORS
330
6DA
102
}
330
1F
100
AcDbEntity
  8
LC-004-099-----0
 62
     7
370
    50
100
AcDbLine
 10
1111.330631
 20
2638.33
 30
0.0
 11
1111.330631
 21
2640.33
 31
0.0
  0
LINE
  5
1C0
102
{ACAD_REACTORS
330
6DA
102
}
330
1F
100
AcDbEntity
  8
LC-004-099-----0
 62
     7
370
    50
100
AcDbLine
 10
1107.830631
 20
2636.33
 30
0.0
 11
1107.970484
 21
2638.33
 31
0.0
  0
ARC
  5
1C1
102
{ACAD_REACTORS
330
6DA
102
}
330
1F
100
AcDbEntity
  8
LC-004-099-----0
 62
     7
370
    50
100
AcDbCircle
 10
416.452633
 20
2477.735228
 30
0.0
 40
24.99999999700016
100
AcDbArc
 50
186.063305
 51
265.942704
  0
ARC
  5
1C2
102
{ACAD_REACTORS
330
6DA
102
}
330
1F
100
AcDbEntity
  8
LC-004-099-----0
 62
     7
370
    50
100
AcDbCircle
 10
670.25351
 20
2468.64788
 30
0.0
 40
25.00000001139978
100
AcDbArc
 50
274.059163
 51
353.932639
  0
ARC
  5
1C3
102
{ACAD_REACTORS
330
6DA
102
}
330
1F
100
AcDbEntity
  8
LC-004-099-----0
 62
     7
370
    50
100
AcDbCircle
 10
410.104948
 20
2471.162008
 30
0.0
 40
24.99999999660016
100
AcDbArc
 50
186.06311
 51
265.942768
  0
ARC
  5
1C4
102
{ACAD_REACTORS
330
6DA
102
}
330
1F
100
AcDbEntity
  8
LC-004-099-----0
 62
     7
370
    50
100
AcDbCircle
 10
676.601195
 20
2462.07466
 30
0.0
 40
25.0000000083998
100
AcDbArc
 50
274.058916
 51
353.932999
  0
ARC
  5
1C5
102
{ACAD_REACTORS
330
6DA
102
}
330
1F
100
AcDbEntity
  8
LC-004-099-----0
 62
     7
370
    50
100
AcDbCircle
 10
1091.733055
 20
2633.33
 30
0.0
 40
6.0
100
AcDbArc
 50
90.0
 51
174.0
  0
ARC
  5
1C6
102
{ACAD_REACTORS
330
6DA
102
}
330
1F
100
AcDbEntity
  8
LC-004-099-----0
 62
     7
370
    50
100
AcDbCircle
 10
367.732356
 20
2616.007439
 30
0.0
 40
1.999999999999884
100
AcDbArc
 50
5.999714
 51
117.489741
  0
ARC
  5
1C7
102
{ACAD_REACTORS
330
6DA
102
}
330
1F
100
AcDbEntity
  8
LC-004-099-----0
 62
     7
370
    50
100
AcDbCircle
 10
912.997968
 20
2432.33
 30
0.0
 40
1.999999999999602
100
AcDbArc
 50
270.000014
 51
354.999997
  0
ARC
  5
1C8
102
{ACAD_REACTORS
330
6DA
102
}
330
1F
100
AcDbEntity
  8
LC-004-099-----0
 62
     7
370
    50
100
AcDbCircle
 10
919.992233
 20
2431.958821
 30
0.0
 40
5.00000000000026
100
AcDbArc
 50
94.000006
 51
175.0
  0
ARC
  5
1C9
102
{ACAD_REACTORS
330
6DA
102
}
330
1F
100
AcDbEntity
  8
LC-004-099-----0
 62
     7
370
    50
100
AcDbCircle
 10
1097.135479
 20
2627.33
 30
0.0
 40
5.000000000000475
100
AcDbArc
 50
98.686164
 51
174.0
  0
ARC
  5
1CA
102
{ACAD_REACTORS
330
6DA
102
}
330
1F
100
AcDbEntity
  8
LC-004-099-----0
 62
     7
370
    50
100
AcDbCircle
 10
1094.719125
 20
2643.146486
 30
0.0
 40
11.00000000000021
100
AcDbArc
 50
278.686164
 51
324.001382
  0
ARC
  5
1CB
102
{ACAD_REACTORS
330
6DA
102
}
330
1F
100
AcDbEntity
  8
LC-004-099-----0
 62
     7
370
    50
100
AcDbCircle
 10
1106.854593
 20
2634.33
 30
0.0
 40
4.0
100
AcDbArc
 50
90.0
 51
144.001382
  0
ARC
  5
1CC
102
{ACAD_REACTORS
330
6DA
102
}
330
1F
100
AcDbEntity
  8
LC-004-099-----0
 62
     7
370
    50
100
AcDbCircle
 10
1122.906186
 20
2646.33
 30
0.0
 40
2.000000000000025
100
AcDbArc
 50
4.0
 51
90.0
  0
ARC
  5
1CD
102
{ACAD_REACTORS
330
6DA
102
}
330
1F
100
AcDbEntity
  8
LC-004-099-----0
 62
     7
370
    50
100
AcDbCircle
 10
1103.485331
 20
2646.33
 30
0.0
 40
2.0
100
AcDbArc
 50
90.0
 51
150.0
  0
ARC
  5
1CE
102
{ACAD_REACTORS
330
6DA
102
}
330
1F
100
AcDbEntity
  8
LC-004-099-----0
 62
     7
370
    50
100
AcDbCircle
 10
1094.247727
 20
2644.33
 30
0.0
 40
5.0
100
AcDbArc
 50
270.0
 51
330.0
  0
ARC
  5
1CF
102
{ACAD_REACTORS
330
6DA
102
}
330
1F
100
AcDbEntity
  8
LC-004-099-----0
 62
     7
370
    50
100
AcDbCircle
 10
364.962817
 20
2621.33
 30
0.0
 40
4.000000000000008
100
AcDbArc
 50
207.0
 51
297.489741
  0
ARC
  5
1D0
102
{ACAD_REACTORS
330
6DA
102
}
330
1F
100
AcDbEntity
  8
LC-004-099-----0
 62
     7
370
    50
100
AcDbCircle
 10
668.997968
 20
2432.33
 30
0.0
 40
1.999999999999602
100
AcDbArc
 50
270.000014
 51
354.999997
  0
ARC
  5
1D1
102
{ACAD_REACTORS
330
6DA
102
}
330
1F
100
AcDbEntity
  8
LC-004-099-----0
 62
     7
370
    50
100
AcDbCircle
 10
675.992233
 20
2431.958821
 30
0.0
 40
5.00000000000026
100
AcDbArc
 50
94.000006
 51
175.0
  0
ARC
  5
1D2
102
{ACAD_REACTORS
330
6DA
102
}
330
1F
100
AcDbEntity
  8
LC-004-099-----0
 62
     7
370
    50
100
AcDbCircle
 10
724.135479
 20
2627.33
 30
0.0
 40
5.0
100
AcDbArc
 50
90.0
 51
174.0
  0
ARC
  5
1D3
102
{ACAD_REACTORS
330
6DA
102
}
330
1F
100
AcDbEntity
  8
LC-004-099-----0
 62
     7
370
    50
100
AcDbCircle
 10
736.525782
 20
2627.33
 30
0.0
 40
5.00000000000006
100
AcDbArc
 50
6.0
 51
90.0
  0
ARC
  5
1D4
102
{ACAD_REACTORS
330
6DA
102
}
330
1F
100
AcDbEntity
  8
LC-004-099-----0
 62
     7
370
    50
100
AcDbCircle
 10
784.669028
 20
2431.958821
 30
0.0
 40
5.000000000000329
100
AcDbArc
 50
5.0
 51
85.999994
  0
ARC
  5
1D5
102
{ACAD_REACTORS
330
6DA
102
}
330
1F
100
AcDbEntity
  8
LC-004-099-----0
 62
     7
370
    50
100
AcDbCircle
 10
791.663293
 20
2432.33
 30
0.0
 40
1.999999999999977
100
AcDbArc
 50
185.000003
 51
269.999986
  0
ARC
  5
1D6
102
{ACAD_REACTORS
330
6DA
102
}
330
1F
100
AcDbEntity
  8
LC-004-099-----0
 62
     7
370
    50
100
AcDbCircle
 10
793.158874
 20
2442.392014
 30
0.0
 40
1.000000000000235
100
AcDbArc
 50
5.0
 51
86.0
  0
ARC
  5
1D7
102
{ACAD_REACTORS
330
6DA
102
}
330
1F
100
AcDbEntity
  8
LC-004-099-----0
 62
     7
370
    50
100
AcDbCircle
 10
741.928206
 20
2633.33
 30
0.0
 40
6.000000000000033
100
AcDbArc
 50
6.0
 51
90.0
  0
ARC
  5
1D8
102
{ACAD_REACTORS
330
6DA
102
}
330
1F
100
AcDbEntity
  8
LC-004-099-----0
 62
     7
370
    50
100
AcDbCircle
 10
718.733055
 20
2633.33
 30
0.0
 40
6.0
100
AcDbArc
 50
90.0
 51
174.0
  0
ARC
  5
1D9
102
{ACAD_REACTORS
330
6DA
102
}
330
1F
100
AcDbEntity
  8
LC-004-099-----0
 62
     7
370
    50
100
AcDbCircle
 10
667.502387
 20
2442.392014
 30
0.0
 40
1.000000000000233
100
AcDbArc
 50
94.0
 51
175.0
  0
ARC
  5
1DA
102
{ACAD_REACTORS
330
6DA
102
}
330
1F
100
AcDbEntity
  8
LC-004-099-----0
 62
     7
370
    50
100
AcDbCircle
 10
368.928206
 20
2633.33
 30
0.0
 40
6.000000000000033
100
AcDbArc
 50
6.0
 51
90.0
  0
ARC
  5
1DB
102
{ACAD_REACTORS
330
6DA
102
}
330
1F
100
AcDbEntity
  8
LC-004-099-----0
 62
     7
370
    50
100
AcDbCircle
 10
366.413534
 20
2644.33
 30
0.0
 40
5.000000000000016
100
AcDbArc
 50
210.0
 51
270.0
  0
ARC
  5
1DC
102
{ACAD_REACTORS
330
6DA
102
}
330
1F
100
AcDbEntity
  8
LC-004-099-----0
 62
     7
370
    50
100
AcDbCircle
 10
357.17593
 20
2646.33
 30
0.0
 40
1.999999999999967
100
AcDbArc
 50
30.0
 51
90.0
  0
ARC
  5
1DD
102
{ACAD_REACTORS
330
6DA
102
}
330
1F
100
AcDbEntity
  8
LC-004-099-----0
 62
     7
370
    50
100
AcDbCircle
 10
337.755075
 20
2646.33
 30
0.0
 40
2.0
100
AcDbArc
 50
90.0
 51
176.0
  0
ARC
  5
1DE
102
{ACAD_REACTORS
330
6DA
102
}
330
1F
100
AcDbEntity
  8
LC-004-099-----0
 62
     7
370
    50
100
AcDbCircle
 10
353.806668
 20
2634.33
 30
0.0
 40
3.999999999999913
100
AcDbArc
 50
35.998618
 51
90.0
  0
ARC
  5
1DF
102
{ACAD_REACTORS
330
6DA
102
}
330
1F
100
AcDbEntity
  8
LC-004-099-----0
 62
     7
370
    50
100
AcDbCircle
 10
365.942136
 20
2643.146486
 30
0.0
 40
11.00000000000018
100
AcDbArc
 50
215.998618
 51
261.313836
  0
ARC
  5
1E0
102
{ACAD_REACTORS
330
6DA
102
}
330
1F
100
AcDbEntity
  8
LC-004-099-----0
 62
     7
370
    50
100
AcDbCircle
 10
363.525782
 20
2627.33
 30
0.0
 40
5.000000000000512
100
AcDbArc
 50
6.0
 51
81.313836
  0
ARC
  5
1E1
102
{ACAD_REACTORS
330
6DA
102
}
330
1F
100
AcDbEntity
  8
LC-004-099-----0
 62
     7
370
    50
100
AcDbCircle
 10
540.669028
 20
2431.958821
 30
0.0
 40
5.000000000000102
100
AcDbArc
 50
5.0
 51
85.999994
  0
ARC
  5
1E2
102
{ACAD_REACTORS
330
6DA
102
}
330
1F
100
AcDbEntity
  8
LC-004-099-----0
 62
     7
370
    50
100
AcDbCircle
 10
547.663293
 20
2432.33
 30
0.0
 40
2.000000000000204
100
AcDbArc
 50
185.000003
 51
269.999986
  0
ARC
  5
1E3
102
{ACAD_REACTORS
330
6DA
102
}
330
1F
100
AcDbEntity
  8
LC-004-099-----0
 62
     7
370
    50
100
AcDbCircle
 10
1044.208629
 20
2477.735228
 30
0.0
 40
24.99999999700012
100
AcDbArc
 50
274.05955
 51
353.937959
  0
ARC
  5
1E4
102
{ACAD_REACTORS
330
6DA
102
}
330
1F
100
AcDbEntity
  8
LC-004-099-----0
 62
     7
370
    50
100
AcDbCircle
 10
790.407751
 20
2468.64788
 30
0.0
 40
25.00000001139976
100
AcDbArc
 50
186.067183
 51
265.938463
  0
ARC
  5
1E5
102
{ACAD_REACTORS
330
6DA
102
}
330
1F
100
AcDbEntity
  8
LC-004-099-----0
 62
     7
370
    50
100
AcDbCircle
 10
1050.556313
 20
2471.162008
 30
0.0
 40
24.99999999659985
100
AcDbArc
 50
274.059482
 51
353.938193
  0
ARC
  5
1E6
102
{ACAD_REACTORS
330
6DA
102
}
330
1F
100
AcDbEntity
  8
LC-004-099-----0
 62
     7
370
    50
100
AcDbCircle
 10
784.060067
 20
2462.07466
 30
0.0
 40
25.00000000839983
100
AcDbArc
 50
186.066687
 51
265.938726
  0
ARC
  5
1E7
102
{ACAD_REACTORS
330
6DA
102
}
330
1F
100
AcDbEntity
  8
LC-004-099-----0
 62
     7
370
    50
100
AcDbCircle
 10
1092.928905
 20
2616.007439
 30
0.0
 40
1.999999999999948
100
AcDbArc
 50
62.510259
 51
159.335972
  0
ARC
  5
1E8
102
{ACAD_REACTORS
330
6DA
102
}
330
1F
100
AcDbEntity
  8
LC-004-099-----0
 62
     7
370
    50
100
AcDbCircle
 10
1095.698444
 20
2621.33
 30
0.0
 40
3.999999999999896
100
AcDbArc
 50
242.510259
 51
333.0
  0
ARC
  5
1E9
102
{ACAD_REACTORS
330
6DA
102
}
330
1F
100
AcDbEntity
  8
LC-004-099-----0
 62
     7
370
    50
100
AcDbCircle
 10
795.184926
 20
2442.181563
 30
0.0
 40
1.000000000000415
100
AcDbArc
 50
185.0
 51
259.999993
  0
ARC
  5
1EA
102
{ACAD_REACTORS
330
6DA
102
}
330
1F
100
AcDbEntity
  8
LC-004-099-----0
 62
     7
370
    50
100
AcDbCircle
 10
665.476336
 20
2442.181563
 30
0.0
 40
0.9999999999998027
100
AcDbArc
 50
280.000007
 51
355.0
  0
ARC
  5
1EB
102
{ACAD_REACTORS
330
6DA
102
}
330
1F
100
AcDbEntity
  8
LC-004-099-----0
 62
     7
370
    50
100
AcDbCircle
 10
551.184926
 20
2442.181563
 30
0.0
 40
1.000000000000642
100
AcDbArc
 50
185.0
 51
259.999993
  0
ARC
  5
1EC
102
{ACAD_REACTORS
330
6DA
102
}
330
1F
100
AcDbEntity
  8
LC-004-099-----0
 62
     7
370
    50
100
AcDbCircle
 10
549.158874
 20
2442.392014
 30
0.0
 40
1.000000000000235
100
AcDbArc
 50
5.0
 51
86.0
  0
ARC
  5
1ED
102
{ACAD_REACTORS
330
6DA
102
}
330
1F
100
AcDbEntity
  8
LC-004-099-----0
 62
     7
370
    50
100
AcDbCircle
 10
911.502387
 20
2442.392014
 30
0.0
 40
1.000000000000233
100
AcDbArc
 50
94.0
 51
175.0
  0
LINE
  5
1EE
102
{ACAD_REACTORS
330
6DA
102
}
330
1F
100
AcDbEntity
  8
LC-004-099-----0
 62
     7
370
    50
100
AcDbLine
 10
1102.485331
 20
2648.33
 30
0.0
 11
1122.906186
 21
2648.33
 31
0.0
  0
LINE
  5
1EF
102
{ACAD_REACTORS
330
6DA
102
}
330
1F
100
AcDbEntity
  8
LC-002-002-----0
 62
     7
370
    25
100
AcDbLine
 10
550.080631
 20
2443.33
 30
0.0
 11
666.580631
 21
2443.33
 31
0.0
  0
LINE
  5
1F0
102
{ACAD_REACTORS
330
6DA
102
}
330
1F
100
AcDbEntity
  8
LC-002-002-----0
 62
     7
370
    25
100
AcDbLine
 10
794.080631
 20
2443.33
 30
0.0
 11
910.580631
 21
2443.33
 31
0.0
  0
LINE
  5
1F3
102
{ACAD_REACTORS
330
6DA
102
}
330
1F
100
AcDbEntity
  8
LC-006-006-MLN-0
 62
     7
370
    25
100
AcDbLine
 10
852.330631
 20
2446.33
 30
0.0
 11
852.330631
 21
2427.33
 31
0.0
  0
LINE
  5
1F4
102
{ACAD_REACTORS
330
6DA
102
}
330
1F
100
AcDbEntity
  8
LC-006-006-MLN-0
 62
     7
370
    25
100
AcDbLine
 10
608.330631
 20
2427.33
 30
0.0
 11
608.330631
 21
2446.33
 31
0.0
  0
INSERT
  5
211
102
{ACAD_REACTORS
330
6DA
102
}
330
1F
100
AcDbEntity
  8
LC-009-003-----0
 62
     7
370
    25
100
AcDbBlockReference
  2
LCDIM1
 10
0.0
 20
0.0
 30
0.0
  0
INSERT
  5
22B
102
{ACAD_REACTORS
330
6DA
102
}
330
1F
100
AcDbEntity
  8
LC-009-003-----0
 62
     7
370
    25
100
AcDbBlockReference
  2
LCDIM2
 10
0.0
 20
0.0
 30
0.0
  0
ARC
  5
22C
102
{ACAD_REACTORS
330
6D9
102
}
330
1F
100
AcDbEntity
  8
LC-004-099-----0
 62
     7
370
    50
100
AcDbCircle
 10
1596.623987
 20
1694.634295
 30
0.0
 40
0.9999999999998422
100
AcDbArc
 50
190.000007
 51
265.0
  0
LINE
  5
22D
102
{ACAD_REACTORS
330
6D9
102
}
330
1F
100
AcDbEntity
  8
LC-004-099-----0
 62
     7
370
    50
100
AcDbLine
 10
1593.466945
 20
1706.78
 30
0.0
 11
1595.63918
 21
1694.460647
 31
0.0
  0
LINE
  5
22E
102
{ACAD_REACTORS
330
6D9
102
}
330
1F
100
AcDbEntity
  8
LC-004-099-----0
 62
     7
370
    50
100
AcDbLine
 10
1591.389065
 20
1684.46718
 30
0.0
 11
1599.045106
 21
1574.980698
 31
0.0
  0
LINE
  5
22F
102
{ACAD_REACTORS
330
6D9
102
}
330
1F
100
AcDbEntity
  8
LC-004-099-----0
 62
     7
370
    50
100
AcDbLine
 10
1597.832002
 20
1692.678
 30
0.0
 11
1605.618326
 21
1581.328383
 31
0.0
  0
LINE
  5
230
102
{ACAD_REACTORS
330
6D9
102
}
330
1F
100
AcDbEntity
  8
LC-004-099-----0
 62
     7
370
    50
100
AcDbLine
 10
1584.772425
 20
1812.447338
 30
0.0
 11
1584.772425
 21
1691.112662
 31
0.0
  0
LINE
  5
231
102
{ACAD_REACTORS
330
6D9
102
}
330
1F
100
AcDbEntity
  8
LC-004-099-----0
 62
     7
370
    50
100
AcDbLine
 10
1593.466945
 20
1706.78
 30
0.0
 11
1593.466945
 21
1732.195489
 31
0.0
  0
LINE
  5
232
102
{ACAD_REACTORS
330
6D9
102
}
330
1F
100
AcDbEntity
  8
LC-004-099-----0
 62
     7
370
    50
100
AcDbLine
 10
1792.772425
 20
1520.256038
 30
0.0
 11
1792.772425
 21
1515.78
 31
0.0
  0
LINE
  5
233
102
{ACAD_REACTORS
330
6D9
102
}
330
1F
100
AcDbEntity
  8
LC-004-099-----0
 62
     7
370
    50
100
AcDbLine
 10
1793.772425
 20
1970.697096
 30
0.0
 11
1793.772425
 21
1532.862904
 31
0.0
  0
LINE
  5
234
102
{ACAD_REACTORS
330
6D9
102
}
330
1F
100
AcDbEntity
  8
LC-004-099-----0
 62
     7
370
    50
100
AcDbLine
 10
1794.772425
 20
1515.78
 30
0.0
 11
1794.772425
 21
1501.78
 31
0.0
  0
LINE
  5
235
102
{ACAD_REACTORS
330
6D9
102
}
330
1F
100
AcDbEntity
  8
LC-004-099-----0
 62
     7
370
    50
100
AcDbLine
 10
1802.772425
 20
1999.355555
 30
0.0
 11
1802.772425
 21
1524.78
 31
0.0
  0
LINE
  5
236
102
{ACAD_REACTORS
330
6D9
102
}
330
1F
100
AcDbEntity
  8
LC-004-099-----0
 62
     7
370
    50
100
AcDbLine
 10
1584.772425
 20
1706.78
 30
0.0
 11
1593.466945
 21
1706.78
 31
0.0
  0
LINE
  5
237
102
{ACAD_REACTORS
330
6D9
102
}
330
1F
100
AcDbEntity
  8
LC-004-099-----0
 62
     7
370
    50
100
AcDbLine
 10
1596.536832
 20
1693.6381
 30
0.0
 11
1596.921594
 21
1693.604438
 31
0.0
  0
LINE
  5
238
102
{ACAD_REACTORS
330
6D9
102
}
330
1F
100
AcDbEntity
  8
LC-004-099-----0
 62
     7
370
    50
100
AcDbLine
 10
1586.598113
 20
1689.120273
 30
0.0
 11
1586.837024
 21
1689.099371
 31
0.0
  0
LINE
  5
239
102
{ACAD_REACTORS
330
6D9
102
}
330
1F
100
AcDbEntity
  8
LC-004-099-----0
 62
     7
370
    50
100
AcDbLine
 10
1801.772425
 20
1525.35735
 30
0.0
 11
1796.272425
 21
1528.532777
 31
0.0
  0
LINE
  5
23A
102
{ACAD_REACTORS
330
6D9
102
}
330
1F
100
AcDbEntity
  8
LC-004-099-----0
 62
     7
370
    50
100
AcDbLine
 10
1773.956463
 20
1527.848161
 30
0.0
 11
1790.772425
 21
1519.28
 31
0.0
  0
LINE
  5
23B
102
{ACAD_REACTORS
330
6D9
102
}
330
1F
100
AcDbEntity
  8
LC-004-099-----0
 62
     7
370
    50
100
AcDbLine
 10
1788.399595
 20
1541.344707
 30
0.0
 11
1627.944216
 21
1558.209247
 31
0.0
  0
LINE
  5
23C
102
{ACAD_REACTORS
330
6D9
102
}
330
1F
100
AcDbEntity
  8
LC-004-099-----0
 62
     7
370
    50
100
AcDbLine
 10
1782.295067
 20
1534.947761
 30
0.0
 11
1621.370996
 21
1551.861562
 31
0.0
  0
LINE
  5
23D
102
{ACAD_REACTORS
330
6D9
102
}
330
1F
100
AcDbEntity
  8
LC-004-099-----0
 62
     7
370
    50
100
AcDbLine
 10
1794.772425
 20
1501.78
 30
0.0
 11
1800.911938
 21
1502.209317
 31
0.0
  0
LINE
  5
23E
102
{ACAD_REACTORS
330
6D9
102
}
330
1F
100
AcDbEntity
  8
LC-004-099-----0
 62
     7
370
    50
100
AcDbLine
 10
1792.772425
 20
1515.78
 30
0.0
 11
1794.772425
 21
1515.78
 31
0.0
  0
LINE
  5
23F
102
{ACAD_REACTORS
330
6D9
102
}
330
1F
100
AcDbEntity
  8
LC-004-099-----0
 62
     7
370
    50
100
AcDbLine
 10
1790.772425
 20
1519.28
 30
0.0
 11
1792.772425
 21
1519.140146
 31
0.0
  0
ARC
  5
240
102
{ACAD_REACTORS
330
6D9
102
}
330
1F
100
AcDbEntity
  8
LC-004-099-----0
 62
     7
370
    50
100
AcDbCircle
 10
1787.772425
 20
1535.377576
 30
0.0
 40
6.0
100
AcDbArc
 50
0.0
 51
84.0
  0
ARC
  5
241
102
{ACAD_REACTORS
330
6D9
102
}
330
1F
100
AcDbEntity
  8
LC-004-099-----0
 62
     7
370
    50
100
AcDbCircle
 10
1586.772425
 20
1691.112662
 30
0.0
 40
1.999999999999602
100
AcDbArc
 50
180.000014
 51
264.999997
  0
ARC
  5
242
102
{ACAD_REACTORS
330
6D9
102
}
330
1F
100
AcDbEntity
  8
LC-004-099-----0
 62
     7
370
    50
100
AcDbCircle
 10
1586.401245
 20
1684.118397
 30
0.0
 40
5.000000000000245
100
AcDbArc
 50
4.000006
 51
85.0
  0
ARC
  5
243
102
{ACAD_REACTORS
330
6D9
102
}
330
1F
100
AcDbEntity
  8
LC-004-099-----0
 62
     7
370
    50
100
AcDbCircle
 10
1781.772425
 20
1529.975151
 30
0.0
 40
5.00000000000051
100
AcDbArc
 50
8.686164
 51
84.0
  0
ARC
  5
244
102
{ACAD_REACTORS
330
6D9
102
}
330
1F
100
AcDbEntity
  8
LC-004-099-----0
 62
     7
370
    50
100
AcDbCircle
 10
1797.588911
 20
1532.391505
 30
0.0
 40
11.00000000000024
100
AcDbArc
 50
188.686164
 51
234.001382
  0
ARC
  5
245
102
{ACAD_REACTORS
330
6D9
102
}
330
1F
100
AcDbEntity
  8
LC-004-099-----0
 62
     7
370
    50
100
AcDbCircle
 10
1788.772425
 20
1520.256038
 30
0.0
 40
4.0
100
AcDbArc
 50
0.0
 51
54.001382
  0
ARC
  5
246
102
{ACAD_REACTORS
330
6D9
102
}
330
1F
100
AcDbEntity
  8
LC-004-099-----0
 62
     7
370
    50
100
AcDbCircle
 10
1800.772425
 20
1504.204445
 30
0.0
 40
2.000000000000025
100
AcDbArc
 50
274.0
 51
0.0
  0
ARC
  5
247
102
{ACAD_REACTORS
330
6D9
102
}
330
1F
100
AcDbEntity
  8
LC-004-099-----0
 62
     7
370
    50
100
AcDbCircle
 10
1800.772425
 20
1523.625299
 30
0.0
 40
2.0
100
AcDbArc
 50
0.0
 51
60.0
  0
ARC
  5
248
102
{ACAD_REACTORS
330
6D9
102
}
330
1F
100
AcDbEntity
  8
LC-004-099-----0
 62
     7
370
    50
100
AcDbCircle
 10
1798.772425
 20
1532.862904
 30
0.0
 40
5.0
100
AcDbArc
 50
180.0
 51
240.0
  0
ARC
  5
249
102
{ACAD_REACTORS
330
6D9
102
}
330
1F
100
AcDbEntity
  8
LC-004-099-----0
 62
     7
370
    50
100
AcDbCircle
 10
1770.449864
 20
1534.181725
 30
0.0
 40
1.999999999999843
100
AcDbArc
 50
332.510259
 51
69.335972
  0
ARC
  5
24A
102
{ACAD_REACTORS
330
6D9
102
}
330
1F
100
AcDbEntity
  8
LC-004-099-----0
 62
     7
370
    50
100
AcDbCircle
 10
1775.772425
 20
1531.412187
 30
0.0
 40
3.999999999999896
100
AcDbArc
 50
152.510259
 51
243.0
  0
ARC
  5
24B
102
{ACAD_REACTORS
330
6D9
102
}
330
1F
100
AcDbEntity
  8
LC-004-099-----0
 62
     7
370
    50
100
AcDbCircle
 10
1596.834438
 20
1692.608243
 30
0.0
 40
1.000000000000217
100
AcDbArc
 50
4.0
 51
85.0
  0
LINE
  5
24C
102
{ACAD_REACTORS
330
6D9
102
}
330
1F
100
AcDbEntity
  8
LC-004-099-----0
 62
     7
370
    50
100
AcDbLine
 10
1802.772425
 20
1524.625299
 30
0.0
 11
1802.772425
 21
1504.204445
 31
0.0
  0
LINE
  5
24D
102
{ACAD_REACTORS
330
6D9
102
}
330
1F
100
AcDbEntity
  8
LC-002-002-----0
 62
     7
370
    25
100
AcDbLine
 10
1597.772425
 20
1810.03
 30
0.0
 11
1597.772425
 21
1771.78
 31
0.0
  0
LINE
  5
24E
102
{ACAD_REACTORS
330
6D9
102
}
330
1F
100
AcDbEntity
  8
LC-006-006-MLN-0
 62
     7
370
    25
100
AcDbLine
 10
1600.772425
 20
1751.78
 30
0.0
 11
1581.772425
 21
1751.78
 31
0.0
  0
ARC
  5
250
102
{ACAD_REACTORS
330
6D9
102
}
330
1F
100
AcDbEntity
  8
LC-010-099-RND-0
 62
     7
370
    50
100
AcDbCircle
 10
1630.557427
 20
1583.072294
 30
0.0
 40
24.99999999999994
100
AcDbArc
 50
184.0
 51
264.0
  0
ARC
  5
251
102
{ACAD_REACTORS
330
6D9
102
}
330
1F
100
AcDbEntity
  8
LC-010-099-RND-0
 62
     7
370
    50
100
AcDbCircle
 10
1623.984207
 20
1576.72461
 30
0.0
 40
25.0
100
AcDbArc
 50
184.0
 51
264.0
  0
ARC
  5
252
102
{ACAD_REACTORS
330
6D9
102
}
330
1F
100
AcDbEntity
  8
LC-004-099-----0
 62
     7
370
    50
100
AcDbCircle
 10
1596.623987
 20
1808.925705
 30
0.0
 40
0.9999999999997354
100
AcDbArc
 50
95.0
 51
169.999993
  0
LINE
  5
253
102
{ACAD_REACTORS
330
6D9
102
}
330
1F
100
AcDbEntity
  8
LC-004-099-----0
 62
     7
370
    50
100
AcDbLine
 10
1593.466945
 20
1796.78
 30
0.0
 11
1595.63918
 21
1809.099353
 31
0.0
  0
LINE
  5
254
102
{ACAD_REACTORS
330
6D9
102
}
330
1F
100
AcDbEntity
  8
LC-004-099-----0
 62
     7
370
    50
100
AcDbLine
 10
1591.389065
 20
1819.09282
 30
0.0
 11
1599.045106
 21
1928.579302
 31
0.0
  0
LINE
  5
255
102
{ACAD_REACTORS
330
6D9
102
}
330
1F
100
AcDbEntity
  8
LC-004-099-----0
 62
     7
370
    50
100
AcDbLine
 10
1597.832002
 20
1810.882
 30
0.0
 11
1605.618326
 21
1922.231617
 31
0.0
  0
LINE
  5
256
102
{ACAD_REACTORS
330
6D9
102
}
330
1F
100
AcDbEntity
  8
LC-004-099-----0
 62
     7
370
    50
100
AcDbLine
 10
1792.772425
 20
1983.303962
 30
0.0
 11
1792.772425
 21
1987.78
 31
0.0
  0
LINE
  5
257
102
{ACAD_REACTORS
330
6D9
102
}
330
1F
100
AcDbEntity
  8
LC-004-099-----0
 62
     7
370
    50
100
AcDbLine
 10
1794.772425
 20
1987.78
 30
0.0
 11
1794.772425
 21
2001.78
 31
0.0
  0
LINE
  5
258
102
{ACAD_REACTORS
330
6D9
102
}
330
1F
100
AcDbEntity
  8
LC-004-099-----0
 62
     7
370
    50
100
AcDbLine
 10
1584.772425
 20
1796.78
 30
0.0
 11
1593.466945
 21
1796.78
 31
0.0
  0
LINE
  5
259
102
{ACAD_REACTORS
330
6D9
102
}
330
1F
100
AcDbEntity
  8
LC-004-099-----0
 62
     7
370
    50
100
AcDbLine
 10
1596.536832
 20
1809.9219
 30
0.0
 11
1596.921594
 21
1809.955562
 31
0.0
  0
LINE
  5
25A
102
{ACAD_REACTORS
330
6D9
102
}
330
1F
100
AcDbEntity
  8
LC-004-099-----0
 62
     7
370
    50
100
AcDbLine
 10
1586.598113
 20
1814.439727
 30
0.0
 11
1586.837024
 21
1814.460629
 31
0.0
  0
LINE
  5
25B
102
{ACAD_REACTORS
330
6D9
102
}
330
1F
100
AcDbEntity
  8
LC-004-099-----0
 62
     7
370
    50
100
AcDbLine
 10
1801.772425
 20
1978.20265
 30
0.0
 11
1796.272425
 21
1975.027223
 31
0.0
  0
LINE
  5
25C
102
{ACAD_REACTORS
330
6D9
102
}
330
1F
100
AcDbEntity
  8
LC-004-099-----0
 62
     7
370
    50
100
AcDbLine
 10
1773.956463
 20
1975.711839
 30
0.0
 11
1790.772425
 21
1984.28
 31
0.0
  0
LINE
  5
25D
102
{ACAD_REACTORS
330
6D9
102
}
330
1F
100
AcDbEntity
  8
LC-004-099-----0
 62
     7
370
    50
100
AcDbLine
 10
1788.399595
 20
1962.215293
 30
0.0
 11
1627.944216
 21
1945.350753
 31
0.0
  0
LINE
  5
25E
102
{ACAD_REACTORS
330
6D9
102
}
330
1F
100
AcDbEntity
  8
LC-004-099-----0
 62
     7
370
    50
100
AcDbLine
 10
1782.295067
 20
1968.612239
 30
0.0
 11
1621.370996
 21
1951.698438
 31
0.0
  0
LINE
  5
25F
102
{ACAD_REACTORS
330
6D9
102
}
330
1F
100
AcDbEntity
  8
LC-004-099-----0
 62
     7
370
    50
100
AcDbLine
 10
1794.772425
 20
2001.78
 30
0.0
 11
1800.911938
 21
2001.350683
 31
0.0
  0
LINE
  5
260
102
{ACAD_REACTORS
330
6D9
102
}
330
1F
100
AcDbEntity
  8
LC-004-099-----0
 62
     7
370
    50
100
AcDbLine
 10
1792.772425
 20
1987.78
 30
0.0
 11
1794.772425
 21
1987.78
 31
0.0
  0
LINE
  5
261
102
{ACAD_REACTORS
330
6D9
102
}
330
1F
100
AcDbEntity
  8
LC-004-099-----0
 62
     7
370
    50
100
AcDbLine
 10
1790.772425
 20
1984.28
 30
0.0
 11
1792.772425
 21
1984.419854
 31
0.0
  0
ARC
  5
262
102
{ACAD_REACTORS
330
6D9
102
}
330
1F
100
AcDbEntity
  8
LC-004-099-----0
 62
     7
370
    50
100
AcDbCircle
 10
1787.772425
 20
1968.182424
 30
0.0
 40
6.000000000000033
100
AcDbArc
 50
276.0
 51
0.0
  0
ARC
  5
263
102
{ACAD_REACTORS
330
6D9
102
}
330
1F
100
AcDbEntity
  8
LC-004-099-----0
 62
     7
370
    50
100
AcDbCircle
 10
1586.772425
 20
1812.447338
 30
0.0
 40
1.999999999999524
100
AcDbArc
 50
95.000003
 51
179.999986
  0
ARC
  5
264
102
{ACAD_REACTORS
330
6D9
102
}
330
1F
100
AcDbEntity
  8
LC-004-099-----0
 62
     7
370
    50
100
AcDbCircle
 10
1586.401245
 20
1819.441603
 30
0.0
 40
5.000000000000329
100
AcDbArc
 50
275.0
 51
355.999994
  0
ARC
  5
265
102
{ACAD_REACTORS
330
6D9
102
}
330
1F
100
AcDbEntity
  8
LC-004-099-----0
 62
     7
370
    50
100
AcDbCircle
 10
1781.772425
 20
1973.584849
 30
0.0
 40
5.000000000000512
100
AcDbArc
 50
276.0
 51
351.313836
  0
ARC
  5
266
102
{ACAD_REACTORS
330
6D9
102
}
330
1F
100
AcDbEntity
  8
LC-004-099-----0
 62
     7
370
    50
100
AcDbCircle
 10
1797.588911
 20
1971.168495
 30
0.0
 40
11.00000000000018
100
AcDbArc
 50
125.998618
 51
171.313836
  0
ARC
  5
267
102
{ACAD_REACTORS
330
6D9
102
}
330
1F
100
AcDbEntity
  8
LC-004-099-----0
 62
     7
370
    50
100
AcDbCircle
 10
1788.772425
 20
1983.303962
 30
0.0
 40
3.999999999999917
100
AcDbArc
 50
305.998618
 51
0.0
  0
ARC
  5
268
102
{ACAD_REACTORS
330
6D9
102
}
330
1F
100
AcDbEntity
  8
LC-004-099-----0
 62
     7
370
    50
100
AcDbCircle
 10
1800.772425
 20
1999.355555
 30
0.0
 40
2.0
100
AcDbArc
 50
0.0
 51
86.0
  0
ARC
  5
269
102
{ACAD_REACTORS
330
6D9
102
}
330
1F
100
AcDbEntity
  8
LC-004-099-----0
 62
     7
370
    50
100
AcDbCircle
 10
1800.772425
 20
1979.934701
 30
0.0
 40
1.999999999999967
100
AcDbArc
 50
300.0
 51
0.0
  0
ARC
  5
26A
102
{ACAD_REACTORS
330
6D9
102
}
330
1F
100
AcDbEntity
  8
LC-004-099-----0
 62
     7
370
    50
100
AcDbCircle
 10
1798.772425
 20
1970.697096
 30
0.0
 40
5.000000000000016
100
AcDbArc
 50
120.0
 51
180.0
  0
ARC
  5
26B
102
{ACAD_REACTORS
330
6D9
102
}
330
1F
100
AcDbEntity
  8
LC-004-099-----0
 62
     7
370
    50
100
AcDbCircle
 10
1770.449864
 20
1969.378275
 30
0.0
 40
1.999999999999855
100
AcDbArc
 50
290.664028
 51
27.489741
  0
ARC
  5
26C
102
{ACAD_REACTORS
330
6D9
102
}
330
1F
100
AcDbEntity
  8
LC-004-099-----0
 62
     7
370
    50
100
AcDbCircle
 10
1775.772425
 20
1972.147813
 30
0.0
 40
4.000000000000008
100
AcDbArc
 50
117.0
 51
207.489741
  0
ARC
  5
26D
102
{ACAD_REACTORS
330
6D9
102
}
330
1F
100
AcDbEntity
  8
LC-004-099-----0
 62
     7
370
    50
100
AcDbCircle
 10
1596.834438
 20
1810.951757
 30
0.0
 40
1.000000000000235
100
AcDbArc
 50
275.0
 51
356.0
  0
LINE
  5
26E
102
{ACAD_REACTORS
330
6D9
102
}
330
1F
100
AcDbEntity
  8
LC-004-099-----0
 62
     7
370
    50
100
AcDbLine
 10
1802.772425
 20
1978.934701
 30
0.0
 11
1802.772425
 21
1999.355555
 31
0.0
  0
ARC
  5
26F
102
{ACAD_REACTORS
330
6D9
102
}
330
1F
100
AcDbEntity
  8
LC-010-099-RND-0
 62
     7
370
    50
100
AcDbCircle
 10
1630.557427
 20
1920.487706
 30
0.0
 40
24.99999999999999
100
AcDbArc
 50
96.0
 51
176.0
  0
ARC
  5
270
102
{ACAD_REACTORS
330
6D9
102
}
330
1F
100
AcDbEntity
  8
LC-010-099-RND-0
 62
     7
370
    50
100
AcDbCircle
 10
1623.984207
 20
1926.83539
 30
0.0
 40
24.99999999999998
100
AcDbArc
 50
96.0
 51
176.0
  0
INSERT
  5
28A
102
{ACAD_REACTORS
330
6D9
102
}
330
1F
100
AcDbEntity
  8
LC-009-003-----0
 62
     7
370
    25
100
AcDbBlockReference
  2
LCDIM3
 10
0.0
 20
0.0
 30
0.0
  0
LINE
  5
28B
102
{ACAD_REACTORS
330
6D6
102
}
330
1F
100
AcDbEntity
  8
LC-004-099-----0
 62
     7
370
    25
100
AcDbLine
 10
976.911298
 20
1922.194256
 30
0.0
 11
852.330631
 21
1922.231617
 31
0.0
  0
LINE
  5
28C
102
{ACAD_REACTORS
330
6D6
102
}
330
1F
100
AcDbEntity
  8
LC-004-099-----0
 62
     7
370
    25
100
AcDbLine
 10
1027.580701
 20
1922.247763
 30
0.0
 11
976.911298
 21
1922.194256
 31
0.0
  0
LINE
  5
28D
102
{ACAD_REACTORS
330
6D6
102
}
330
1F
100
AcDbEntity
  8
LC-004-099-----0
 62
     7
370
    25
100
AcDbLine
 10
830.70393
 20
1918.432969
 30
0.0
 11
820.694843
 21
1913.782497
 31
0.0
  0
LINE
  5
28E
102
{ACAD_REACTORS
330
6D6
102
}
330
1F
100
AcDbEntity
  8
LC-004-099-----0
 62
     7
370
    25
100
AcDbLine
 10
852.330631
 20
1922.231617
 30
0.0
 11
841.362412
 21
1921.276723
 31
0.0
  0
LINE
  5
28F
102
{ACAD_REACTORS
330
6D6
102
}
330
1F
100
AcDbEntity
  8
LC-004-099-----0
 62
     7
370
    25
100
AcDbLine
 10
841.362412
 20
1921.276723
 30
0.0
 11
830.70393
 21
1918.432969
 31
0.0
  0
LINE
  5
290
102
{ACAD_REACTORS
330
6D6
102
}
330
1F
100
AcDbEntity
  8
LC-004-099-----0
 62
     7
370
    25
100
AcDbLine
 10
820.694843
 20
1913.782497
 30
0.0
 11
811.650888
 21
1907.470447
 31
0.0
  0
LINE
  5
291
102
{ACAD_REACTORS
330
6D6
102
}
330
1F
100
AcDbEntity
  8
LC-004-099-----0
 62
     7
370
    25
100
AcDbLine
 10
671.997422
 20
1751.78
 30
0.0
 11
671.971352
 21
1738.713212
 31
0.0
  0
LINE
  5
292
102
{ACAD_REACTORS
330
6D6
102
}
330
1F
100
AcDbEntity
  8
LC-004-099-----0
 62
     7
370
    25
100
AcDbLine
 10
671.971352
 20
1764.846788
 30
0.0
 11
671.997422
 21
1751.78
 31
0.0
  0
CIRCLE
  5
293
102
{ACAD_REACTORS
330
6D6
102
}
330
1F
100
AcDbEntity
  8
LC-006-006-MLN-0
  6
DASHDOT
 62
     7
370
    25
100
AcDbCircle
 10
730.330631
 20
1934.78
 30
0.0
 40
17.5
  0
CIRCLE
  5
294
102
{ACAD_REACTORS
330
6D6
102
}
330
1F
100
AcDbEntity
  8
LC-006-006-MLN-0
  6
DASHDOT
 62
     7
370
    25
100
AcDbCircle
 10
730.330631
 20
1568.78
 30
0.0
 40
17.5
  0
INSERT
  5
2AE
102
{ACAD_REACTORS
330
6D6
102
}
330
1F
100
AcDbEntity
  8
LC-009-003-----0
 62
     7
370
    25
100
AcDbBlockReference
  2
LCDIM4
 10
0.0
 20
0.0
 30
0.0
  0
INSERT
  5
2C8
102
{ACAD_REACTORS
330
6DA
102
}
330
1F
100
AcDbEntity
  8
LC-009-003-----0
 62
     7
370
    25
100
AcDbBlockReference
  2
LCDIM5
 10
0.0
 20
0.0
 30
0.0
  0
INSERT
  5
2E2
102
{ACAD_REACTORS
330
6DA
102
}
330
1F
100
AcDbEntity
  8
LC-009-003-----0
 62
     7
370
    25
100
AcDbBlockReference
  2
LCDIM6
 10
0.0
 20
0.0
 30
0.0
  0
LINE
  5
2E3
102
{ACAD_REACTORS
330
6E0
102
}
330
1F
100
AcDbEntity
  8
LC-002-002-----0
 62
     7
370
    50
100
AcDbLine
 10
1115.330631
 20
2640.33
 30
0.0
 11
1115.330631
 21
2602.33
 31
0.0
  0
LINE
  5
2E4
102
{ACAD_REACTORS
330
6E0
102
}
330
1F
100
AcDbEntity
  8
LC-002-002-----0
 62
     7
370
    50
100
AcDbLine
 10
1115.330631
 20
2640.33
 30
0.0
 11
1200.233405
 21
2640.33
 31
0.0
  0
LINE
  5
2E5
102
{ACAD_REACTORS
330
6E0
102
}
330
1F
100
AcDbEntity
  8
LC-002-002-----0
 62
     7
370
    50
100
AcDbLine
 10
1115.330631
 20
2602.33
 30
0.0
 11
1200.233405
 21
2602.33
 31
0.0
  0
LINE
  5
2E6
102
{ACAD_REACTORS
330
6E0
102
}
330
1F
100
AcDbEntity
  8
LC-002-002-----0
 62
     7
370
    25
100
AcDbLine
 10
1200.233405
 20
2640.33
 30
0.0
 11
1206.281769
 21
2613.103124
 31
0.0
  0
LINE
  5
2E7
102
{ACAD_REACTORS
330
6E0
102
}
330
1F
100
AcDbEntity
  8
LC-002-002-----0
 62
     7
370
    25
100
AcDbLine
 10
1206.281769
 20
2613.103124
 30
0.0
 11
1200.233405
 21
2602.33
 31
0.0
  0
INSERT
  5
2EE
102
{ACAD_REACTORS
330
6E0
102
}
330
1F
100
AcDbEntity
  8
LC-011-005-----0
 62
     7
370
    25
100
AcDbBlockReference
  2
*X18
 10
0.0
 20
0.0
 30
0.0
  0
LINE
  5
2EF
102
{ACAD_REACTORS
330
6E0
102
}
330
1F
100
AcDbEntity
  8
LC-002-002-----0
 62
     7
370
    50
100
AcDbLine
 10
1130.330631
 20
2602.33
 30
0.0
 11
1130.330631
 21
2493.849812
 31
0.0
  0
LINE
  5
2F0
102
{ACAD_REACTORS
330
6E0
102
}
330
1F
100
AcDbEntity
  8
LC-002-002-----0
 62
     7
370
    50
100
AcDbLine
 10
1111.330631
 20
2602.33
 30
0.0
 11
1111.330631
 21
2493.849812
 31
0.0
  0
LINE
  5
2F1
102
{ACAD_REACTORS
330
6E0
102
}
330
1F
100
AcDbEntity
  8
LC-002-002-----0
 62
     7
370
    50
100
AcDbLine
 10
1111.330631
 20
2602.33
 30
0.0
 11
1130.330631
 21
2602.33
 31
0.0
  0
LINE
  5
2F2
102
{ACAD_REACTORS
330
6E0
102
}
330
1F
100
AcDbEntity
  8
LC-002-002-----0
 62
     7
370
    50
100
AcDbLine
 10
330.330631
 20
2602.33
 30
0.0
 11
330.330631
 21
2493.849812
 31
0.0
  0
LINE
  5
2F3
102
{ACAD_REACTORS
330
6E0
102
}
330
1F
100
AcDbEntity
  8
LC-002-002-----0
 62
     7
370
    50
100
AcDbLine
 10
349.330631
 20
2602.33
 30
0.0
 11
349.330631
 21
2493.849812
 31
0.0
  0
LINE
  5
2F4
102
{ACAD_REACTORS
330
6E0
102
}
330
1F
100
AcDbEntity
  8
LC-002-002-----0
 62
     7
370
    50
100
AcDbLine
 10
330.330631
 20
2602.33
 30
0.0
 11
349.330631
 21
2602.33
 31
0.0
  0
ELLIPSE
  5
2F5
102
{ACAD_REACTORS
330
6D6
102
}
330
1F
100
AcDbEntity
  8
LC-004-099-----0
 62
     7
370
    25
100
AcDbEllipse
 10
751.639904
 20
1751.78
 30
0.0
 11
0.0
 21
-14.99999999964238
 31
0.0
210
0.0
220
0.0
230
1.0
 40
0.104528
 41
0.0
 42
6.283185307179586
  0
INSERT
  5
30F
102
{ACAD_REACTORS
330
6E0
102
}
330
1F
100
AcDbEntity
  8
LC-009-003-----0
 62
     7
370
    25
100
AcDbBlockReference
  2
LCDIM7
 10
0.0
 20
0.0
 30
0.0
  0
LINE
  5
310
102
{ACAD_REACTORS
330
6DA
102
}
330
1F
100
AcDbEntity
  8
LC-006-006-MLN-0
 62
     7
370
    25
100
AcDbLine
 10
754.518366
 20
2599.643585
 30
0.0
 11
741.589581
 21
2598.284715
 31
0.0
  0
LINE
  5
311
102
{ACAD_REACTORS
330
6DA
102
}
330
1F
100
AcDbEntity
  8
LC-002-002-----0
 62
     7
370
    50
100
AcDbLine
 10
753.364048
 20
2581.925867
 30
0.0
 11
746.402395
 21
2581.194168
 31
0.0
  0
LINE
  5
312
102
{ACAD_REACTORS
330
6DA
102
}
330
1F
100
AcDbEntity
  8
LC-002-002-----0
 62
     7
370
    50
100
AcDbLine
 10
749.705552
 20
2616.734133
 30
0.0
 11
742.743899
 21
2616.002434
 31
0.0
  0
LINE
  5
313
102
{ACAD_REACTORS
330
6D5
102
}
330
1F
100
AcDbEntity
  8
LC-002-002-----0
 62
     7
370
    50
100
AcDbLine
 10
389.949313
 20
846.144592
 30
0.0
 11
389.949313
 21
1076.144592
 31
0.0
  0
LINE
  5
314
102
{ACAD_REACTORS
330
6D5
102
}
330
1F
100
AcDbEntity
  8
LC-002-002-----0
 62
     7
370
    50
100
AcDbLine
 10
394.949313
 20
1081.144592
 30
0.0
 11
769.949313
 21
1081.144592
 31
0.0
  0
LINE
  5
315
102
{ACAD_REACTORS
330
6D5
102
}
330
1F
100
AcDbEntity
  8
LC-002-002-----0
 62
     7
370
    50
100
AcDbLine
 10
774.949313
 20
1076.144592
 30
0.0
 11
774.949313
 21
846.144592
 31
0.0
  0
LINE
  5
316
102
{ACAD_REACTORS
330
6D5
102
}
330
1F
100
AcDbEntity
  8
LC-002-002-----0
 62
     7
370
    50
100
AcDbLine
 10
769.949313
 20
841.144592
 30
0.0
 11
394.949313
 21
841.144592
 31
0.0
  0
ARC
  5
317
102
{ACAD_REACTORS
330
6D5
102
}
330
1F
100
AcDbEntity
  8
LC-005-002-RND-0
 62
     7
370
    50
100
AcDbCircle
 10
394.949313
 20
1076.144592
 30
0.0
 40
5.0
100
AcDbArc
 50
90.0
 51
180.0
  0
ARC
  5
318
102
{ACAD_REACTORS
330
6D5
102
}
330
1F
100
AcDbEntity
  8
LC-005-002-RND-0
 62
     7
370
    50
100
AcDbCircle
 10
394.949313
 20
846.144592
 30
0.0
 40
5.0
100
AcDbArc
 50
180.0
 51
270.0
  0
ARC
  5
319
102
{ACAD_REACTORS
330
6D5
102
}
330
1F
100
AcDbEntity
  8
LC-005-002-RND-0
 62
     7
370
    50
100
AcDbCircle
 10
769.949313
 20
1076.144592
 30
0.0
 40
5.0
100
AcDbArc
 50
0.0
 51
90.0
  0
ARC
  5
31A
102
{ACAD_REACTORS
330
6D5
102
}
330
1F
100
AcDbEntity
  8
LC-005-002-RND-0
 62
     7
370
    50
100
AcDbCircle
 10
769.949313
 20
846.144592
 30
0.0
 40
5.0
100
AcDbArc
 50
270.0
 51
0.0
  0
INSERT
  5
329
102
{ACAD_REACTORS
330
6D5
102
}
330
1F
100
AcDbEntity
  8
LC-009-003-----0
 62
     7
370
    25
100
AcDbBlockReference
  2
LCDIM8
 10
0.0
 20
0.0
 30
0.0
  0
INSERT
  5
343
102
{ACAD_REACTORS
330
6D5
102
}
330
1F
100
AcDbEntity
  8
LC-009-003-----0
 62
     7
370
    25
100
AcDbBlockReference
  2
LCDIM9
 10
0.0
 20
0.0
 30
0.0
  0
INSERT
  5
35D
102
{ACAD_REACTORS
330
6D5
102
}
330
1F
100
AcDbEntity
  8
LC-009-003-----0
 62
     7
370
    25
100
AcDbBlockReference
  2
LCDIM10
 10
0.0
 20
0.0
 30
0.0
  0
TEXT
  5
35F
102
{ACAD_REACTORS
330
6D5
102
}
330
1F
100
AcDbEntity
  8
LC-012-004-----0
 62
     7
370
    35
100
AcDbText
 10
376.208155
 20
1220.688397
 30
0.0
 40
35.0
  1
Ausschnitt übergreifend M 1:20
 41
0.7
  7
LCTX0-400-0-0pDIN-Schrift
100
AcDbText
  0
LINE
  5
360
102
{ACAD_REACTORS
330
6E0
102
}
330
1F
100
AcDbEntity
  8
LC-002-002-----0
 62
     7
370
    50
100
AcDbLine
 10
345.330631
 20
2640.33
 30
0.0
 11
345.330631
 21
2602.33
 31
0.0
  0
LINE
  5
361
102
{ACAD_REACTORS
330
6E0
102
}
330
1F
100
AcDbEntity
  8
LC-002-002-----0
 62
     7
370
    50
100
AcDbLine
 10
345.330631
 20
2640.33
 30
0.0
 11
260.427856
 21
2640.33
 31
0.0
  0
LINE
  5
362
102
{ACAD_REACTORS
330
6E0
102
}
330
1F
100
AcDbEntity
  8
LC-002-002-----0
 62
     7
370
    50
100
AcDbLine
 10
345.330631
 20
2602.33
 30
0.0
 11
260.427856
 21
2602.33
 31
0.0
  0
LINE
  5
363
102
{ACAD_REACTORS
330
6E0
102
}
330
1F
100
AcDbEntity
  8
LC-002-002-----0
 62
     7
370
    25
100
AcDbLine
 10
260.427856
 20
2640.33
 30
0.0
 11
254.379492
 21
2613.103124
 31
0.0
  0
LINE
  5
364
102
{ACAD_REACTORS
330
6E0
102
}
330
1F
100
AcDbEntity
  8
LC-002-002-----0
 62
     7
370
    25
100
AcDbLine
 10
254.379492
 20
2613.103124
 30
0.0
 11
260.427856
 21
2602.33
 31
0.0
  0
INSERT
  5
36B
102
{ACAD_REACTORS
330
6E0
102
}
330
1F
100
AcDbEntity
  8
LC-011-005-----0
 62
     7
370
    25
100
AcDbBlockReference
  2
*X213
 10
0.0
 20
0.0
 30
0.0
  0
LINE
  5
36C
102
{ACAD_REACTORS
330
6D4
102
}
330
1F
100
AcDbEntity
  8
LC-002-002-----0
 62
     7
370
    25
100
AcDbLine
 10
780.580631
 20
2408.08
 30
0.0
 11
792.330643
 21
2408.08
 31
0.0
  0
LINE
  5
36D
102
{ACAD_REACTORS
330
6D1
102
}
330
1F
100
AcDbEntity
  8
LC-002-002-----0
 62
     7
370
    25
100
AcDbLine
 10
727.723313
 20
2612.342718
 30
0.0
 11
724.117002
 21
2573.467866
 31
0.0
  0
LINE
  5
36E
102
{ACAD_REACTORS
330
6D2
102
}
330
1F
100
AcDbEntity
  8
LC-002-002-----0
 62
     7
370
    25
100
AcDbLine
 10
725.623725
 20
2532.067285
 30
0.0
 11
725.980923
 21
2540.148894
 31
0.0
  0
LINE
  5
36F
102
{ACAD_REACTORS
330
6D2
102
}
330
1F
100
AcDbEntity
  8
LC-002-002-----0
 62
     7
370
    25
100
AcDbLine
 10
727.677616
 20
2512.525814
 30
0.0
 11
725.623725
 21
2532.067285
 31
0.0
  0
LINE
  5
370
102
{ACAD_REACTORS
330
6D2
102
}
330
1F
100
AcDbEntity
  8
LC-002-002-----0
 62
     7
370
    25
100
AcDbLine
 10
722.886957
 20
2569.586017
 30
0.0
 11
725.980923
 21
2540.148894
 31
0.0
  0
LINE
  5
371
102
{ACAD_REACTORS
330
6D1
102
}
330
1F
100
AcDbEntity
  8
LC-002-002-----0
 62
     7
370
    25
100
AcDbLine
 10
724.118797
 20
2573.172675
 30
0.0
 11
724.3312
 21
2571.151796
 31
0.0
  0
LINE
  5
372
102
{ACAD_REACTORS
330
6D1
102
}
330
1F
100
AcDbEntity
  8
LC-002-002-----0
 62
     7
370
    25
100
AcDbLine
 10
739.892554
 20
2580.947148
 30
0.0
 11
736.201146
 21
2616.068547
 31
0.0
  0
LINE
  5
373
102
{ACAD_REACTORS
330
6D1
102
}
330
1F
100
AcDbEntity
  8
LC-002-002-----0
 62
     7
370
    25
100
AcDbLine
 10
742.232594
 20
2573.033308
 30
0.0
 11
741.612707
 21
2578.931141
 31
0.0
  0
LINE
  5
374
102
{ACAD_REACTORS
330
6D2
102
}
330
1F
100
AcDbEntity
  8
LC-002-002-----0
 62
     7
370
    25
100
AcDbLine
 10
747.901009
 20
2534.408722
 30
0.0
 11
747.064782
 21
2542.364897
 31
0.0
  0
LINE
  5
375
102
{ACAD_REACTORS
330
6D2
102
}
330
1F
100
AcDbEntity
  8
LC-002-002-----0
 62
     7
370
    25
100
AcDbLine
 10
749.954907
 20
2514.867251
 30
0.0
 11
747.901015
 21
2534.408722
 31
0.0
  0
LINE
  5
376
102
{ACAD_REACTORS
330
6D2
102
}
330
1F
100
AcDbEntity
  8
LC-002-002-----0
 62
     7
370
    25
100
AcDbLine
 10
747.064787
 20
2542.364897
 30
0.0
 11
743.970792
 21
2571.802299
 31
0.0
  0
LINE
  5
377
102
{ACAD_REACTORS
330
6D1
102
}
330
1F
100
AcDbEntity
  8
LC-002-002-----0
 62
     7
370
    25
100
AcDbLine
 10
744.596276
 20
2579.244697
 30
0.0
 11
740.57193
 21
2617.53379
 31
0.0
  0
LINE
  5
378
102
{ACAD_REACTORS
330
6D2
102
}
330
1F
100
AcDbEntity
  8
LC-002-002-----0
 62
     7
370
    25
100
AcDbLine
 10
725.623725
 20
2532.067285
 30
0.0
 11
747.901
 21
2534.408865
 31
0.0
  0
LINE
  5
379
102
{ACAD_REACTORS
330
6D2
102
}
330
1F
100
AcDbEntity
  8
LC-002-002-----0
 62
     7
370
    25
100
AcDbLine
 10
747.064787
 20
2542.364897
 30
0.0
 11
725.980923
 21
2540.148894
 31
0.0
  0
LINE
  5
37A
102
{ACAD_REACTORS
330
6D2
102
}
330
1F
100
AcDbEntity
  8
LC-002-002-----0
 62
     7
370
    25
100
AcDbLine
 10
743.431579
 20
2572.14828
 30
0.0
 11
723.342408
 21
2570.036823
 31
0.0
  0
LINE
  5
37B
102
{ACAD_REACTORS
330
6D1
102
}
330
1F
100
AcDbEntity
  8
LC-002-002-----0
 62
     7
370
    25
100
AcDbLine
 10
744.596276
 20
2579.244697
 30
0.0
 11
741.61271
 21
2578.931111
 31
0.0
  0
LINE
  5
37C
102
{ACAD_REACTORS
330
6D1
102
}
330
1F
100
AcDbEntity
  8
LC-002-002-----0
 62
     7
370
    25
100
AcDbLine
 10
744.51788
 20
2579.990588
 30
0.0
 11
746.506923
 21
2580.199645
 31
0.0
  0
LINE
  5
37D
102
{ACAD_REACTORS
330
6D1
102
}
330
1F
100
AcDbEntity
  8
LC-002-002-----0
 62
     7
370
    25
100
AcDbLine
 10
735.389513
 20
2614.223948
 30
0.0
 11
728.924657
 21
2613.544464
 31
0.0
  0
LINE
  5
37E
102
{ACAD_REACTORS
330
6D1
102
}
330
1F
100
AcDbEntity
  8
LC-002-002-----0
 62
     7
370
    25
100
AcDbLine
 10
740.650327
 20
2616.787898
 30
0.0
 11
742.63937
 21
2616.996955
 31
0.0
  0
LINE
  5
37F
102
{ACAD_REACTORS
330
6D1
102
}
330
1F
100
AcDbEntity
  8
LC-002-002-----0
 62
     7
370
    25
100
AcDbLine
 10
740.57193
 20
2617.53379
 30
0.0
 11
737.091104
 21
2617.16794
 31
0.0
  0
ARC
  5
380
102
{ACAD_REACTORS
330
6D1
102
}
330
1F
100
AcDbEntity
  8
LC-002-002-----0
 62
     7
370
    25
100
AcDbCircle
 10
737.195632
 20
2616.173418
 30
0.0
 40
1.000000000000224
100
AcDbArc
 50
96.0
 51
186.0
  0
ARC
  5
381
102
{ACAD_REACTORS
330
6D1
102
}
330
1F
100
AcDbEntity
  8
LC-002-002-----0
 62
     7
370
    25
100
AcDbCircle
 10
735.284985
 20
2615.21847
 30
0.0
 40
0.9999999999998788
100
AcDbArc
 50
276.0
 51
5.987263
  0
INSERT
  5
399
102
{ACAD_REACTORS
330
6D1
102
}
330
1F
100
AcDbEntity
  8
LC-002-002-----0
 62
     7
370
    25
100
AcDbBlockReference
  2
POLY1
 10
0.0
 20
0.0
 30
0.0
  0
INSERT
  5
3A3
102
{ACAD_REACTORS
330
6D1
102
}
330
1F
100
AcDbEntity
  8
LC-002-002-----0
 62
     7
370
    25
100
AcDbBlockReference
  2
POLY2
 10
0.0
 20
0.0
 30
0.0
  0
INSERT
  5
3B5
102
{ACAD_REACTORS
330
6D1
102
}
330
1F
100
AcDbEntity
  8
LC-002-002-----0
 62
     7
370
    25
100
AcDbBlockReference
  2
POLY3
 10
0.0
 20
0.0
 30
0.0
  0
LINE
  5
3B6
102
{ACAD_REACTORS
330
6D2
102
}
330
1F
100
AcDbEntity
  8
LC-002-002-----0
 62
     7
370
    25
100
AcDbLine
 10
743.970792
 20
2571.802299
 30
0.0
 11
743.827327
 21
2572.01425
 31
0.0
  0
LINE
  5
3B7
102
{ACAD_REACTORS
330
6D2
102
}
330
1F
100
AcDbEntity
  8
LC-002-002-----0
 62
     7
370
    25
100
AcDbLine
 10
743.827327
 20
2572.01425
 30
0.0
 11
743.641609
 21
2572.125441
 31
0.0
  0
LINE
  5
3B8
102
{ACAD_REACTORS
330
6D2
102
}
330
1F
100
AcDbEntity
  8
LC-002-002-----0
 62
     7
370
    25
100
AcDbLine
 10
743.641609
 20
2572.125441
 30
0.0
 11
743.431579
 21
2572.14828
 31
0.0
  0
LINE
  5
3B9
102
{ACAD_REACTORS
330
6D2
102
}
330
1F
100
AcDbEntity
  8
LC-002-002-----0
 62
     7
370
    25
100
AcDbLine
 10
723.342408
 20
2570.036823
 30
0.0
 11
723.141495
 21
2569.970686
 31
0.0
  0
LINE
  5
3BA
102
{ACAD_REACTORS
330
6D2
102
}
330
1F
100
AcDbEntity
  8
LC-002-002-----0
 62
     7
370
    25
100
AcDbLine
 10
723.141495
 20
2569.970686
 30
0.0
 11
722.982925
 21
2569.823079
 31
0.0
  0
LINE
  5
3BB
102
{ACAD_REACTORS
330
6D2
102
}
330
1F
100
AcDbEntity
  8
LC-002-002-----0
 62
     7
370
    25
100
AcDbLine
 10
722.982925
 20
2569.823079
 30
0.0
 11
722.886957
 21
2569.586017
 31
0.0
  0
LINE
  5
3BC
102
{ACAD_REACTORS
330
6D1
102
}
330
1F
100
AcDbEntity
  8
LC-002-002-----0
 62
     7
370
    25
100
AcDbLine
 10
728.893568
 20
2613.533043
 30
0.0
 11
728.893568
 21
2613.533043
 31
0.0
  0
LINE
  5
3BD
102
{ACAD_REACTORS
330
6D1
102
}
330
1F
100
AcDbEntity
  8
LC-002-002-----0
 62
     7
370
    25
100
AcDbLine
 10
728.924657
 20
2613.544464
 30
0.0
 11
728.49052
 21
2613.384977
 31
0.0
  0
LINE
  5
3BE
102
{ACAD_REACTORS
330
6D1
102
}
330
1F
100
AcDbEntity
  8
LC-002-002-----0
 62
     7
370
    25
100
AcDbLine
 10
728.49052
 20
2613.384977
 30
0.0
 11
728.49052
 21
2613.384977
 31
0.0
  0
LINE
  5
3BF
102
{ACAD_REACTORS
330
6D1
102
}
330
1F
100
AcDbEntity
  8
LC-002-002-----0
 62
     7
370
    25
100
AcDbLine
 10
728.49052
 20
2613.384977
 30
0.0
 11
728.145686
 21
2613.128524
 31
0.0
  0
LINE
  5
3C0
102
{ACAD_REACTORS
330
6D1
102
}
330
1F
100
AcDbEntity
  8
LC-002-002-----0
 62
     7
370
    25
100
AcDbLine
 10
728.145686
 20
2613.128524
 30
0.0
 11
728.145686
 21
2613.128524
 31
0.0
  0
LINE
  5
3C1
102
{ACAD_REACTORS
330
6D1
102
}
330
1F
100
AcDbEntity
  8
LC-002-002-----0
 62
     7
370
    25
100
AcDbLine
 10
728.145686
 20
2613.128524
 30
0.0
 11
727.887643
 21
2612.784613
 31
0.0
  0
LINE
  5
3C2
102
{ACAD_REACTORS
330
6D1
102
}
330
1F
100
AcDbEntity
  8
LC-002-002-----0
 62
     7
370
    25
100
AcDbLine
 10
727.887643
 20
2612.784613
 30
0.0
 11
727.887643
 21
2612.784613
 31
0.0
  0
LINE
  5
3C3
102
{ACAD_REACTORS
330
6D1
102
}
330
1F
100
AcDbEntity
  8
LC-002-002-----0
 62
     7
370
    25
100
AcDbLine
 10
727.887643
 20
2612.784613
 30
0.0
 11
727.723313
 21
2612.342718
 31
0.0
  0
LINE
  5
3C4
102
{ACAD_REACTORS
330
6D2
102
}
330
1F
100
AcDbEntity
  8
LC-002-002-----0
  6
DASHED
 62
     7
370
    25
100
AcDbLine
 10
755.949707
 20
2457.830536
 30
0.0
 11
733.672416
 21
2455.489099
 31
0.0
  0
LINE
  5
3C5
102
{ACAD_REACTORS
330
6DB
102
}
330
1F
100
AcDbEntity
  8
LC-002-002-----0
 62
     7
370
    25
100
AcDbLine
 10
802.426909
 20
2333.936631
 30
0.0
 11
828.126909
 21
2333.936631
 31
0.0
  0
LINE
  5
3C6
102
{ACAD_REACTORS
330
6DB
102
}
330
1F
100
AcDbEntity
  8
LC-002-002-----0
 62
     7
370
    25
100
AcDbLine
 10
830.526909
 20
2336.336631
 30
0.0
 11
832.54328
 21
2336.336631
 31
0.0
  0
LINE
  5
3C7
102
{ACAD_REACTORS
330
6DB
102
}
330
1F
100
AcDbEntity
  8
LC-002-002-----0
 62
     7
370
    25
100
AcDbLine
 10
802.426909
 20
2377.518912
 30
0.0
 11
823.995457
 21
2377.518912
 31
0.0
  0
LINE
  5
3C8
102
{ACAD_REACTORS
330
6DB
102
}
330
1F
100
AcDbEntity
  8
LC-002-002-----0
 62
     7
370
    25
100
AcDbLine
 10
828.126909
 20
2342.246843
 30
0.0
 11
828.126909
 21
2333.936631
 31
0.0
  0
LINE
  5
3C9
102
{ACAD_REACTORS
330
6DB
102
}
330
1F
100
AcDbEntity
  8
LC-002-002-----0
 62
     7
370
    25
100
AcDbLine
 10
828.12702
 20
2333.936741
 30
0.0
 11
830.526955
 21
2336.336677
 31
0.0
  0
INSERT
  5
3D4
102
{ACAD_REACTORS
330
6D4
102
}
330
1F
100
AcDbEntity
  8
LC-013-100-D00-0
 62
     6
370
    25
100
AcDbBlockReference
  2
POLY4
 10
0.0
 20
0.0
 30
0.0
  0
LINE
  5
3D5
102
{ACAD_REACTORS
330
6D4
102
}
330
1F
100
AcDbEntity
  8
LC-002-002-----0
 62
     7
370
    25
100
AcDbLine
 10
876.210425
 20
2317.498318
 30
0.0
 11
874.730223
 21
2318.268862
 31
0.0
  0
LINE
  5
3D6
102
{ACAD_REACTORS
330
6D4
102
}
330
1F
100
AcDbEntity
  8
LC-002-002-----0
 62
     7
370
    25
100
AcDbLine
 10
876.210537
 20
2319.039138
 30
0.0
 11
874.730117
 21
2319.809796
 31
0.0
  0
LINE
  5
3D7
102
{ACAD_REACTORS
330
6D4
102
}
330
1F
100
AcDbEntity
  8
LC-002-002-----0
 62
     7
370
    25
100
AcDbLine
 10
876.210425
 20
2320.580075
 30
0.0
 11
874.730438
 21
2321.350507
 31
0.0
  0
LINE
  5
3D8
102
{ACAD_REACTORS
330
6D4
102
}
330
1F
100
AcDbEntity
  8
LC-002-002-----0
 62
     7
370
    25
100
AcDbLine
 10
876.210425
 20
2322.120953
 30
0.0
 11
874.730438
 21
2322.891386
 31
0.0
  0
LINE
  5
3D9
102
{ACAD_REACTORS
330
6D4
102
}
330
1F
100
AcDbEntity
  8
LC-002-002-----0
 62
     7
370
    25
100
AcDbLine
 10
876.210425
 20
2323.661832
 30
0.0
 11
874.730438
 21
2324.432264
 31
0.0
  0
LINE
  5
3DA
102
{ACAD_REACTORS
330
6D4
102
}
330
1F
100
AcDbEntity
  8
LC-002-002-----0
 62
     7
370
    25
100
AcDbLine
 10
876.210425
 20
2325.20271
 30
0.0
 11
874.730438
 21
2325.973143
 31
0.0
  0
LINE
  5
3DB
102
{ACAD_REACTORS
330
6D4
102
}
330
1F
100
AcDbEntity
  8
LC-002-002-----0
 62
     7
370
    25
100
AcDbLine
 10
876.210425
 20
2326.743589
 30
0.0
 11
874.730438
 21
2327.514021
 31
0.0
  0
LINE
  5
3DC
102
{ACAD_REACTORS
330
6D4
102
}
330
1F
100
AcDbEntity
  8
LC-002-002-----0
 62
     7
370
    25
100
AcDbLine
 10
875.444355
 20
2329.514047
 30
0.0
 11
872.330606
 21
2332.627796
 31
0.0
  0
LINE
  5
3DD
102
{ACAD_REACTORS
330
6D4
102
}
330
1F
100
AcDbEntity
  8
LC-002-002-----0
 62
     7
370
    25
100
AcDbLine
 10
874.730631
 20
2315.727772
 30
0.0
 11
829.930631
 21
2315.727772
 31
0.0
  0
LINE
  5
3DE
102
{ACAD_REACTORS
330
6D4
102
}
330
1F
100
AcDbEntity
  8
LC-002-002-----0
 62
     7
370
    25
100
AcDbLine
 10
832.330631
 20
2332.627772
 30
0.0
 11
832.330631
 21
2336.336631
 31
0.0
  0
LINE
  5
3DF
102
{ACAD_REACTORS
330
6D4
102
}
330
1F
100
AcDbEntity
  8
LC-002-002-----0
 62
     7
370
    25
100
AcDbLine
 10
875.444355
 20
2329.514047
 30
0.0
 11
861.297025
 21
2329.514047
 31
0.0
  0
LINE
  5
3E0
102
{ACAD_REACTORS
330
6D4
102
}
330
1F
100
AcDbEntity
  8
LC-002-002-----0
 62
     7
370
    25
100
AcDbLine
 10
872.330631
 20
2332.627772
 30
0.0
 11
872.330631
 21
2336.556033
 31
0.0
  0
LINE
  5
3E1
102
{ACAD_REACTORS
330
6D4
102
}
330
1F
100
AcDbEntity
  8
LC-002-002-----0
 62
     7
370
    25
100
AcDbLine
 10
874.730631
 20
2315.727772
 30
0.0
 11
874.730631
 21
2316.727772
 31
0.0
  0
LINE
  5
3E2
102
{ACAD_REACTORS
330
6D4
102
}
330
1F
100
AcDbEntity
  8
LC-002-002-----0
 62
     7
370
    25
100
AcDbLine
 10
874.730631
 20
2327.513921
 30
0.0
 11
874.730631
 21
2329.513921
 31
0.0
  0
LINE
  5
3E3
102
{ACAD_REACTORS
330
6D4
102
}
330
1F
100
AcDbEntity
  8
LC-002-002-----0
 62
     7
370
    25
100
AcDbLine
 10
829.216906
 20
2329.514047
 30
0.0
 11
832.330655
 21
2332.627796
 31
0.0
  0
LINE
  5
3E4
102
{ACAD_REACTORS
330
6D4
102
}
330
1F
100
AcDbEntity
  8
LC-002-002-----0
 62
     7
370
    25
100
AcDbLine
 10
874.730543
 20
2325.972997
 30
0.0
 11
876.210537
 21
2326.743433
 31
0.0
  0
LINE
  5
3E5
102
{ACAD_REACTORS
330
6D4
102
}
330
1F
100
AcDbEntity
  8
LC-002-002-----0
 62
     7
370
    25
100
AcDbLine
 10
874.730543
 20
2324.432118
 30
0.0
 11
876.210537
 21
2325.202554
 31
0.0
  0
LINE
  5
3E6
102
{ACAD_REACTORS
330
6D4
102
}
330
1F
100
AcDbEntity
  8
LC-002-002-----0
 62
     7
370
    25
100
AcDbLine
 10
874.730543
 20
2322.89124
 30
0.0
 11
876.210537
 21
2323.661676
 31
0.0
  0
LINE
  5
3E7
102
{ACAD_REACTORS
330
6D4
102
}
330
1F
100
AcDbEntity
  8
LC-002-002-----0
 62
     7
370
    25
100
AcDbLine
 10
874.730543
 20
2321.350361
 30
0.0
 11
876.210537
 21
2322.120797
 31
0.0
  0
LINE
  5
3E8
102
{ACAD_REACTORS
330
6D4
102
}
330
1F
100
AcDbEntity
  8
LC-002-002-----0
 62
     7
370
    25
100
AcDbLine
 10
874.730223
 20
2319.809316
 30
0.0
 11
876.210537
 21
2320.579919
 31
0.0
  0
LINE
  5
3E9
102
{ACAD_REACTORS
330
6D4
102
}
330
1F
100
AcDbEntity
  8
LC-002-002-----0
 62
     7
370
    25
100
AcDbLine
 10
874.730117
 20
2318.268383
 30
0.0
 11
876.210425
 21
2319.038982
 31
0.0
  0
LINE
  5
3EA
102
{ACAD_REACTORS
330
6D4
102
}
330
1F
100
AcDbEntity
  8
LC-002-002-----0
 62
     7
370
    25
100
AcDbLine
 10
874.730223
 20
2316.727559
 30
0.0
 11
876.210537
 21
2317.498162
 31
0.0
  0
LINE
  5
3EB
102
{ACAD_REACTORS
330
6D4
102
}
330
1F
100
AcDbEntity
  8
LC-002-002-----0
 62
     7
370
    25
100
AcDbLine
 10
828.450836
 20
2317.498318
 30
0.0
 11
829.931039
 21
2318.268862
 31
0.0
  0
LINE
  5
3EC
102
{ACAD_REACTORS
330
6D4
102
}
330
1F
100
AcDbEntity
  8
LC-002-002-----0
 62
     7
370
    25
100
AcDbLine
 10
828.450724
 20
2319.039138
 30
0.0
 11
829.931144
 21
2319.809796
 31
0.0
  0
LINE
  5
3ED
102
{ACAD_REACTORS
330
6D4
102
}
330
1F
100
AcDbEntity
  8
LC-002-002-----0
 62
     7
370
    25
100
AcDbLine
 10
828.450836
 20
2320.580075
 30
0.0
 11
829.930824
 21
2321.350507
 31
0.0
  0
LINE
  5
3EE
102
{ACAD_REACTORS
330
6D4
102
}
330
1F
100
AcDbEntity
  8
LC-002-002-----0
 62
     7
370
    25
100
AcDbLine
 10
828.450836
 20
2322.120953
 30
0.0
 11
829.930824
 21
2322.891386
 31
0.0
  0
LINE
  5
3EF
102
{ACAD_REACTORS
330
6D4
102
}
330
1F
100
AcDbEntity
  8
LC-002-002-----0
 62
     7
370
    25
100
AcDbLine
 10
828.450836
 20
2323.661832
 30
0.0
 11
829.930824
 21
2324.432264
 31
0.0
  0
LINE
  5
3F0
102
{ACAD_REACTORS
330
6D4
102
}
330
1F
100
AcDbEntity
  8
LC-002-002-----0
 62
     7
370
    25
100
AcDbLine
 10
828.450836
 20
2325.20271
 30
0.0
 11
829.930824
 21
2325.973143
 31
0.0
  0
LINE
  5
3F1
102
{ACAD_REACTORS
330
6D4
102
}
330
1F
100
AcDbEntity
  8
LC-002-002-----0
 62
     7
370
    25
100
AcDbLine
 10
828.450836
 20
2326.743589
 30
0.0
 11
829.930824
 21
2327.514021
 31
0.0
  0
LINE
  5
3F2
102
{ACAD_REACTORS
330
6D4
102
}
330
1F
100
AcDbEntity
  8
LC-002-002-----0
 62
     7
370
    25
100
AcDbLine
 10
829.930631
 20
2315.727772
 30
0.0
 11
829.930631
 21
2316.727772
 31
0.0
  0
LINE
  5
3F3
102
{ACAD_REACTORS
330
6D4
102
}
330
1F
100
AcDbEntity
  8
LC-002-002-----0
 62
     7
370
    25
100
AcDbLine
 10
829.930631
 20
2327.513921
 30
0.0
 11
829.930631
 21
2329.513921
 31
0.0
  0
LINE
  5
3F4
102
{ACAD_REACTORS
330
6D4
102
}
330
1F
100
AcDbEntity
  8
LC-002-002-----0
 62
     7
370
    25
100
AcDbLine
 10
829.930718
 20
2325.972997
 30
0.0
 11
828.450724
 21
2326.743433
 31
0.0
  0
LINE
  5
3F5
102
{ACAD_REACTORS
330
6D4
102
}
330
1F
100
AcDbEntity
  8
LC-002-002-----0
 62
     7
370
    25
100
AcDbLine
 10
829.930718
 20
2324.432118
 30
0.0
 11
828.450724
 21
2325.202554
 31
0.0
  0
LINE
  5
3F6
102
{ACAD_REACTORS
330
6D4
102
}
330
1F
100
AcDbEntity
  8
LC-002-002-----0
 62
     7
370
    25
100
AcDbLine
 10
829.930718
 20
2322.89124
 30
0.0
 11
828.450724
 21
2323.661676
 31
0.0
  0
LINE
  5
3F7
102
{ACAD_REACTORS
330
6D4
102
}
330
1F
100
AcDbEntity
  8
LC-002-002-----0
 62
     7
370
    25
100
AcDbLine
 10
829.930718
 20
2321.350361
 30
0.0
 11
828.450724
 21
2322.120797
 31
0.0
  0
LINE
  5
3F8
102
{ACAD_REACTORS
330
6D4
102
}
330
1F
100
AcDbEntity
  8
LC-002-002-----0
 62
     7
370
    25
100
AcDbLine
 10
829.931039
 20
2319.809316
 30
0.0
 11
828.450724
 21
2320.579919
 31
0.0
  0
LINE
  5
3F9
102
{ACAD_REACTORS
330
6D4
102
}
330
1F
100
AcDbEntity
  8
LC-002-002-----0
 62
     7
370
    25
100
AcDbLine
 10
829.931144
 20
2318.268383
 30
0.0
 11
828.450836
 21
2319.038982
 31
0.0
  0
LINE
  5
3FA
102
{ACAD_REACTORS
330
6D4
102
}
330
1F
100
AcDbEntity
  8
LC-002-002-----0
 62
     7
370
    25
100
AcDbLine
 10
829.931039
 20
2316.727559
 30
0.0
 11
828.450724
 21
2317.498162
 31
0.0
  0
LINE
  5
3FB
102
{ACAD_REACTORS
330
6DB
102
}
330
1F
100
AcDbEntity
  8
LC-002-002-----0
 62
     7
370
    25
100
AcDbLine
 10
799.926909
 20
2328.022978
 30
0.0
 11
802.426909
 21
2328.022978
 31
0.0
  0
LINE
  5
3FC
102
{ACAD_REACTORS
330
6DB
102
}
330
1F
100
AcDbEntity
  8
LC-002-002-----0
 62
     7
370
    25
100
AcDbLine
 10
798.926909
 20
2328.772978
 30
0.0
 11
799.176909
 21
2328.772978
 31
0.0
  0
LINE
  5
3FD
102
{ACAD_REACTORS
330
6DB
102
}
330
1F
100
AcDbEntity
  8
LC-002-002-----0
 62
     7
370
    25
100
AcDbLine
 10
798.926909
 20
2329.927772
 30
0.0
 11
785.426909
 21
2329.927772
 31
0.0
  0
LINE
  5
3FE
102
{ACAD_REACTORS
330
6DB
102
}
330
1F
100
AcDbEntity
  8
LC-002-002-----0
 62
     7
370
    25
100
AcDbLine
 10
798.926909
 20
2381.527772
 30
0.0
 11
785.426909
 21
2381.527772
 31
0.0
  0
LINE
  5
3FF
102
{ACAD_REACTORS
330
6DB
102
}
330
1F
100
AcDbEntity
  8
LC-002-002-----0
 62
     7
370
    25
100
AcDbLine
 10
798.926909
 20
2382.682565
 30
0.0
 11
799.176909
 21
2382.682565
 31
0.0
  0
LINE
  5
400
102
{ACAD_REACTORS
330
6DB
102
}
330
1F
100
AcDbEntity
  8
LC-002-002-----0
 62
     7
370
    25
100
AcDbLine
 10
799.926909
 20
2383.432565
 30
0.0
 11
802.426909
 21
2383.432565
 31
0.0
  0
LINE
  5
401
102
{ACAD_REACTORS
330
6DB
102
}
330
1F
100
AcDbEntity
  8
LC-002-002-----0
 62
     7
370
    25
100
AcDbLine
 10
799.176908
 20
2328.772979
 30
0.0
 11
799.926908
 21
2328.022979
 31
0.0
  0
LINE
  5
402
102
{ACAD_REACTORS
330
6DB
102
}
330
1F
100
AcDbEntity
  8
LC-002-002-----0
 62
     7
370
    25
100
AcDbLine
 10
783.426909
 20
2379.527772
 30
0.0
 11
783.426909
 21
2331.927772
 31
0.0
  0
LINE
  5
403
102
{ACAD_REACTORS
330
6DB
102
}
330
1F
100
AcDbEntity
  8
LC-002-002-----0
 62
     7
370
    25
100
AcDbLine
 10
798.926909
 20
2382.682547
 30
0.0
 11
798.926909
 21
2381.527772
 31
0.0
  0
LINE
  5
404
102
{ACAD_REACTORS
330
6DB
102
}
330
1F
100
AcDbEntity
  8
LC-002-002-----0
 62
     7
370
    25
100
AcDbLine
 10
802.426909
 20
2383.432565
 30
0.0
 11
802.426909
 21
2328.022978
 31
0.0
  0
LINE
  5
405
102
{ACAD_REACTORS
330
6DB
102
}
330
1F
100
AcDbEntity
  8
LC-002-002-----0
 62
     7
370
    25
100
AcDbLine
 10
799.176908
 20
2382.682564
 30
0.0
 11
799.926908
 21
2383.432564
 31
0.0
  0
ARC
  5
406
102
{ACAD_REACTORS
330
6DB
102
}
330
1F
100
AcDbEntity
  8
LC-002-002-----0
 62
     7
370
    25
100
AcDbCircle
 10
785.426909
 20
2379.527772
 30
0.0
 40
2.0
100
AcDbArc
 50
90.0
 51
180.0
  0
ARC
  5
407
102
{ACAD_REACTORS
330
6DB
102
}
330
1F
100
AcDbEntity
  8
LC-002-002-----0
 62
     7
370
    25
100
AcDbCircle
 10
785.426909
 20
2331.927772
 30
0.0
 40
2.0
100
AcDbArc
 50
180.0
 51
270.0
  0
LINE
  5
408
102
{ACAD_REACTORS
330
6D4
102
}
330
1F
100
AcDbEntity
  8
LC-002-002-----0
 62
     7
370
    25
100
AcDbLine
 10
843.364236
 20
2329.514047
 30
0.0
 11
829.216906
 21
2329.514047
 31
0.0
  0
INSERT
  5
418
102
{ACAD_REACTORS
330
6DB
102
}
330
1F
100
AcDbEntity
  8
LC-002-002-----0
 62
     7
370
    25
100
AcDbBlockReference
  2
POLY5
 10
0.0
 20
0.0
 30
0.0
  0
LINE
  5
419
102
{ACAD_REACTORS
330
6DB
102
}
330
1F
100
AcDbEntity
  8
LC-002-002-----0
 62
     7
370
    25
100
AcDbLine
 10
798.926909
 20
2355.726319
 30
0.0
 11
785.426909
 21
2355.726319
 31
0.0
  0
ARC
  5
41A
102
{ACAD_REACTORS
330
6D4
102
}
330
1F
100
AcDbEntity
  8
LC-002-002-----0
 62
     7
370
    25
100
AcDbCircle
 10
852.330631
 20
2355.727772
 30
0.0
 40
22.0
100
AcDbArc
 50
180.0
 51
0.0
  0
LINE
  5
41B
102
{ACAD_REACTORS
330
6D4
102
}
330
1F
100
AcDbEntity
  8
LC-002-002-----0
 62
     7
370
    25
100
AcDbLine
 10
830.330631
 20
2355.727772
 30
0.0
 11
830.330631
 21
2369.418956
 31
0.0
  0
LINE
  5
41C
102
{ACAD_REACTORS
330
6D4
102
}
330
1F
100
AcDbEntity
  8
LC-002-002-----0
 62
     7
370
    25
100
AcDbLine
 10
874.330631
 20
2355.727772
 30
0.0
 11
874.330631
 21
2369.418956
 31
0.0
  0
LINE
  5
41D
102
{ACAD_REACTORS
330
6D4
102
}
330
1F
100
AcDbEntity
  8
LC-002-002-----0
 62
     7
370
    25
100
AcDbLine
 10
889.830631
 20
2387.687319
 30
0.0
 11
887.828768
 21
2387.687319
 31
0.0
  0
LINE
  5
41E
102
{ACAD_REACTORS
330
6D4
102
}
330
1F
100
AcDbEntity
  8
LC-002-002-----0
 62
     7
370
    25
100
AcDbLine
 10
887.828768
 20
2386.984074
 30
0.0
 11
887.828768
 21
2387.687319
 31
0.0
  0
LINE
  5
41F
102
{ACAD_REACTORS
330
6D4
102
}
330
1F
100
AcDbEntity
  8
LC-002-002-----0
 62
     7
370
    25
100
AcDbLine
 10
889.830631
 20
2390.187319
 30
0.0
 11
889.830631
 21
2387.687319
 31
0.0
  0
LINE
  5
420
102
{ACAD_REACTORS
330
6D4
102
}
330
1F
100
AcDbEntity
  8
LC-002-002-----0
 62
     7
370
    25
100
AcDbLine
 10
880.61957
 20
2377.228938
 30
0.0
 11
881.098016
 21
2379.847802
 31
0.0
  0
ARC
  5
421
102
{ACAD_REACTORS
330
6D4
102
}
330
1F
100
AcDbEntity
  8
LC-002-002-----0
 62
     7
370
    25
100
AcDbCircle
 10
874.225406
 20
2378.397129
 30
0.0
 40
6.500000000000005
100
AcDbArc
 50
289.07704
 51
349.645823
  0
ARC
  5
422
102
{ACAD_REACTORS
330
6D4
102
}
330
1F
100
AcDbEntity
  8
LC-002-002-----0
 62
     7
370
    25
100
AcDbCircle
 10
877.330631
 20
2369.418956
 30
0.0
 40
3.000000000000295
100
AcDbArc
 50
109.055448
 51
180.0
  0
ARC
  5
423
102
{ACAD_REACTORS
330
6D4
102
}
330
1F
100
AcDbEntity
  8
LC-002-002-----0
 62
     7
370
    25
100
AcDbCircle
 10
885.828768
 20
2386.984074
 30
0.0
 40
1.999999999999772
100
AcDbArc
 50
334.152631
 51
0.0
  0
ARC
  5
424
102
{ACAD_REACTORS
330
6D4
102
}
330
1F
100
AcDbEntity
  8
LC-002-002-----0
 62
     7
370
    25
100
AcDbCircle
 10
882.228835
 20
2388.727772
 30
0.0
 40
5.999999999999909
100
AcDbArc
 50
286.283517
 51
334.155028
  0
ARC
  5
425
102
{ACAD_REACTORS
330
6D4
102
}
330
1F
100
AcDbEntity
  8
LC-002-002-----0
 62
     7
370
    25
100
AcDbCircle
 10
885.032893
 20
2379.128956
 30
0.0
 40
4.000000000000306
100
AcDbArc
 50
106.281751
 51
169.647048
  0
LINE
  5
426
102
{ACAD_REACTORS
330
6D4
102
}
330
1F
100
AcDbEntity
  8
LC-002-002-----0
 62
     7
370
    25
100
AcDbLine
 10
816.832493
 20
2386.984074
 30
0.0
 11
816.832493
 21
2387.687319
 31
0.0
  0
LINE
  5
427
102
{ACAD_REACTORS
330
6D4
102
}
330
1F
100
AcDbEntity
  8
LC-002-002-----0
 62
     7
370
    25
100
AcDbLine
 10
814.830631
 20
2390.187319
 30
0.0
 11
814.830631
 21
2387.687319
 31
0.0
  0
LINE
  5
428
102
{ACAD_REACTORS
330
6D4
102
}
330
1F
100
AcDbEntity
  8
LC-002-002-----0
 62
     7
370
    25
100
AcDbLine
 10
824.041692
 20
2377.228938
 30
0.0
 11
823.563245
 21
2379.847802
 31
0.0
  0
ARC
  5
429
102
{ACAD_REACTORS
330
6D4
102
}
330
1F
100
AcDbEntity
  8
LC-002-002-----0
 62
     7
370
    25
100
AcDbCircle
 10
830.435855
 20
2378.397129
 30
0.0
 40
6.499999999999891
100
AcDbArc
 50
190.354177
 51
250.92296
  0
ARC
  5
42A
102
{ACAD_REACTORS
330
6D4
102
}
330
1F
100
AcDbEntity
  8
LC-002-002-----0
 62
     7
370
    25
100
AcDbCircle
 10
827.330631
 20
2369.418956
 30
0.0
 40
2.999999995699682
100
AcDbArc
 50
0.0
 51
70.944552
  0
ARC
  5
42B
102
{ACAD_REACTORS
330
6D4
102
}
330
1F
100
AcDbEntity
  8
LC-002-002-----0
 62
     7
370
    25
100
AcDbCircle
 10
818.832493
 20
2386.984074
 30
0.0
 40
1.999999999999773
100
AcDbArc
 50
180.0
 51
205.847369
  0
ARC
  5
42C
102
{ACAD_REACTORS
330
6D4
102
}
330
1F
100
AcDbEntity
  8
LC-002-002-----0
 62
     7
370
    25
100
AcDbCircle
 10
822.432427
 20
2388.727772
 30
0.0
 40
5.999999999999802
100
AcDbArc
 50
205.844972
 51
253.716483
  0
ARC
  5
42D
102
{ACAD_REACTORS
330
6D4
102
}
330
1F
100
AcDbEntity
  8
LC-002-002-----0
 62
     7
370
    25
100
AcDbCircle
 10
819.628368
 20
2379.128956
 30
0.0
 40
3.999999999999939
100
AcDbArc
 50
10.352952
 51
73.718249
  0
ARC
  5
42E
102
{ACAD_REACTORS
330
6D4
102
}
330
1F
100
AcDbEntity
  8
LC-002-002-----0
 62
     7
370
    25
100
AcDbCircle
 10
852.330631
 20
2355.727772
 30
0.0
 40
27.70479324130034
100
AcDbArc
 50
145.394244
 51
34.605756
  0
LINE
  5
42F
102
{ACAD_REACTORS
330
6D4
102
}
330
1F
100
AcDbEntity
  8
LC-002-002-----0
 62
     7
370
    25
100
AcDbLine
 10
797.330631
 20
2430.33
 30
0.0
 11
907.330631
 21
2430.33
 31
0.0
  0
LINE
  5
430
102
{ACAD_REACTORS
330
6D4
102
}
330
1F
100
AcDbEntity
  8
LC-002-002-----0
 62
     7
370
    25
100
AcDbLine
 10
907.330631
 20
2426.33
 30
0.0
 11
907.330631
 21
2430.33
 31
0.0
  0
LINE
  5
431
102
{ACAD_REACTORS
330
6D4
102
}
330
1F
100
AcDbEntity
  8
LC-002-002-----0
 62
     7
370
    25
100
AcDbLine
 10
891.835594
 20
2390.187319
 30
0.0
 11
889.830631
 21
2390.187319
 31
0.0
  0
LINE
  5
432
102
{ACAD_REACTORS
330
6D4
102
}
330
1F
100
AcDbEntity
  8
LC-002-002-----0
 62
     7
370
    25
100
AcDbLine
 10
797.330631
 20
2423.18
 30
0.0
 11
797.330631
 21
2426.33
 31
0.0
  0
LINE
  5
433
102
{ACAD_REACTORS
330
6D4
102
}
330
1F
100
AcDbEntity
  8
LC-002-002-----0
 62
     7
370
    25
100
AcDbLine
 10
895.080021
 20
2394.517093
 30
0.0
 11
896.829996
 21
2395.527442
 31
0.0
  0
LINE
  5
434
102
{ACAD_REACTORS
330
6D4
102
}
330
1F
100
AcDbEntity
  8
LC-002-002-----0
 62
     7
370
    25
100
AcDbLine
 10
899.830631
 20
2400.723961
 30
0.0
 11
899.830631
 21
2416.187319
 31
0.0
  0
LINE
  5
435
102
{ACAD_REACTORS
330
6D4
102
}
330
1F
100
AcDbEntity
  8
LC-002-002-----0
 62
     7
370
    25
100
AcDbLine
 10
907.330631
 20
2425.869777
 30
0.0
 11
907.330631
 21
2426.33
 31
0.0
  0
ARC
  5
436
102
{ACAD_REACTORS
330
6D4
102
}
330
1F
100
AcDbEntity
  8
LC-002-002-----0
 62
     7
370
    25
100
AcDbCircle
 10
903.830631
 20
2416.187319
 30
0.0
 40
3.999999999999812
100
AcDbArc
 50
104.492147
 51
180.0
  0
ARC
  5
437
102
{ACAD_REACTORS
330
6D4
102
}
330
1F
100
AcDbEntity
  8
LC-002-002-----0
 62
     7
370
    25
100
AcDbCircle
 10
901.330631
 20
2425.869777
 30
0.0
 40
5.999999999999658
100
AcDbArc
 50
284.469452
 51
0.0
  0
ARC
  5
438
102
{ACAD_REACTORS
330
6D4
102
}
330
1F
100
AcDbEntity
  8
LC-002-002-----0
 62
     7
370
    25
100
AcDbCircle
 10
893.830631
 20
2400.723961
 30
0.0
 40
5.999999999999977
100
AcDbArc
 50
299.988476
 51
0.0
  0
ARC
  5
439
102
{ACAD_REACTORS
330
6D4
102
}
330
1F
100
AcDbEntity
  8
LC-002-002-----0
 62
     7
370
    25
100
AcDbCircle
 10
897.580631
 20
2390.187319
 30
0.0
 40
4.999999999999906
100
AcDbArc
 50
120.016153
 51
172.072225
  0
ARC
  5
43A
102
{ACAD_REACTORS
330
6D4
102
}
330
1F
100
AcDbEntity
  8
LC-002-002-----0
 62
     7
370
    25
100
AcDbCircle
 10
807.080631
 20
2390.187319
 30
0.0
 40
4.999999999999969
100
AcDbArc
 50
7.927775
 51
33.954632
  0
ARC
  5
43B
102
{ACAD_REACTORS
330
6D4
102
}
330
1F
100
AcDbEntity
  8
LC-002-002-----0
 62
     7
370
    25
100
AcDbCircle
 10
891.836068
 20
2390.987319
 30
0.0
 40
0.7999999999997272
100
AcDbArc
 50
270.0
 51
352.062606
  0
ARC
  5
43C
102
{ACAD_REACTORS
330
6D4
102
}
330
1F
100
AcDbEntity
  8
LC-002-002-----0
 62
     7
370
    25
100
AcDbCircle
 10
812.825193
 20
2390.987319
 30
0.0
 40
0.7999999999998813
100
AcDbArc
 50
187.937394
 51
270.0
  0
INSERT
  5
446
102
{ACAD_REACTORS
330
6D4
102
}
330
1F
100
AcDbEntity
  8
LC-002-002-----0
 62
     7
370
    25
100
AcDbBlockReference
  2
POLY6
 10
0.0
 20
0.0
 30
0.0
  0
INSERT
  5
450
102
{ACAD_REACTORS
330
6D4
102
}
330
1F
100
AcDbEntity
  8
LC-002-002-----0
 62
     7
370
    25
100
AcDbBlockReference
  2
POLY7
 10
0.0
 20
0.0
 30
0.0
  0
INSERT
  5
45E
102
{ACAD_REACTORS
330
6D4
102
}
330
1F
100
AcDbEntity
  8
LC-002-002-----0
 62
     7
370
    25
100
AcDbBlockReference
  2
POLY8
 10
0.0
 20
0.0
 30
0.0
  0
INSERT
  5
46C
102
{ACAD_REACTORS
330
6D4
102
}
330
1F
100
AcDbEntity
  8
LC-002-002-----0
 62
     7
370
    25
100
AcDbBlockReference
  2
POLY9
 10
0.0
 20
0.0
 30
0.0
  0
INSERT
  5
47C
102
{ACAD_REACTORS
330
6D4
102
}
330
1F
100
AcDbEntity
  8
LC-002-002-----0
 62
     7
370
    25
100
AcDbBlockReference
  2
POLY10
 10
0.0
 20
0.0
 30
0.0
  0
INSERT
  5
48A
102
{ACAD_REACTORS
330
6D4
102
}
330
1F
100
AcDbEntity
  8
LC-002-002-----0
 62
     7
370
    25
100
AcDbBlockReference
  2
POLY11
 10
0.0
 20
0.0
 30
0.0
  0
LINE
  5
48B
102
{ACAD_REACTORS
330
6D4
102
}
330
1F
100
AcDbEntity
  8
LC-002-002-----0
 62
     7
370
    25
100
AcDbLine
 10
807.295019
 20
2416.187319
 30
0.0
 11
807.295019
 21
2408.08
 31
0.0
  0
LINE
  5
48C
102
{ACAD_REACTORS
330
6D4
102
}
330
1F
100
AcDbEntity
  8
LC-002-002-----0
 62
     7
370
    25
100
AcDbLine
 10
797.330631
 20
2426.33
 30
0.0
 11
797.330631
 21
2430.33
 31
0.0
  0
LINE
  5
48D
102
{ACAD_REACTORS
330
6D4
102
}
330
1F
100
AcDbEntity
  8
LC-002-002-----0
 62
     7
370
    25
100
AcDbLine
 10
795.080631
 20
2388.08
 30
0.0
 11
793.080631
 21
2388.08
 31
0.0
  0
LINE
  5
48E
102
{ACAD_REACTORS
330
6D4
102
}
330
1F
100
AcDbEntity
  8
LC-002-002-----0
 62
     7
370
    25
100
AcDbLine
 10
792.330629
 20
2390.122762
 30
0.0
 11
780.591397
 21
2390.122762
 31
0.0
  0
LINE
  5
48F
102
{ACAD_REACTORS
330
6D4
102
}
330
1F
100
AcDbEntity
  8
LC-002-002-----0
 62
     7
370
    25
100
AcDbLine
 10
792.330629
 20
2426.037238
 30
0.0
 11
780.591397
 21
2426.037238
 31
0.0
  0
LINE
  5
490
102
{ACAD_REACTORS
330
6D4
102
}
330
1F
100
AcDbEntity
  8
LC-002-002-----0
 62
     7
370
    25
100
AcDbLine
 10
795.080631
 20
2428.08
 30
0.0
 11
793.080631
 21
2428.08
 31
0.0
  0
LINE
  5
491
102
{ACAD_REACTORS
330
6D4
102
}
330
1F
100
AcDbEntity
  8
LC-002-002-----0
 62
     7
370
    25
100
AcDbLine
 10
793.080534
 20
2388.080097
 30
0.0
 11
792.330643
 21
2388.829987
 31
0.0
  0
LINE
  5
492
102
{ACAD_REACTORS
330
6D4
102
}
330
1F
100
AcDbEntity
  8
LC-002-002-----0
 62
     7
370
    25
100
AcDbLine
 10
780.580631
 20
2390.33019
 30
0.0
 11
780.580631
 21
2425.82981
 31
0.0
  0
LINE
  5
493
102
{ACAD_REACTORS
330
6D4
102
}
330
1F
100
AcDbEntity
  8
LC-002-002-----0
 62
     7
370
    25
100
AcDbLine
 10
792.330643
 20
2388.829987
 30
0.0
 11
792.330643
 21
2390.122762
 31
0.0
  0
LINE
  5
494
102
{ACAD_REACTORS
330
6D4
102
}
330
1F
100
AcDbEntity
  8
LC-002-002-----0
 62
     7
370
    25
100
AcDbLine
 10
792.330634
 20
2426.037238
 30
0.0
 11
792.330643
 21
2427.330013
 31
0.0
  0
LINE
  5
495
102
{ACAD_REACTORS
330
6D4
102
}
330
1F
100
AcDbEntity
  8
LC-002-002-----0
 62
     7
370
    25
100
AcDbLine
 10
795.080631
 20
2388.08
 30
0.0
 11
795.080631
 21
2428.08
 31
0.0
  0
LINE
  5
496
102
{ACAD_REACTORS
330
6D4
102
}
330
1F
100
AcDbEntity
  8
LC-002-002-----0
 62
     7
370
    25
100
AcDbLine
 10
793.080534
 20
2428.079903
 30
0.0
 11
792.330643
 21
2427.330013
 31
0.0
  0
ARC
  5
497
102
{ACAD_REACTORS
330
6D4
102
}
330
1F
100
AcDbEntity
  8
LC-002-002-----0
 62
     7
370
    25
100
AcDbCircle
 10
782.580631
 20
2425.83
 30
0.0
 40
2.000000000000042
100
AcDbArc
 50
174.05239
 51
180.0
  0
ARC
  5
498
102
{ACAD_REACTORS
330
6D4
102
}
330
1F
100
AcDbEntity
  8
LC-002-002-----0
 62
     7
370
    25
100
AcDbCircle
 10
782.580631
 20
2390.33
 30
0.0
 40
2.0
100
AcDbArc
 50
180.0
 51
185.94761
  0
LINE
  5
499
102
{ACAD_REACTORS
330
6D4
102
}
330
1F
100
AcDbEntity
  8
LC-002-002-----0
 62
     7
370
    25
100
AcDbLine
 10
795.080631
 20
2423.18
 30
0.0
 11
797.330631
 21
2423.18
 31
0.0
  0
LINE
  5
49A
102
{ACAD_REACTORS
330
6D4
102
}
330
1F
100
AcDbEntity
  8
LC-002-002-----0
 62
     7
370
    25
100
AcDbLine
 10
795.080631
 20
2392.98
 30
0.0
 11
811.228031
 21
2392.98
 31
0.0
  0
LINE
  5
49B
102
{ACAD_REACTORS
330
6DB
102
}
330
1F
100
AcDbEntity
  8
LC-002-002-----0
 62
     7
370
    25
100
AcDbLine
 10
627.502369
 20
2335.727772
 30
0.0
 11
783.426909
 21
2335.727772
 31
0.0
  0
LINE
  5
49C
102
{ACAD_REACTORS
330
6DB
102
}
330
1F
100
AcDbEntity
  8
LC-002-002-----0
 62
     7
370
    25
100
AcDbLine
 10
636.152001
 20
2375.727772
 30
0.0
 11
783.426909
 21
2375.727772
 31
0.0
  0
LINE
  5
49D
102
{ACAD_REACTORS
330
6DC
102
}
330
1F
100
AcDbEntity
  8
LC-002-002-----0
 62
     7
370
    25
100
AcDbLine
 10
732.935801
 20
2428.052441
 30
0.0
 11
733.633254
 21
2408.07999
 31
0.0
  0
LINE
  5
49E
102
{ACAD_REACTORS
330
6DC
102
}
330
1F
100
AcDbEntity
  8
LC-002-002-----0
 62
     7
370
    25
100
AcDbLine
 10
726.133254
 20
2443.08
 30
0.0
 11
726.133254
 21
2449.08
 31
0.0
  0
LINE
  5
49F
102
{ACAD_REACTORS
330
6D3
102
}
330
1F
100
AcDbEntity
  8
LC-002-002-----0
 62
     7
370
    25
100
AcDbLine
 10
726.437002
 20
2511.892666
 30
0.0
 11
732.379538
 21
2455.353212
 31
0.0
  0
LINE
  5
4A0
102
{ACAD_REACTORS
330
6D3
102
}
330
1F
100
AcDbEntity
  8
LC-002-002-----0
 62
     7
370
    25
100
AcDbLine
 10
751.300049
 20
2514.505878
 30
0.0
 11
757.242585
 21
2457.966423
 31
0.0
  0
LINE
  5
4A1
102
{ACAD_REACTORS
330
6DC
102
}
330
1F
100
AcDbEntity
  8
LC-002-002-----0
 62
     7
370
    25
100
AcDbLine
 10
766.133254
 20
2443.08
 30
0.0
 11
766.133254
 21
2443.747467
 31
0.0
  0
LINE
  5
4A2
102
{ACAD_REACTORS
330
6DC
102
}
330
1F
100
AcDbEntity
  8
LC-002-002-----0
 62
     7
370
    25
100
AcDbLine
 10
759.330707
 20
2428.052441
 30
0.0
 11
759.067996
 21
2420.529396
 31
0.0
  0
LINE
  5
4A3
102
{ACAD_REACTORS
330
6DC
102
}
330
1F
100
AcDbEntity
  8
LC-002-002-----0
 62
     7
370
    25
100
AcDbLine
 10
780.580631
 20
2395.58
 30
0.0
 11
746.132785
 21
2395.58
 31
0.0
  0
LINE
  5
4A4
102
{ACAD_REACTORS
330
6DC
102
}
330
1F
100
AcDbEntity
  8
LC-002-002-----0
 62
     7
370
    25
100
AcDbLine
 10
780.580631
 20
2420.58
 30
0.0
 11
759.069763
 21
2420.58
 31
0.0
  0
LINE
  5
4A5
102
{ACAD_REACTORS
330
6DC
102
}
330
1F
100
AcDbEntity
  8
LC-002-002-----0
 62
     7
370
    25
100
AcDbLine
 10
726.133254
 20
2449.08
 30
0.0
 11
762.225078
 21
2449.08
 31
0.0
  0
LINE
  5
4A6
102
{ACAD_REACTORS
330
6D3
102
}
330
1F
100
AcDbEntity
  8
LC-002-002-----0
 62
     7
370
    25
100
AcDbLine
 10
757.242585
 20
2457.966423
 30
0.0
 11
732.379538
 21
2455.353212
 31
0.0
  0
LINE
  5
4A7
102
{ACAD_REACTORS
330
6D3
102
}
330
1F
100
AcDbEntity
  8
LC-002-002-----0
 62
     7
370
    25
100
AcDbLine
 10
750.750524
 20
2514.950874
 30
0.0
 11
726.881999
 21
2512.442191
 31
0.0
  0
ARC
  5
4A8
102
{ACAD_REACTORS
330
6DC
102
}
330
1F
100
AcDbEntity
  8
LC-002-002-----0
 62
     7
370
    25
100
AcDbCircle
 10
746.133254
 20
2443.08
 30
0.0
 40
19.99999999999994
100
AcDbArc
 50
311.290426
 51
0.0
  0
ARC
  5
4A9
102
{ACAD_REACTORS
330
6DC
102
}
330
1F
100
AcDbEntity
  8
LC-002-002-----0
 62
     7
370
    25
100
AcDbCircle
 10
746.133254
 20
2443.08
 30
0.0
 40
20.0
100
AcDbArc
 50
180.0
 51
228.709438
  0
ARC
  5
4AA
102
{ACAD_REACTORS
330
6DC
102
}
330
1F
100
AcDbEntity
  8
LC-002-002-----0
 62
     7
370
    25
100
AcDbCircle
 10
746.133235
 20
2408.080019
 30
0.0
 40
12.49998146380004
100
AcDbArc
 50
180.000085
 51
270.0
  0
ARC
  5
4AB
102
{ACAD_REACTORS
330
6D3
102
}
330
1F
100
AcDbEntity
  8
LC-002-002-----0
 62
     7
370
    25
100
AcDbCircle
 10
750.802788
 20
2514.453613
 30
0.0
 40
0.4999999999998739
100
AcDbArc
 50
6.0
 51
96.0
  0
ARC
  5
4AC
102
{ACAD_REACTORS
330
6D3
102
}
330
1F
100
AcDbEntity
  8
LC-002-002-----0
 62
     7
370
    25
100
AcDbCircle
 10
726.934263
 20
2511.94493
 30
0.0
 40
0.4999999999999214
100
AcDbArc
 50
96.0
 51
186.0
  0
ARC
  5
4AD
102
{ACAD_REACTORS
330
6D3
102
}
330
1F
100
AcDbEntity
  8
LC-002-002-----0
 62
     7
370
    25
100
AcDbCircle
 10
758.237107
 20
2458.070952
 30
0.0
 40
1.000000000000248
100
AcDbArc
 50
186.0
 51
229.137678
  0
ARC
  5
4AE
102
{ACAD_REACTORS
330
6D3
102
}
330
1F
100
AcDbEntity
  8
LC-002-002-----0
 62
     7
370
    25
100
AcDbCircle
 10
731.385016
 20
2455.248683
 30
0.0
 40
0.9999999999999968
100
AcDbArc
 50
322.862322
 51
6.0
  0
ARC
  5
4AF
102
{ACAD_REACTORS
330
6D3
102
}
330
1F
100
AcDbEntity
  8
LC-002-002-----0
 62
     7
370
    25
100
AcDbCircle
 10
746.133254
 20
2444.08
 30
0.0
 40
17.50000000000004
100
AcDbArc
 50
142.85835
 51
163.398451
  0
ARC
  5
4B0
102
{ACAD_REACTORS
330
6D3
102
}
330
1F
100
AcDbEntity
  8
LC-002-002-----0
 62
     7
370
    25
100
AcDbCircle
 10
746.133254
 20
2444.08
 30
0.0
 40
17.49999999998657
100
AcDbArc
 50
37.791856
 51
49.141806
  0
INSERT
  5
4DA
102
{ACAD_REACTORS
330
6DC
102
}
330
1F
100
AcDbEntity
  8
LC-002-002-----0
 62
     7
370
    25
100
AcDbBlockReference
  2
POLY12
 10
0.0
 20
0.0
 30
0.0
  0
ARC
  5
4DB
102
{ACAD_REACTORS
330
6DF
102
}
330
1F
100
AcDbEntity
  8
LC-002-002-----0
 62
     7
370
    25
100
AcDbCircle
 10
608.330631
 20
2355.727772
 30
0.0
 40
22.0
100
AcDbArc
 50
180.0
 51
0.0
  0
LINE
  5
4DC
102
{ACAD_REACTORS
330
6DF
102
}
330
1F
100
AcDbEntity
  8
LC-002-002-----0
 62
     7
370
    25
100
AcDbLine
 10
586.330631
 20
2355.727772
 30
0.0
 11
586.330631
 21
2369.418956
 31
0.0
  0
LINE
  5
4DD
102
{ACAD_REACTORS
330
6DF
102
}
330
1F
100
AcDbEntity
  8
LC-002-002-----0
 62
     7
370
    25
100
AcDbLine
 10
630.330631
 20
2355.727772
 30
0.0
 11
630.330631
 21
2369.418956
 31
0.0
  0
LINE
  5
4DE
102
{ACAD_REACTORS
330
6DF
102
}
330
1F
100
AcDbEntity
  8
LC-002-002-----0
 62
     7
370
    25
100
AcDbLine
 10
553.330631
 20
2430.33
 30
0.0
 11
663.330631
 21
2430.33
 31
0.0
  0
LINE
  5
4DF
102
{ACAD_REACTORS
330
6DF
102
}
330
1F
100
AcDbEntity
  8
LC-002-002-----0
 62
     7
370
    25
100
AcDbLine
 10
663.330631
 20
2426.33
 30
0.0
 11
663.330631
 21
2430.33
 31
0.0
  0
LINE
  5
4E0
102
{ACAD_REACTORS
330
6DF
102
}
330
1F
100
AcDbEntity
  8
LC-002-002-----0
 62
     7
370
    25
100
AcDbLine
 10
645.830631
 20
2387.687319
 30
0.0
 11
643.828768
 21
2387.687319
 31
0.0
  0
LINE
  5
4E1
102
{ACAD_REACTORS
330
6DF
102
}
330
1F
100
AcDbEntity
  8
LC-002-002-----0
 62
     7
370
    25
100
AcDbLine
 10
647.835594
 20
2390.187319
 30
0.0
 11
645.830631
 21
2390.187319
 31
0.0
  0
LINE
  5
4E2
102
{ACAD_REACTORS
330
6DF
102
}
330
1F
100
AcDbEntity
  8
LC-002-002-----0
 62
     7
370
    25
100
AcDbLine
 10
651.080021
 20
2394.517093
 30
0.0
 11
652.829996
 21
2395.527442
 31
0.0
  0
LINE
  5
4E3
102
{ACAD_REACTORS
330
6DF
102
}
330
1F
100
AcDbEntity
  8
LC-002-002-----0
 62
     7
370
    25
100
AcDbLine
 10
643.828768
 20
2386.984074
 30
0.0
 11
643.828768
 21
2387.687319
 31
0.0
  0
LINE
  5
4E4
102
{ACAD_REACTORS
330
6DF
102
}
330
1F
100
AcDbEntity
  8
LC-002-002-----0
 62
     7
370
    25
100
AcDbLine
 10
645.830631
 20
2390.187319
 30
0.0
 11
645.830631
 21
2387.687319
 31
0.0
  0
LINE
  5
4E5
102
{ACAD_REACTORS
330
6DF
102
}
330
1F
100
AcDbEntity
  8
LC-002-002-----0
 62
     7
370
    25
100
AcDbLine
 10
655.830631
 20
2400.723961
 30
0.0
 11
655.830631
 21
2416.187319
 31
0.0
  0
LINE
  5
4E6
102
{ACAD_REACTORS
330
6DF
102
}
330
1F
100
AcDbEntity
  8
LC-002-002-----0
 62
     7
370
    25
100
AcDbLine
 10
636.61957
 20
2377.228938
 30
0.0
 11
637.098016
 21
2379.847802
 31
0.0
  0
LINE
  5
4E7
102
{ACAD_REACTORS
330
6DF
102
}
330
1F
100
AcDbEntity
  8
LC-002-002-----0
 62
     7
370
    25
100
AcDbLine
 10
663.330631
 20
2425.869777
 30
0.0
 11
663.330631
 21
2426.33
 31
0.0
  0
ARC
  5
4E8
102
{ACAD_REACTORS
330
6DF
102
}
330
1F
100
AcDbEntity
  8
LC-002-002-----0
 62
     7
370
    25
100
AcDbCircle
 10
659.830631
 20
2416.187319
 30
0.0
 40
3.999999999999314
100
AcDbArc
 50
104.492147
 51
180.0
  0
ARC
  5
4E9
102
{ACAD_REACTORS
330
6DF
102
}
330
1F
100
AcDbEntity
  8
LC-002-002-----0
 62
     7
370
    25
100
AcDbCircle
 10
657.330631
 20
2425.869777
 30
0.0
 40
6.000000000000098
100
AcDbArc
 50
284.469452
 51
0.0
  0
ARC
  5
4EA
102
{ACAD_REACTORS
330
6DF
102
}
330
1F
100
AcDbEntity
  8
LC-002-002-----0
 62
     7
370
    25
100
AcDbCircle
 10
649.830631
 20
2400.723961
 30
0.0
 40
5.999999999999977
100
AcDbArc
 50
299.988476
 51
0.0
  0
ARC
  5
4EB
102
{ACAD_REACTORS
330
6DF
102
}
330
1F
100
AcDbEntity
  8
LC-002-002-----0
 62
     7
370
    25
100
AcDbCircle
 10
653.580631
 20
2390.187319
 30
0.0
 40
5.000000000000187
100
AcDbArc
 50
120.016153
 51
172.072225
  0
ARC
  5
4EC
102
{ACAD_REACTORS
330
6DF
102
}
330
1F
100
AcDbEntity
  8
LC-002-002-----0
 62
     7
370
    25
100
AcDbCircle
 10
647.836068
 20
2390.987319
 30
0.0
 40
0.7999999999997272
100
AcDbArc
 50
270.0
 51
352.062606
  0
ARC
  5
4ED
102
{ACAD_REACTORS
330
6DF
102
}
330
1F
100
AcDbEntity
  8
LC-002-002-----0
 62
     7
370
    25
100
AcDbCircle
 10
630.225406
 20
2378.397129
 30
0.0
 40
6.500000000000005
100
AcDbArc
 50
289.07704
 51
349.645823
  0
ARC
  5
4EE
102
{ACAD_REACTORS
330
6DF
102
}
330
1F
100
AcDbEntity
  8
LC-002-002-----0
 62
     7
370
    25
100
AcDbCircle
 10
633.330631
 20
2369.418956
 30
0.0
 40
3.00000000000037
100
AcDbArc
 50
109.055448
 51
180.0
  0
ARC
  5
4EF
102
{ACAD_REACTORS
330
6DF
102
}
330
1F
100
AcDbEntity
  8
LC-002-002-----0
 62
     7
370
    25
100
AcDbCircle
 10
641.828768
 20
2386.984074
 30
0.0
 40
1.999999999999766
100
AcDbArc
 50
334.152631
 51
360.0
  0
ARC
  5
4F0
102
{ACAD_REACTORS
330
6DF
102
}
330
1F
100
AcDbEntity
  8
LC-002-002-----0
 62
     7
370
    25
100
AcDbCircle
 10
638.228835
 20
2388.727772
 30
0.0
 40
5.999999999999846
100
AcDbArc
 50
286.283517
 51
334.155028
  0
ARC
  5
4F1
102
{ACAD_REACTORS
330
6DF
102
}
330
1F
100
AcDbEntity
  8
LC-002-002-----0
 62
     7
370
    25
100
AcDbCircle
 10
641.032893
 20
2379.128956
 30
0.0
 40
4.000000000000243
100
AcDbArc
 50
106.281751
 51
169.647048
  0
LINE
  5
4F2
102
{ACAD_REACTORS
330
6DF
102
}
330
1F
100
AcDbEntity
  8
LC-002-002-----0
 62
     7
370
    25
100
AcDbLine
 10
553.330631
 20
2426.33
 30
0.0
 11
553.330631
 21
2430.33
 31
0.0
  0
LINE
  5
4F3
102
{ACAD_REACTORS
330
6DF
102
}
330
1F
100
AcDbEntity
  8
LC-002-002-----0
 62
     7
370
    25
100
AcDbLine
 10
565.581241
 20
2394.517093
 30
0.0
 11
563.831266
 21
2395.527442
 31
0.0
  0
LINE
  5
4F4
102
{ACAD_REACTORS
330
6DF
102
}
330
1F
100
AcDbEntity
  8
LC-002-002-----0
 62
     7
370
    25
100
AcDbLine
 10
572.832493
 20
2386.984074
 30
0.0
 11
572.832493
 21
2387.687319
 31
0.0
  0
LINE
  5
4F5
102
{ACAD_REACTORS
330
6DF
102
}
330
1F
100
AcDbEntity
  8
LC-002-002-----0
 62
     7
370
    25
100
AcDbLine
 10
570.830631
 20
2390.187319
 30
0.0
 11
570.830631
 21
2387.687319
 31
0.0
  0
LINE
  5
4F6
102
{ACAD_REACTORS
330
6DF
102
}
330
1F
100
AcDbEntity
  8
LC-002-002-----0
 62
     7
370
    25
100
AcDbLine
 10
560.830631
 20
2400.723961
 30
0.0
 11
560.830631
 21
2416.187319
 31
0.0
  0
LINE
  5
4F7
102
{ACAD_REACTORS
330
6DF
102
}
330
1F
100
AcDbEntity
  8
LC-002-002-----0
 62
     7
370
    25
100
AcDbLine
 10
580.041692
 20
2377.228938
 30
0.0
 11
579.563245
 21
2379.847802
 31
0.0
  0
LINE
  5
4F8
102
{ACAD_REACTORS
330
6DF
102
}
330
1F
100
AcDbEntity
  8
LC-002-002-----0
 62
     7
370
    25
100
AcDbLine
 10
553.330631
 20
2425.869777
 30
0.0
 11
553.330631
 21
2426.33
 31
0.0
  0
ARC
  5
4F9
102
{ACAD_REACTORS
330
6DF
102
}
330
1F
100
AcDbEntity
  8
LC-002-002-----0
 62
     7
370
    25
100
AcDbCircle
 10
556.830631
 20
2416.187319
 30
0.0
 40
4.000000000000227
100
AcDbArc
 50
0.0
 51
75.507853
  0
ARC
  5
4FA
102
{ACAD_REACTORS
330
6DF
102
}
330
1F
100
AcDbEntity
  8
LC-002-002-----0
 62
     7
370
    25
100
AcDbCircle
 10
559.330631
 20
2425.869777
 30
0.0
 40
6.0
100
AcDbArc
 50
180.0
 51
255.530548
  0
ARC
  5
4FB
102
{ACAD_REACTORS
330
6DF
102
}
330
1F
100
AcDbEntity
  8
LC-002-002-----0
 62
     7
370
    25
100
AcDbCircle
 10
566.830631
 20
2400.723961
 30
0.0
 40
6.0
100
AcDbArc
 50
180.0
 51
240.011524
  0
ARC
  5
4FC
102
{ACAD_REACTORS
330
6DF
102
}
330
1F
100
AcDbEntity
  8
LC-002-002-----0
 62
     7
370
    25
100
AcDbCircle
 10
563.080631
 20
2390.187319
 30
0.0
 40
5.000000000000356
100
AcDbArc
 50
7.927775
 51
59.983847
  0
ARC
  5
4FD
102
{ACAD_REACTORS
330
6DF
102
}
330
1F
100
AcDbEntity
  8
LC-002-002-----0
 62
     7
370
    25
100
AcDbCircle
 10
568.825193
 20
2390.987319
 30
0.0
 40
0.8000000000001692
100
AcDbArc
 50
187.937394
 51
270.0
  0
ARC
  5
4FE
102
{ACAD_REACTORS
330
6DF
102
}
330
1F
100
AcDbEntity
  8
LC-002-002-----0
 62
     7
370
    25
100
AcDbCircle
 10
586.435855
 20
2378.397129
 30
0.0
 40
6.499999999999973
100
AcDbArc
 50
190.354177
 51
250.92296
  0
ARC
  5
4FF
102
{ACAD_REACTORS
330
6DF
102
}
330
1F
100
AcDbEntity
  8
LC-002-002-----0
 62
     7
370
    25
100
AcDbCircle
 10
583.330631
 20
2369.418956
 30
0.0
 40
2.999999995699682
100
AcDbArc
 50
0.0
 51
70.944552
  0
ARC
  5
500
102
{ACAD_REACTORS
330
6DF
102
}
330
1F
100
AcDbEntity
  8
LC-002-002-----0
 62
     7
370
    25
100
AcDbCircle
 10
574.832493
 20
2386.984074
 30
0.0
 40
1.999999999999773
100
AcDbArc
 50
180.0
 51
205.847369
  0
ARC
  5
501
102
{ACAD_REACTORS
330
6DF
102
}
330
1F
100
AcDbEntity
  8
LC-002-002-----0
 62
     7
370
    25
100
AcDbCircle
 10
578.432427
 20
2388.727772
 30
0.0
 40
6.000000000000001
100
AcDbArc
 50
205.844972
 51
253.716483
  0
ARC
  5
502
102
{ACAD_REACTORS
330
6DF
102
}
330
1F
100
AcDbEntity
  8
LC-002-002-----0
 62
     7
370
    25
100
AcDbCircle
 10
575.628368
 20
2379.128956
 30
0.0
 40
4.000000000000244
100
AcDbArc
 50
10.352952
 51
73.718249
  0
ARC
  5
503
102
{ACAD_REACTORS
330
6DF
102
}
330
1F
100
AcDbEntity
  8
LC-002-002-----0
 62
     7
370
    25
100
AcDbCircle
 10
608.330631
 20
2355.727772
 30
0.0
 40
27.70479324130034
100
AcDbArc
 50
145.394244
 51
34.605756
  0
LINE
  5
504
102
{ACAD_REACTORS
330
6D4
102
}
330
1F
100
AcDbEntity
  8
LC-002-002-----0
 62
     7
370
    25
100
AcDbLine
 10
814.830631
 20
2390.187319
 30
0.0
 11
812.825667
 21
2390.187319
 31
0.0
  0
LINE
  5
505
102
{ACAD_REACTORS
330
6D4
102
}
330
1F
100
AcDbEntity
  8
LC-002-002-----0
 62
     7
370
    25
100
AcDbLine
 10
816.832493
 20
2387.687319
 30
0.0
 11
814.830631
 21
2387.687319
 31
0.0
  0
LINE
  5
506
102
{ACAD_REACTORS
330
6DF
102
}
330
1F
100
AcDbEntity
  8
LC-002-002-----0
 62
     7
370
    25
100
AcDbLine
 10
570.830631
 20
2390.187319
 30
0.0
 11
568.825193
 21
2390.187319
 31
0.0
  0
LINE
  5
507
102
{ACAD_REACTORS
330
6DF
102
}
330
1F
100
AcDbEntity
  8
LC-002-002-----0
 62
     7
370
    25
100
AcDbLine
 10
572.832493
 20
2387.687319
 30
0.0
 11
570.830631
 21
2387.687319
 31
0.0
  0
LINE
  5
508
102
{ACAD_REACTORS
330
6DB
102
}
330
1F
100
AcDbEntity
  8
LC-002-002-----0
 62
     7
370
    25
100
AcDbLine
 10
798.926909
 20
2329.927772
 30
0.0
 11
798.926909
 21
2328.772996
 31
0.0
  0
ARC
  5
509
102
{ACAD_REACTORS
330
6E2
102
}
330
1F
100
AcDbEntity
  8
LC-005-002-RND-0
 62
     7
370
    25
100
AcDbCircle
 10
1720.616112
 20
1764.579999
 30
0.0
 40
0.5
100
AcDbArc
 50
0.0
 51
90.0
  0
ARC
  5
50A
102
{ACAD_REACTORS
330
6E2
102
}
330
1F
100
AcDbEntity
  8
LC-005-002-RND-0
 62
     7
370
    25
100
AcDbCircle
 10
1720.616112
 20
1738.979999
 30
0.0
 40
0.5
100
AcDbArc
 50
270.0
 51
0.0
  0
LINE
  5
50B
102
{ACAD_REACTORS
330
6E2
102
}
330
1F
100
AcDbEntity
  8
LC-002-002-----0
 62
     7
370
    25
100
AcDbLine
 10
1691.116112
 20
1765.079999
 30
0.0
 11
1720.616112
 21
1765.079999
 31
0.0
  0
LINE
  5
50C
102
{ACAD_REACTORS
330
6E1
102
}
330
1F
100
AcDbEntity
  8
LC-002-002-----0
 62
     7
370
    25
100
AcDbLine
 10
1721.116112
 20
1763.48
 30
0.0
 11
1742.096809
 21
1763.48
 31
0.0
  0
LINE
  5
50D
102
{ACAD_REACTORS
330
6E2
102
}
330
1F
100
AcDbEntity
  8
LC-002-002-----0
 62
     7
370
    25
100
AcDbLine
 10
1668.522425
 20
1762.979999
 30
0.0
 11
1683.116112
 21
1762.979999
 31
0.0
  0
LINE
  5
50E
102
{ACAD_REACTORS
330
6E2
102
}
330
1F
100
AcDbEntity
  8
LC-002-002-----0
 62
     7
370
    25
100
AcDbLine
 10
1683.116108
 20
1740.579999
 30
0.0
 11
1691.116112
 21
1738.479999
 31
0.0
  0
LINE
  5
50F
102
{ACAD_REACTORS
330
6E1
102
}
330
1F
100
AcDbEntity
  8
LC-002-002-----0
 62
     7
370
    25
100
AcDbLine
 10
1742.096809
 20
1740.08
 30
0.0
 11
1721.116112
 21
1740.08
 31
0.0
  0
LINE
  5
510
102
{ACAD_REACTORS
330
6E2
102
}
330
1F
100
AcDbEntity
  8
LC-002-002-----0
 62
     7
370
    25
100
AcDbLine
 10
1668.522425
 20
1740.579999
 30
0.0
 11
1683.116112
 21
1740.579999
 31
0.0
  0
LINE
  5
511
102
{ACAD_REACTORS
330
6E2
102
}
330
1F
100
AcDbEntity
  8
LC-002-002-----0
 62
     7
370
    25
100
AcDbLine
 10
1691.116112
 20
1765.079999
 30
0.0
 11
1683.116112
 21
1762.979999
 31
0.0
  0
LINE
  5
512
102
{ACAD_REACTORS
330
6E2
102
}
330
1F
100
AcDbEntity
  8
LC-002-002-----0
 62
     7
370
    25
100
AcDbLine
 10
1720.616112
 20
1738.479999
 30
0.0
 11
1691.116112
 21
1738.479999
 31
0.0
  0
LINE
  5
513
102
{ACAD_REACTORS
330
6E2
102
}
330
1F
100
AcDbEntity
  8
LC-002-002-----0
 62
     7
370
    25
100
AcDbLine
 10
1721.116112
 20
1738.979999
 30
0.0
 11
1721.116112
 21
1764.579999
 31
0.0
  0
ARC
  5
514
102
{ACAD_REACTORS
330
6E1
102
}
330
1F
100
AcDbEntity
  8
LC-002-002-----0
 62
     7
370
    25
100
AcDbCircle
 10
1753.772425
 20
1751.78
 30
0.0
 40
19.25000000000013
100
AcDbArc
 50
217.430036
 51
142.569964
  0
ARC
  5
515
102
{ACAD_REACTORS
330
6E1
102
}
330
1F
100
AcDbEntity
  8
LC-002-002-----0
 62
     7
370
    25
100
AcDbCircle
 10
1753.772425
 20
1751.78
 30
0.0
 40
16.50000000000001
100
AcDbArc
 50
217.041927
 51
142.96134
  0
LINE
  5
516
102
{ACAD_REACTORS
330
6E1
102
}
330
1F
100
AcDbEntity
  8
LC-002-002-----0
 62
     7
370
    25
100
AcDbLine
 10
1740.511286
 20
1741.872358
 30
0.0
 11
1740.511286
 21
1741.872358
 31
0.0
  0
LINE
  5
517
102
{ACAD_REACTORS
330
6E1
102
}
330
1F
100
AcDbEntity
  8
LC-002-002-----0
 62
     7
370
    25
100
AcDbLine
 10
1740.602209
 20
1741.840412
 30
0.0
 11
1737.785536
 21
1742.830061
 31
0.0
  0
LINE
  5
518
102
{ACAD_REACTORS
330
6E1
102
}
330
1F
100
AcDbEntity
  8
LC-002-002-----0
 62
     7
370
    25
100
AcDbLine
 10
1737.785536
 20
1742.830061
 30
0.0
 11
1737.785536
 21
1742.830061
 31
0.0
  0
LINE
  5
519
102
{ACAD_REACTORS
330
6E1
102
}
330
1F
100
AcDbEntity
  8
LC-002-002-----0
 62
     7
370
    25
100
AcDbLine
 10
1737.785536
 20
1742.830061
 30
0.0
 11
1735.878943
 21
1743.766628
 31
0.0
  0
LINE
  5
51A
102
{ACAD_REACTORS
330
6E1
102
}
330
1F
100
AcDbEntity
  8
LC-002-002-----0
 62
     7
370
    25
100
AcDbLine
 10
1735.878943
 20
1743.766628
 30
0.0
 11
1735.878943
 21
1743.766628
 31
0.0
  0
LINE
  5
51B
102
{ACAD_REACTORS
330
6E1
102
}
330
1F
100
AcDbEntity
  8
LC-002-002-----0
 62
     7
370
    25
100
AcDbLine
 10
1735.878943
 20
1743.766628
 30
0.0
 11
1734.822481
 21
1744.430431
 31
0.0
  0
LINE
  5
51C
102
{ACAD_REACTORS
330
6E1
102
}
330
1F
100
AcDbEntity
  8
LC-002-002-----0
 62
     7
370
    25
100
AcDbLine
 10
1734.822481
 20
1744.430431
 30
0.0
 11
1734.822481
 21
1744.430431
 31
0.0
  0
LINE
  5
51D
102
{ACAD_REACTORS
330
6E1
102
}
330
1F
100
AcDbEntity
  8
LC-002-002-----0
 62
     7
370
    25
100
AcDbLine
 10
1734.822481
 20
1744.430431
 30
0.0
 11
1733.823732
 21
1745.200451
 31
0.0
  0
LINE
  5
51E
102
{ACAD_REACTORS
330
6E1
102
}
330
1F
100
AcDbEntity
  8
LC-002-002-----0
 62
     7
370
    25
100
AcDbLine
 10
1733.823732
 20
1745.200451
 30
0.0
 11
1733.823732
 21
1745.200451
 31
0.0
  0
LINE
  5
51F
102
{ACAD_REACTORS
330
6E1
102
}
330
1F
100
AcDbEntity
  8
LC-002-002-----0
 62
     7
370
    25
100
AcDbLine
 10
1733.823732
 20
1745.200451
 30
0.0
 11
1732.688497
 21
1746.334315
 31
0.0
  0
LINE
  5
520
102
{ACAD_REACTORS
330
6E1
102
}
330
1F
100
AcDbEntity
  8
LC-002-002-----0
 62
     7
370
    25
100
AcDbLine
 10
1732.688497
 20
1746.334315
 30
0.0
 11
1732.688497
 21
1746.334315
 31
0.0
  0
LINE
  5
521
102
{ACAD_REACTORS
330
6E1
102
}
330
1F
100
AcDbEntity
  8
LC-002-002-----0
 62
     7
370
    25
100
AcDbLine
 10
1732.688497
 20
1746.334315
 30
0.0
 11
1732.108818
 21
1747.087729
 31
0.0
  0
LINE
  5
522
102
{ACAD_REACTORS
330
6E1
102
}
330
1F
100
AcDbEntity
  8
LC-002-002-----0
 62
     7
370
    25
100
AcDbLine
 10
1732.108818
 20
1747.087729
 30
0.0
 11
1732.108818
 21
1747.087729
 31
0.0
  0
LINE
  5
523
102
{ACAD_REACTORS
330
6E1
102
}
330
1F
100
AcDbEntity
  8
LC-002-002-----0
 62
     7
370
    25
100
AcDbLine
 10
1732.108818
 20
1747.087729
 30
0.0
 11
1731.602977
 21
1747.915228
 31
0.0
  0
LINE
  5
524
102
{ACAD_REACTORS
330
6E1
102
}
330
1F
100
AcDbEntity
  8
LC-002-002-----0
 62
     7
370
    25
100
AcDbLine
 10
1731.602977
 20
1747.915228
 30
0.0
 11
1731.602977
 21
1747.915228
 31
0.0
  0
LINE
  5
525
102
{ACAD_REACTORS
330
6E1
102
}
330
1F
100
AcDbEntity
  8
LC-002-002-----0
 62
     7
370
    25
100
AcDbLine
 10
1731.602977
 20
1747.915228
 30
0.0
 11
1730.859944
 21
1749.841243
 31
0.0
  0
LINE
  5
526
102
{ACAD_REACTORS
330
6E1
102
}
330
1F
100
AcDbEntity
  8
LC-002-002-----0
 62
     7
370
    25
100
AcDbLine
 10
1730.859944
 20
1749.841243
 30
0.0
 11
1730.859944
 21
1749.841243
 31
0.0
  0
LINE
  5
527
102
{ACAD_REACTORS
330
6E1
102
}
330
1F
100
AcDbEntity
  8
LC-002-002-----0
 62
     7
370
    25
100
AcDbLine
 10
1730.859944
 20
1749.841243
 30
0.0
 11
1730.683474
 21
1750.803538
 31
0.0
  0
LINE
  5
528
102
{ACAD_REACTORS
330
6E1
102
}
330
1F
100
AcDbEntity
  8
LC-002-002-----0
 62
     7
370
    25
100
AcDbLine
 10
1730.683474
 20
1750.803538
 30
0.0
 11
1730.683474
 21
1750.803538
 31
0.0
  0
LINE
  5
529
102
{ACAD_REACTORS
330
6E1
102
}
330
1F
100
AcDbEntity
  8
LC-002-002-----0
 62
     7
370
    25
100
AcDbLine
 10
1730.683474
 20
1750.803538
 30
0.0
 11
1730.624028
 21
1751.785424
 31
0.0
  0
LINE
  5
52A
102
{ACAD_REACTORS
330
6E1
102
}
330
1F
100
AcDbEntity
  8
LC-002-002-----0
 62
     7
370
    25
100
AcDbLine
 10
1730.624028
 20
1751.785424
 30
0.0
 11
1730.624028
 21
1751.785424
 31
0.0
  0
LINE
  5
52B
102
{ACAD_REACTORS
330
6E1
102
}
330
1F
100
AcDbEntity
  8
LC-002-002-----0
 62
     7
370
    25
100
AcDbLine
 10
1730.624028
 20
1751.785424
 30
0.0
 11
1730.862272
 21
1753.728165
 31
0.0
  0
LINE
  5
52C
102
{ACAD_REACTORS
330
6E1
102
}
330
1F
100
AcDbEntity
  8
LC-002-002-----0
 62
     7
370
    25
100
AcDbLine
 10
1730.862272
 20
1753.728165
 30
0.0
 11
1730.862272
 21
1753.728165
 31
0.0
  0
LINE
  5
52D
102
{ACAD_REACTORS
330
6E1
102
}
330
1F
100
AcDbEntity
  8
LC-002-002-----0
 62
     7
370
    25
100
AcDbLine
 10
1730.862272
 20
1753.728165
 30
0.0
 11
1731.574369
 21
1755.590998
 31
0.0
  0
LINE
  5
52E
102
{ACAD_REACTORS
330
6E1
102
}
330
1F
100
AcDbEntity
  8
LC-002-002-----0
 62
     7
370
    25
100
AcDbLine
 10
1731.574369
 20
1755.590998
 30
0.0
 11
1731.574369
 21
1755.590998
 31
0.0
  0
LINE
  5
52F
102
{ACAD_REACTORS
330
6E1
102
}
330
1F
100
AcDbEntity
  8
LC-002-002-----0
 62
     7
370
    25
100
AcDbLine
 10
1731.574369
 20
1755.590998
 30
0.0
 11
1732.522763
 21
1757.026085
 31
0.0
  0
LINE
  5
530
102
{ACAD_REACTORS
330
6E1
102
}
330
1F
100
AcDbEntity
  8
LC-002-002-----0
 62
     7
370
    25
100
AcDbLine
 10
1732.522763
 20
1757.026085
 30
0.0
 11
1732.522763
 21
1757.026085
 31
0.0
  0
LINE
  5
531
102
{ACAD_REACTORS
330
6E1
102
}
330
1F
100
AcDbEntity
  8
LC-002-002-----0
 62
     7
370
    25
100
AcDbLine
 10
1732.522763
 20
1757.026085
 30
0.0
 11
1733.405239
 21
1757.981244
 31
0.0
  0
LINE
  5
532
102
{ACAD_REACTORS
330
6E1
102
}
330
1F
100
AcDbEntity
  8
LC-002-002-----0
 62
     7
370
    25
100
AcDbLine
 10
1733.405239
 20
1757.981244
 30
0.0
 11
1733.405239
 21
1757.981244
 31
0.0
  0
LINE
  5
533
102
{ACAD_REACTORS
330
6E1
102
}
330
1F
100
AcDbEntity
  8
LC-002-002-----0
 62
     7
370
    25
100
AcDbLine
 10
1733.405239
 20
1757.981244
 30
0.0
 11
1734.374215
 21
1758.803916
 31
0.0
  0
LINE
  5
534
102
{ACAD_REACTORS
330
6E1
102
}
330
1F
100
AcDbEntity
  8
LC-002-002-----0
 62
     7
370
    25
100
AcDbLine
 10
1734.374215
 20
1758.803916
 30
0.0
 11
1734.374215
 21
1758.803916
 31
0.0
  0
LINE
  5
535
102
{ACAD_REACTORS
330
6E1
102
}
330
1F
100
AcDbEntity
  8
LC-002-002-----0
 62
     7
370
    25
100
AcDbLine
 10
1734.374215
 20
1758.803916
 30
0.0
 11
1735.723678
 21
1759.703505
 31
0.0
  0
LINE
  5
536
102
{ACAD_REACTORS
330
6E1
102
}
330
1F
100
AcDbEntity
  8
LC-002-002-----0
 62
     7
370
    25
100
AcDbLine
 10
1735.723678
 20
1759.703505
 30
0.0
 11
1735.723678
 21
1759.703505
 31
0.0
  0
LINE
  5
537
102
{ACAD_REACTORS
330
6E1
102
}
330
1F
100
AcDbEntity
  8
LC-002-002-----0
 62
     7
370
    25
100
AcDbLine
 10
1735.723678
 20
1759.703505
 30
0.0
 11
1736.856182
 21
1760.308905
 31
0.0
  0
LINE
  5
538
102
{ACAD_REACTORS
330
6E1
102
}
330
1F
100
AcDbEntity
  8
LC-002-002-----0
 62
     7
370
    25
100
AcDbLine
 10
1736.856182
 20
1760.308905
 30
0.0
 11
1736.856182
 21
1760.308905
 31
0.0
  0
LINE
  5
539
102
{ACAD_REACTORS
330
6E1
102
}
330
1F
100
AcDbEntity
  8
LC-002-002-----0
 62
     7
370
    25
100
AcDbLine
 10
1736.856182
 20
1760.308905
 30
0.0
 11
1738.022492
 21
1760.828398
 31
0.0
  0
LINE
  5
53A
102
{ACAD_REACTORS
330
6E1
102
}
330
1F
100
AcDbEntity
  8
LC-002-002-----0
 62
     7
370
    25
100
AcDbLine
 10
1738.022492
 20
1760.828398
 30
0.0
 11
1738.022492
 21
1760.828398
 31
0.0
  0
LINE
  5
53B
102
{ACAD_REACTORS
330
6E1
102
}
330
1F
100
AcDbEntity
  8
LC-002-002-----0
 62
     7
370
    25
100
AcDbLine
 10
1738.022492
 20
1760.828398
 30
0.0
 11
1740.601642
 21
1761.718837
 31
0.0
  0
LINE
  5
53C
102
{ACAD_REACTORS
330
6D7
102
}
330
1F
100
AcDbEntity
  8
LC-002-002-----0
 62
     7
370
    25
100
AcDbLine
 10
1471.940742
 20
1997.805419
 30
0.0
 11
1472.711287
 21
1999.285621
 31
0.0
  0
LINE
  5
53D
102
{ACAD_REACTORS
330
6D7
102
}
330
1F
100
AcDbEntity
  8
LC-002-002-----0
 62
     7
370
    25
100
AcDbLine
 10
1473.481563
 20
1997.805307
 30
0.0
 11
1474.25222
 21
1999.285727
 31
0.0
  0
LINE
  5
53E
102
{ACAD_REACTORS
330
6D7
102
}
330
1F
100
AcDbEntity
  8
LC-002-002-----0
 62
     7
370
    25
100
AcDbLine
 10
1475.022499
 20
1997.805419
 30
0.0
 11
1475.792932
 21
1999.285406
 31
0.0
  0
LINE
  5
53F
102
{ACAD_REACTORS
330
6D7
102
}
330
1F
100
AcDbEntity
  8
LC-002-002-----0
 62
     7
370
    25
100
AcDbLine
 10
1476.563378
 20
1997.805419
 30
0.0
 11
1477.33381
 21
1999.285406
 31
0.0
  0
LINE
  5
540
102
{ACAD_REACTORS
330
6D7
102
}
330
1F
100
AcDbEntity
  8
LC-002-002-----0
 62
     7
370
    25
100
AcDbLine
 10
1478.104256
 20
1997.805419
 30
0.0
 11
1478.874689
 21
1999.285406
 31
0.0
  0
LINE
  5
541
102
{ACAD_REACTORS
330
6D7
102
}
330
1F
100
AcDbEntity
  8
LC-002-002-----0
 62
     7
370
    25
100
AcDbLine
 10
1479.645135
 20
1997.805419
 30
0.0
 11
1480.415567
 21
1999.285406
 31
0.0
  0
LINE
  5
542
102
{ACAD_REACTORS
330
6D7
102
}
330
1F
100
AcDbEntity
  8
LC-002-002-----0
 62
     7
370
    25
100
AcDbLine
 10
1481.186013
 20
1997.805419
 30
0.0
 11
1481.956446
 21
1999.285406
 31
0.0
  0
LINE
  5
543
102
{ACAD_REACTORS
330
6D7
102
}
330
1F
100
AcDbEntity
  8
LC-002-002-----0
 62
     7
370
    25
100
AcDbLine
 10
1483.956472
 20
1998.571489
 30
0.0
 11
1487.07022
 21
2001.685238
 31
0.0
  0
LINE
  5
544
102
{ACAD_REACTORS
330
6D7
102
}
330
1F
100
AcDbEntity
  8
LC-002-002-----0
 62
     7
370
    25
100
AcDbLine
 10
1470.170196
 20
1999.285213
 30
0.0
 11
1470.170196
 21
2044.085213
 31
0.0
  0
LINE
  5
545
102
{ACAD_REACTORS
330
6D7
102
}
330
1F
100
AcDbEntity
  8
LC-002-002-----0
 62
     7
370
    25
100
AcDbLine
 10
1488.170317
 20
1993.78012
 30
0.0
 11
1490.17022
 21
1995.780024
 31
0.0
  0
LINE
  5
546
102
{ACAD_REACTORS
330
6D7
102
}
330
1F
100
AcDbEntity
  8
LC-002-002-----0
 62
     7
370
    25
100
AcDbLine
 10
1487.070196
 20
2041.685213
 30
0.0
 11
1490.170196
 21
2041.685213
 31
0.0
  0
LINE
  5
547
102
{ACAD_REACTORS
330
6D7
102
}
330
1F
100
AcDbEntity
  8
LC-002-002-----0
 62
     7
370
    25
100
AcDbLine
 10
1482.465403
 20
1969.28
 30
0.0
 11
1482.465403
 21
1971.78
 31
0.0
  0
LINE
  5
548
102
{ACAD_REACTORS
330
6D7
102
}
330
1F
100
AcDbEntity
  8
LC-002-002-----0
 62
     7
370
    25
100
AcDbLine
 10
1483.215403
 20
1968.28
 30
0.0
 11
1483.215403
 21
1968.53
 31
0.0
  0
LINE
  5
549
102
{ACAD_REACTORS
330
6D7
102
}
330
1F
100
AcDbEntity
  8
LC-002-002-----0
 62
     7
370
    25
100
AcDbLine
 10
1483.956472
 20
1998.571489
 30
0.0
 11
1483.956472
 21
2044.798938
 31
0.0
  0
LINE
  5
54A
102
{ACAD_REACTORS
330
6D7
102
}
330
1F
100
AcDbEntity
  8
LC-002-002-----0
 62
     7
370
    25
100
AcDbLine
 10
1484.370196
 20
1968.28
 30
0.0
 11
1484.370196
 21
1954.78
 31
0.0
  0
LINE
  5
54B
102
{ACAD_REACTORS
330
6D7
102
}
330
1F
100
AcDbEntity
  8
LC-002-002-----0
 62
     7
370
    25
100
AcDbLine
 10
1487.770196
 20
1973.78
 30
0.0
 11
1487.770196
 21
1973.566149
 31
0.0
  0
LINE
  5
54C
102
{ACAD_REACTORS
330
6D7
102
}
330
1F
100
AcDbEntity
  8
LC-002-002-----0
 62
     7
370
    25
100
AcDbLine
 10
1488.170196
 20
1973.78
 30
0.0
 11
1488.170196
 21
1993.78
 31
0.0
  0
LINE
  5
54D
102
{ACAD_REACTORS
330
6D7
102
}
330
1F
100
AcDbEntity
  8
LC-002-002-----0
 62
     7
370
    25
100
AcDbLine
 10
1490.170196
 20
1895.951739
 30
0.0
 11
1490.170196
 21
1952.78
 31
0.0
  0
LINE
  5
54E
102
{ACAD_REACTORS
330
6D7
102
}
330
1F
100
AcDbEntity
  8
LC-002-002-----0
 62
     7
370
    25
100
AcDbLine
 10
1490.170196
 20
2001.180598
 30
0.0
 11
1490.170196
 21
1995.78
 31
0.0
  0
LINE
  5
54F
102
{ACAD_REACTORS
330
6D7
102
}
330
1F
100
AcDbEntity
  8
LC-002-002-----0
 62
     7
370
    25
100
AcDbLine
 10
1487.770284
 20
1973.566195
 30
0.0
 11
1486.290402
 21
1972.795817
 31
0.0
  0
LINE
  5
550
102
{ACAD_REACTORS
330
6D7
102
}
330
1F
100
AcDbEntity
  8
LC-002-002-----0
 62
     7
370
    25
100
AcDbLine
 10
1487.770284
 20
1972.025317
 30
0.0
 11
1487.299035
 21
1971.78
 31
0.0
  0
LINE
  5
551
102
{ACAD_REACTORS
330
6D7
102
}
330
1F
100
AcDbEntity
  8
LC-002-002-----0
 62
     7
370
    25
100
AcDbLine
 10
1530.170196
 20
1895.951739
 30
0.0
 11
1530.170196
 21
1952.78
 31
0.0
  0
LINE
  5
552
102
{ACAD_REACTORS
330
6D7
102
}
330
1F
100
AcDbEntity
  8
LC-002-002-----0
 62
     7
370
    25
100
AcDbLine
 10
1530.170196
 20
2001.685213
 30
0.0
 11
1530.170196
 21
1995.78
 31
0.0
  0
LINE
  5
553
102
{ACAD_REACTORS
330
6D7
102
}
330
1F
100
AcDbEntity
  8
LC-002-002-----0
 62
     7
370
    25
100
AcDbLine
 10
1532.170196
 20
1973.78
 30
0.0
 11
1532.170196
 21
1993.78
 31
0.0
  0
LINE
  5
554
102
{ACAD_REACTORS
330
6D7
102
}
330
1F
100
AcDbEntity
  8
LC-002-002-----0
 62
     7
370
    25
100
AcDbLine
 10
1532.570196
 20
1973.78
 30
0.0
 11
1532.570196
 21
1973.566149
 31
0.0
  0
LINE
  5
555
102
{ACAD_REACTORS
330
6D7
102
}
330
1F
100
AcDbEntity
  8
LC-002-002-----0
 62
     7
370
    25
100
AcDbLine
 10
1537.124988
 20
1968.529999
 30
0.0
 11
1537.874988
 21
1969.279999
 31
0.0
  0
LINE
  5
556
102
{ACAD_REACTORS
330
6D7
102
}
330
1F
100
AcDbEntity
  8
LC-002-002-----0
 62
     7
370
    25
100
AcDbLine
 10
1534.050103
 20
1972.795661
 30
0.0
 11
1532.570003
 21
1972.02517
 31
0.0
  0
LINE
  5
557
102
{ACAD_REACTORS
330
6D7
102
}
330
1F
100
AcDbEntity
  8
LC-002-002-----0
 62
     7
370
    25
100
AcDbLine
 10
1487.070196
 20
2001.685213
 30
0.0
 11
1489.665581
 21
2001.685213
 31
0.0
  0
LINE
  5
558
102
{ACAD_REACTORS
330
6D7
102
}
330
1F
100
AcDbEntity
  8
LC-002-002-----0
 62
     7
370
    25
100
AcDbLine
 10
1470.170196
 20
1999.285213
 30
0.0
 11
1471.170196
 21
1999.285213
 31
0.0
  0
LINE
  5
559
102
{ACAD_REACTORS
330
6D7
102
}
330
1F
100
AcDbEntity
  8
LC-002-002-----0
 62
     7
370
    25
100
AcDbLine
 10
1481.956345
 20
1999.285213
 30
0.0
 11
1483.956345
 21
1999.285213
 31
0.0
  0
LINE
  5
55A
102
{ACAD_REACTORS
330
6D7
102
}
330
1F
100
AcDbEntity
  8
LC-002-002-----0
 62
     7
370
    25
100
AcDbLine
 10
1535.970196
 20
1968.28
 30
0.0
 11
1535.970196
 21
1954.78
 31
0.0
  0
LINE
  5
55B
102
{ACAD_REACTORS
330
6D7
102
}
330
1F
100
AcDbEntity
  8
LC-002-002-----0
 62
     7
370
    25
100
AcDbLine
 10
1537.124989
 20
1968.28
 30
0.0
 11
1537.124989
 21
1968.53
 31
0.0
  0
LINE
  5
55C
102
{ACAD_REACTORS
330
6D7
102
}
330
1F
100
AcDbEntity
  8
LC-002-002-----0
 62
     7
370
    25
100
AcDbLine
 10
1537.874989
 20
1969.28
 30
0.0
 11
1537.874989
 21
1971.78
 31
0.0
  0
LINE
  5
55D
102
{ACAD_REACTORS
330
6D7
102
}
330
1F
100
AcDbEntity
  8
LC-002-002-----0
 62
     7
370
    25
100
AcDbLine
 10
1487.770196
 20
1973.78
 30
0.0
 11
1488.170196
 21
1973.78
 31
0.0
  0
LINE
  5
55E
102
{ACAD_REACTORS
330
6D7
102
}
330
1F
100
AcDbEntity
  8
LC-002-002-----0
 62
     7
370
    25
100
AcDbLine
 10
1482.465403
 20
1971.78
 30
0.0
 11
1537.874989
 21
1971.78
 31
0.0
  0
LINE
  5
55F
102
{ACAD_REACTORS
330
6D7
102
}
330
1F
100
AcDbEntity
  8
LC-002-002-----0
 62
     7
370
    25
100
AcDbLine
 10
1537.124989
 20
1968.28
 30
0.0
 11
1535.970196
 21
1968.28
 31
0.0
  0
LINE
  5
560
102
{ACAD_REACTORS
330
6D7
102
}
330
1F
100
AcDbEntity
  8
LC-002-002-----0
 62
     7
370
    25
100
AcDbLine
 10
1533.970316
 20
1952.78
 30
0.0
 11
1486.370196
 21
1952.78
 31
0.0
  0
LINE
  5
561
102
{ACAD_REACTORS
330
6D7
102
}
330
1F
100
AcDbEntity
  8
LC-002-002-----0
 62
     7
370
    25
100
AcDbLine
 10
1532.570108
 20
1973.566195
 30
0.0
 11
1534.04999
 21
1972.795817
 31
0.0
  0
LINE
  5
562
102
{ACAD_REACTORS
330
6D7
102
}
330
1F
100
AcDbEntity
  8
LC-002-002-----0
 62
     7
370
    25
100
AcDbLine
 10
1532.570108
 20
1972.025317
 30
0.0
 11
1533.041357
 21
1971.78
 31
0.0
  0
LINE
  5
563
102
{ACAD_REACTORS
330
6D7
102
}
330
1F
100
AcDbEntity
  8
LC-002-002-----0
 62
     7
370
    25
100
AcDbLine
 10
1486.29029
 20
1972.795661
 30
0.0
 11
1487.770389
 21
1972.02517
 31
0.0
  0
LINE
  5
564
102
{ACAD_REACTORS
330
6D7
102
}
330
1F
100
AcDbEntity
  8
LC-002-002-----0
 62
     7
370
    25
100
AcDbLine
 10
1483.956472
 20
2044.798938
 30
0.0
 11
1487.07022
 21
2041.685189
 31
0.0
  0
LINE
  5
565
102
{ACAD_REACTORS
330
6D7
102
}
330
1F
100
AcDbEntity
  8
LC-002-002-----0
 62
     7
370
    25
100
AcDbLine
 10
1532.170076
 20
1993.78012
 30
0.0
 11
1530.170138
 21
1995.780058
 31
0.0
  0
LINE
  5
566
102
{ACAD_REACTORS
330
6D7
102
}
330
1F
100
AcDbEntity
  8
LC-002-002-----0
 62
     7
370
    25
100
AcDbLine
 10
1483.215404
 20
1968.529999
 30
0.0
 11
1482.465404
 21
1969.279999
 31
0.0
  0
LINE
  5
567
102
{ACAD_REACTORS
330
6D7
102
}
330
1F
100
AcDbEntity
  8
LC-002-002-----0
 62
     7
370
    25
100
AcDbLine
 10
1480.415421
 20
1999.285301
 30
0.0
 11
1481.185857
 21
1997.805307
 31
0.0
  0
LINE
  5
568
102
{ACAD_REACTORS
330
6D7
102
}
330
1F
100
AcDbEntity
  8
LC-002-002-----0
 62
     7
370
    25
100
AcDbLine
 10
1478.874543
 20
1999.285301
 30
0.0
 11
1479.644979
 21
1997.805307
 31
0.0
  0
LINE
  5
569
102
{ACAD_REACTORS
330
6D7
102
}
330
1F
100
AcDbEntity
  8
LC-002-002-----0
 62
     7
370
    25
100
AcDbLine
 10
1477.333664
 20
1999.285301
 30
0.0
 11
1478.104101
 21
1997.805307
 31
0.0
  0
LINE
  5
56A
102
{ACAD_REACTORS
330
6D7
102
}
330
1F
100
AcDbEntity
  8
LC-002-002-----0
 62
     7
370
    25
100
AcDbLine
 10
1475.792786
 20
1999.285301
 30
0.0
 11
1476.563222
 21
1997.805307
 31
0.0
  0
LINE
  5
56B
102
{ACAD_REACTORS
330
6D7
102
}
330
1F
100
AcDbEntity
  8
LC-002-002-----0
 62
     7
370
    25
100
AcDbLine
 10
1474.251741
 20
1999.285621
 30
0.0
 11
1475.022344
 21
1997.805307
 31
0.0
  0
LINE
  5
56C
102
{ACAD_REACTORS
330
6D7
102
}
330
1F
100
AcDbEntity
  8
LC-002-002-----0
 62
     7
370
    25
100
AcDbLine
 10
1472.710807
 20
1999.285727
 30
0.0
 11
1473.481407
 21
1997.805419
 31
0.0
  0
LINE
  5
56D
102
{ACAD_REACTORS
330
6D7
102
}
330
1F
100
AcDbEntity
  8
LC-002-002-----0
 62
     7
370
    25
100
AcDbLine
 10
1471.169984
 20
1999.285621
 30
0.0
 11
1471.940587
 21
1997.805307
 31
0.0
  0
ARC
  5
56E
102
{ACAD_REACTORS
330
6D7
102
}
330
1F
100
AcDbEntity
  8
LC-002-002-----0
 62
     7
370
    25
100
AcDbCircle
 10
1490.170196
 20
2001.685213
 30
0.0
 40
39.99972357249999
100
AcDbArc
 50
0.0
 51
90.0
  0
ARC
  5
56F
102
{ACAD_REACTORS
330
6D7
102
}
330
1F
100
AcDbEntity
  8
LC-002-002-----0
 62
     7
370
    25
100
AcDbCircle
 10
1486.370196
 20
1954.78
 30
0.0
 40
2.0
100
AcDbArc
 50
180.0
 51
270.0
  0
ARC
  5
570
102
{ACAD_REACTORS
330
6D7
102
}
330
1F
100
AcDbEntity
  8
LC-002-002-----0
 62
     7
370
    25
100
AcDbCircle
 10
1533.970196
 20
1954.78
 30
0.0
 40
2.0
100
AcDbArc
 50
270.0
 51
360.0
  0
LINE
  5
571
102
{ACAD_REACTORS
330
6D7
102
}
330
1F
100
AcDbEntity
  8
LC-002-002-----0
 62
     7
370
    25
100
AcDbLine
 10
1489.665581
 20
2001.685213
 30
0.0
 11
1490.02375
 21
2001.538767
 31
0.0
  0
LINE
  5
572
102
{ACAD_REACTORS
330
6D7
102
}
330
1F
100
AcDbEntity
  8
LC-002-002-----0
 62
     7
370
    25
100
AcDbLine
 10
1490.02375
 20
2001.538767
 30
0.0
 11
1490.170196
 21
2001.180598
 31
0.0
  0
LINE
  5
573
102
{ACAD_REACTORS
330
6D7
102
}
330
1F
100
AcDbEntity
  8
LC-002-002-----0
 62
     7
370
    25
100
AcDbLine
 10
1471.940742
 20
2045.565008
 30
0.0
 11
1472.711287
 21
2044.084805
 31
0.0
  0
LINE
  5
574
102
{ACAD_REACTORS
330
6D7
102
}
330
1F
100
AcDbEntity
  8
LC-002-002-----0
 62
     7
370
    25
100
AcDbLine
 10
1473.481563
 20
2045.56512
 30
0.0
 11
1474.25222
 21
2044.0847
 31
0.0
  0
LINE
  5
575
102
{ACAD_REACTORS
330
6D7
102
}
330
1F
100
AcDbEntity
  8
LC-002-002-----0
 62
     7
370
    25
100
AcDbLine
 10
1475.022499
 20
2045.565008
 30
0.0
 11
1475.792932
 21
2044.08502
 31
0.0
  0
LINE
  5
576
102
{ACAD_REACTORS
330
6D7
102
}
330
1F
100
AcDbEntity
  8
LC-002-002-----0
 62
     7
370
    25
100
AcDbLine
 10
1476.563378
 20
2045.565008
 30
0.0
 11
1477.33381
 21
2044.08502
 31
0.0
  0
LINE
  5
577
102
{ACAD_REACTORS
330
6D7
102
}
330
1F
100
AcDbEntity
  8
LC-002-002-----0
 62
     7
370
    25
100
AcDbLine
 10
1478.104256
 20
2045.565008
 30
0.0
 11
1478.874689
 21
2044.08502
 31
0.0
  0
LINE
  5
578
102
{ACAD_REACTORS
330
6D7
102
}
330
1F
100
AcDbEntity
  8
LC-002-002-----0
 62
     7
370
    25
100
AcDbLine
 10
1479.645135
 20
2045.565008
 30
0.0
 11
1480.415567
 21
2044.08502
 31
0.0
  0
LINE
  5
579
102
{ACAD_REACTORS
330
6D7
102
}
330
1F
100
AcDbEntity
  8
LC-002-002-----0
 62
     7
370
    25
100
AcDbLine
 10
1481.186013
 20
2045.565008
 30
0.0
 11
1481.956446
 21
2044.08502
 31
0.0
  0
LINE
  5
57A
102
{ACAD_REACTORS
330
6D7
102
}
330
1F
100
AcDbEntity
  8
LC-002-002-----0
 62
     7
370
    25
100
AcDbLine
 10
1470.170196
 20
2044.085213
 30
0.0
 11
1471.170196
 21
2044.085213
 31
0.0
  0
LINE
  5
57B
102
{ACAD_REACTORS
330
6D7
102
}
330
1F
100
AcDbEntity
  8
LC-002-002-----0
 62
     7
370
    25
100
AcDbLine
 10
1481.956345
 20
2044.085213
 30
0.0
 11
1483.956345
 21
2044.085213
 31
0.0
  0
LINE
  5
57C
102
{ACAD_REACTORS
330
6D7
102
}
330
1F
100
AcDbEntity
  8
LC-002-002-----0
 62
     7
370
    25
100
AcDbLine
 10
1480.415421
 20
2044.085126
 30
0.0
 11
1481.185857
 21
2045.56512
 31
0.0
  0
LINE
  5
57D
102
{ACAD_REACTORS
330
6D7
102
}
330
1F
100
AcDbEntity
  8
LC-002-002-----0
 62
     7
370
    25
100
AcDbLine
 10
1478.874543
 20
2044.085126
 30
0.0
 11
1479.644979
 21
2045.56512
 31
0.0
  0
LINE
  5
57E
102
{ACAD_REACTORS
330
6D7
102
}
330
1F
100
AcDbEntity
  8
LC-002-002-----0
 62
     7
370
    25
100
AcDbLine
 10
1477.333664
 20
2044.085126
 30
0.0
 11
1478.104101
 21
2045.56512
 31
0.0
  0
LINE
  5
57F
102
{ACAD_REACTORS
330
6D7
102
}
330
1F
100
AcDbEntity
  8
LC-002-002-----0
 62
     7
370
    25
100
AcDbLine
 10
1475.792786
 20
2044.085126
 30
0.0
 11
1476.563222
 21
2045.56512
 31
0.0
  0
LINE
  5
580
102
{ACAD_REACTORS
330
6D7
102
}
330
1F
100
AcDbEntity
  8
LC-002-002-----0
 62
     7
370
    25
100
AcDbLine
 10
1474.251741
 20
2044.084805
 30
0.0
 11
1475.022344
 21
2045.56512
 31
0.0
  0
LINE
  5
581
102
{ACAD_REACTORS
330
6D7
102
}
330
1F
100
AcDbEntity
  8
LC-002-002-----0
 62
     7
370
    25
100
AcDbLine
 10
1472.710807
 20
2044.0847
 30
0.0
 11
1473.481407
 21
2045.565008
 31
0.0
  0
LINE
  5
582
102
{ACAD_REACTORS
330
6D7
102
}
330
1F
100
AcDbEntity
  8
LC-002-002-----0
 62
     7
370
    25
100
AcDbLine
 10
1471.169984
 20
2044.084805
 30
0.0
 11
1471.940587
 21
2045.56512
 31
0.0
  0
LINE
  5
583
102
{ACAD_REACTORS
330
6D7
102
}
330
1F
100
AcDbEntity
  8
LC-002-002-----0
 62
     7
370
    25
100
AcDbLine
 10
1510.168744
 20
1968.28
 30
0.0
 11
1510.168744
 21
1954.78
 31
0.0
  0
INSERT
  5
593
102
{ACAD_REACTORS
330
6D7
102
}
330
1F
100
AcDbEntity
  8
LC-002-002-----0
 62
     7
370
    25
100
AcDbBlockReference
  2
POLY13
 10
0.0
 20
0.0
 30
0.0
  0
LINE
  5
594
102
{ACAD_REACTORS
330
6DD
102
}
330
1F
100
AcDbEntity
  8
LC-002-002-----0
 62
     7
370
    25
100
AcDbLine
 10
1487.770196
 20
1778.28
 30
0.0
 11
1487.770196
 21
1801.78
 31
0.0
  0
LINE
  5
595
102
{ACAD_REACTORS
330
6D8
102
}
330
1F
100
AcDbEntity
  8
LC-002-002-----0
 62
     7
370
    25
100
AcDbLine
 10
1490.170196
 20
1820.78
 30
0.0
 11
1490.170196
 21
1876.78
 31
0.0
  0
LINE
  5
596
102
{ACAD_REACTORS
330
6D8
102
}
330
1F
100
AcDbEntity
  8
LC-002-002-----0
 62
     7
370
    25
100
AcDbLine
 10
1530.170196
 20
1820.78
 30
0.0
 11
1530.170196
 21
1876.78
 31
0.0
  0
LINE
  5
597
102
{ACAD_REACTORS
330
6DD
102
}
330
1F
100
AcDbEntity
  8
LC-002-002-----0
 62
     7
370
    25
100
AcDbLine
 10
1532.570196
 20
1780.233149
 30
0.0
 11
1532.570196
 21
1801.78
 31
0.0
  0
ARC
  5
598
102
{ACAD_REACTORS
330
6D8
102
}
330
1F
100
AcDbEntity
  8
LC-002-002-----0
 62
     7
370
    25
100
AcDbCircle
 10
1510.170196
 20
1876.78
 30
0.0
 40
20.0
100
AcDbArc
 50
0.0
 51
180.0
  0
LINE
  5
599
102
{ACAD_REACTORS
330
6DD
102
}
330
1F
100
AcDbEntity
  8
LC-002-002-----0
 62
     7
370
    25
100
AcDbLine
 10
1597.522425
 20
1771.78
 30
0.0
 11
1603.522425
 21
1771.78
 31
0.0
  0
LINE
  5
59A
102
{ACAD_REACTORS
330
6E3
102
}
330
1F
100
AcDbEntity
  8
LC-002-002-----0
 62
     7
370
    25
100
AcDbLine
 10
1668.022425
 20
1764.28
 30
0.0
 11
1611.171535
 21
1764.28
 31
0.0
  0
LINE
  5
59B
102
{ACAD_REACTORS
330
6E3
102
}
330
1F
100
AcDbEntity
  8
LC-002-002-----0
 62
     7
370
    25
100
AcDbLine
 10
1668.022425
 20
1739.28
 30
0.0
 11
1611.171535
 21
1739.28
 31
0.0
  0
LINE
  5
59C
102
{ACAD_REACTORS
330
6DD
102
}
330
1F
100
AcDbEntity
  8
LC-002-002-----0
 62
     7
370
    25
100
AcDbLine
 10
1597.522425
 20
1731.78
 30
0.0
 11
1603.522425
 21
1731.78
 31
0.0
  0
LINE
  5
59D
102
{ACAD_REACTORS
330
6DD
102
}
330
1F
100
AcDbEntity
  8
LC-002-002-----0
 62
     7
370
    25
100
AcDbLine
 10
1603.522425
 20
1771.78
 30
0.0
 11
1603.522424
 21
1731.78
 31
0.0
  0
LINE
  5
59E
102
{ACAD_REACTORS
330
6E3
102
}
330
1F
100
AcDbEntity
  8
LC-002-002-----0
 62
     7
370
    25
100
AcDbLine
 10
1611.171535
 20
1739.28
 30
0.0
 11
1611.171535
 21
1764.28
 31
0.0
  0
LINE
  5
59F
102
{ACAD_REACTORS
330
6E3
102
}
330
1F
100
AcDbEntity
  8
LC-002-002-----0
 62
     7
370
    25
100
AcDbLine
 10
1668.522425
 20
1739.78
 30
0.0
 11
1668.522425
 21
1763.78
 31
0.0
  0
ARC
  5
5A0
102
{ACAD_REACTORS
330
6DD
102
}
330
1F
100
AcDbEntity
  8
LC-002-002-----0
 62
     7
370
    25
100
AcDbCircle
 10
1597.522425
 20
1751.78
 30
0.0
 40
20.00000000000009
100
AcDbArc
 50
230.394348
 51
270.0
  0
ARC
  5
5A1
102
{ACAD_REACTORS
330
6DD
102
}
330
1F
100
AcDbEntity
  8
LC-002-002-----0
 62
     7
370
    25
100
AcDbCircle
 10
1597.522425
 20
1751.78
 30
0.0
 40
20.0
100
AcDbArc
 50
90.0
 51
129.605652
  0
ARC
  5
5A2
102
{ACAD_REACTORS
330
6E3
102
}
330
1F
100
AcDbEntity
  8
LC-002-002-----0
 62
     7
370
    25
100
AcDbCircle
 10
1668.022425
 20
1739.78
 30
0.0
 40
0.5
100
AcDbArc
 50
270.0
 51
0.0
  0
ARC
  5
5A3
102
{ACAD_REACTORS
330
6E3
102
}
330
1F
100
AcDbEntity
  8
LC-002-002-----0
 62
     7
370
    25
100
AcDbCircle
 10
1668.022425
 20
1763.78
 30
0.0
 40
0.5
100
AcDbArc
 50
0.0
 51
90.0
  0
ARC
  5
5A4
102
{ACAD_REACTORS
330
6E3
102
}
330
1F
100
AcDbEntity
  8
LC-002-002-----0
 62
     7
370
    25
100
AcDbCircle
 10
1611.171535
 20
1738.28
 30
0.0
 40
1.0
100
AcDbArc
 50
90.0
 51
133.137678
  0
ARC
  5
5A5
102
{ACAD_REACTORS
330
6E3
102
}
330
1F
100
AcDbEntity
  8
LC-002-002-----0
 62
     7
370
    25
100
AcDbCircle
 10
1611.171535
 20
1765.28
 30
0.0
 40
1.000000000000066
100
AcDbArc
 50
226.862322
 51
270.0
  0
ARC
  5
5A6
102
{ACAD_REACTORS
330
6E3
102
}
330
1F
100
AcDbEntity
  8
LC-002-002-----0
 62
     7
370
    25
100
AcDbCircle
 10
1598.522425
 20
1751.78
 30
0.0
 40
17.50000000000009
100
AcDbArc
 50
46.85835
 51
73.398451
  0
ARC
  5
5A7
102
{ACAD_REACTORS
330
6E3
102
}
330
1F
100
AcDbEntity
  8
LC-002-002-----0
 62
     7
370
    25
100
AcDbCircle
 10
1598.522425
 20
1751.78
 30
0.0
 40
17.50000000000008
100
AcDbArc
 50
286.601548
 51
313.141806
  0
LINE
  5
5A8
102
{ACAD_REACTORS
330
6DD
102
}
330
1F
100
AcDbEntity
  8
LC-002-002-----0
 62
     7
370
    25
100
AcDbLine
 10
1482.465403
 20
1804.28
 30
0.0
 11
1482.465403
 21
1801.78
 31
0.0
  0
LINE
  5
5A9
102
{ACAD_REACTORS
330
6DD
102
}
330
1F
100
AcDbEntity
  8
LC-002-002-----0
 62
     7
370
    25
100
AcDbLine
 10
1483.215403
 20
1805.28
 30
0.0
 11
1483.215403
 21
1805.03
 31
0.0
  0
LINE
  5
5AA
102
{ACAD_REACTORS
330
6DD
102
}
330
1F
100
AcDbEntity
  8
LC-002-002-----0
 62
     7
370
    25
100
AcDbLine
 10
1484.370196
 20
1805.28
 30
0.0
 11
1484.370196
 21
1818.78
 31
0.0
  0
LINE
  5
5AB
102
{ACAD_REACTORS
330
6DD
102
}
330
1F
100
AcDbEntity
  8
LC-002-002-----0
 62
     7
370
    25
100
AcDbLine
 10
1535.970196
 20
1805.28
 30
0.0
 11
1535.970196
 21
1818.78
 31
0.0
  0
LINE
  5
5AC
102
{ACAD_REACTORS
330
6DD
102
}
330
1F
100
AcDbEntity
  8
LC-002-002-----0
 62
     7
370
    25
100
AcDbLine
 10
1537.124989
 20
1805.28
 30
0.0
 11
1537.124989
 21
1805.03
 31
0.0
  0
LINE
  5
5AD
102
{ACAD_REACTORS
330
6DD
102
}
330
1F
100
AcDbEntity
  8
LC-002-002-----0
 62
     7
370
    25
100
AcDbLine
 10
1537.874989
 20
1804.28
 30
0.0
 11
1537.874989
 21
1801.78
 31
0.0
  0
LINE
  5
5AE
102
{ACAD_REACTORS
330
6DD
102
}
330
1F
100
AcDbEntity
  8
LC-002-002-----0
 62
     7
370
    25
100
AcDbLine
 10
1483.215404
 20
1805.030001
 30
0.0
 11
1482.465404
 21
1804.280001
 31
0.0
  0
LINE
  5
5AF
102
{ACAD_REACTORS
330
6DD
102
}
330
1F
100
AcDbEntity
  8
LC-002-002-----0
 62
     7
370
    25
100
AcDbLine
 10
1533.970196
 20
1820.78
 30
0.0
 11
1486.370196
 21
1820.78
 31
0.0
  0
LINE
  5
5B0
102
{ACAD_REACTORS
330
6DD
102
}
330
1F
100
AcDbEntity
  8
LC-002-002-----0
 62
     7
370
    25
100
AcDbLine
 10
1537.124972
 20
1805.28
 30
0.0
 11
1535.970196
 21
1805.28
 31
0.0
  0
LINE
  5
5B1
102
{ACAD_REACTORS
330
6DD
102
}
330
1F
100
AcDbEntity
  8
LC-002-002-----0
 62
     7
370
    25
100
AcDbLine
 10
1537.874989
 20
1801.78
 30
0.0
 11
1482.465403
 21
1801.78
 31
0.0
  0
LINE
  5
5B2
102
{ACAD_REACTORS
330
6DD
102
}
330
1F
100
AcDbEntity
  8
LC-002-002-----0
 62
     7
370
    25
100
AcDbLine
 10
1537.124988
 20
1805.030001
 30
0.0
 11
1537.874988
 21
1804.280001
 31
0.0
  0
ARC
  5
5B3
102
{ACAD_REACTORS
330
6DD
102
}
330
1F
100
AcDbEntity
  8
LC-002-002-----0
 62
     7
370
    25
100
AcDbCircle
 10
1533.970196
 20
1818.78
 30
0.0
 40
2.0
100
AcDbArc
 50
0.0
 51
90.0
  0
ARC
  5
5B4
102
{ACAD_REACTORS
330
6DD
102
}
330
1F
100
AcDbEntity
  8
LC-002-002-----0
 62
     7
370
    25
100
AcDbCircle
 10
1486.370196
 20
1818.78
 30
0.0
 40
2.0
100
AcDbArc
 50
90.0
 51
180.0
  0
LINE
  5
5B5
102
{ACAD_REACTORS
330
6DD
102
}
330
1F
100
AcDbEntity
  8
LC-002-002-----0
 62
     7
370
    25
100
AcDbLine
 10
1510.168744
 20
1805.28
 30
0.0
 11
1510.168744
 21
1818.78
 31
0.0
  0
INSERT
  5
5C5
102
{ACAD_REACTORS
330
6DD
102
}
330
1F
100
AcDbEntity
  8
LC-002-002-----0
 62
     7
370
    25
100
AcDbBlockReference
  2
POLY14
 10
0.0
 20
0.0
 30
0.0
  0
ARC
  5
5C6
102
{ACAD_REACTORS
330
6D8
102
}
330
1F
100
AcDbEntity
  8
LC-002-002-----0
 62
     7
370
    25
100
AcDbCircle
 10
1510.170196
 20
1876.78
 30
0.0
 40
27.70479324130114
100
AcDbArc
 50
316.211302
 51
223.788698
  0
LINE
  5
5C7
102
{ACAD_REACTORS
330
6DD
102
}
330
1F
100
AcDbEntity
  8
LC-002-002-----0
 62
     7
370
    25
100
AcDbLine
 10
1488.170196
 20
1751.78
 30
0.0
 11
1488.170196
 21
1777.88
 31
0.0
  0
ARC
  5
5C8
102
{ACAD_REACTORS
330
6DD
102
}
330
1F
100
AcDbEntity
  8
LC-005-002-RND-0
 62
     7
370
    25
100
AcDbCircle
 10
1510.170196
 20
1751.78
 30
0.0
 40
22.0
100
AcDbArc
 50
180.0
 51
270.0
  0
LINE
  5
5C9
102
{ACAD_REACTORS
330
6DD
102
}
330
1F
100
AcDbEntity
  8
LC-002-002-----0
 62
     7
370
    25
100
AcDbLine
 10
1542.129743
 20
1714.28
 30
0.0
 11
1542.129743
 21
1716.281863
 31
0.0
  0
LINE
  5
5CA
102
{ACAD_REACTORS
330
6DD
102
}
330
1F
100
AcDbEntity
  8
LC-002-002-----0
 62
     7
370
    25
100
AcDbLine
 10
1532.570196
 20
1780.233149
 30
0.0
 11
1534.290227
 21
1780.547385
 31
0.0
  0
LINE
  5
5CB
102
{ACAD_REACTORS
330
6DD
102
}
330
1F
100
AcDbEntity
  8
LC-002-002-----0
 62
     7
370
    25
100
AcDbLine
 10
1544.629743
 20
1789.28
 30
0.0
 11
1542.129743
 21
1789.28
 31
0.0
  0
LINE
  5
5CC
102
{ACAD_REACTORS
330
6DD
102
}
330
1F
100
AcDbEntity
  8
LC-002-002-----0
 62
     7
370
    25
100
AcDbLine
 10
1541.426499
 20
1787.278137
 30
0.0
 11
1542.129743
 21
1787.278137
 31
0.0
  0
LINE
  5
5CD
102
{ACAD_REACTORS
330
6DD
102
}
330
1F
100
AcDbEntity
  8
LC-002-002-----0
 62
     7
370
    25
100
AcDbLine
 10
1510.170196
 20
1729.78
 30
0.0
 11
1523.861381
 21
1729.78
 31
0.0
  0
LINE
  5
5CE
102
{ACAD_REACTORS
330
6DD
102
}
330
1F
100
AcDbEntity
  8
LC-002-002-----0
 62
     7
370
    25
100
AcDbLine
 10
1541.426499
 20
1716.281863
 30
0.0
 11
1542.129743
 21
1716.281863
 31
0.0
  0
LINE
  5
5CF
102
{ACAD_REACTORS
330
6DD
102
}
330
1F
100
AcDbEntity
  8
LC-002-002-----0
 62
     7
370
    25
100
AcDbLine
 10
1544.629743
 20
1714.28
 30
0.0
 11
1542.129743
 21
1714.28
 31
0.0
  0
LINE
  5
5D0
102
{ACAD_REACTORS
330
6DD
102
}
330
1F
100
AcDbEntity
  8
LC-002-002-----0
 62
     7
370
    25
100
AcDbLine
 10
1531.671363
 20
1723.491061
 30
0.0
 11
1534.290227
 21
1723.012615
 31
0.0
  0
LINE
  5
5D1
102
{ACAD_REACTORS
330
6DD
102
}
330
1F
100
AcDbEntity
  8
LC-002-002-----0
 62
     7
370
    25
100
AcDbLine
 10
1487.770223
 20
1778.279973
 30
0.0
 11
1488.170304
 21
1777.879892
 31
0.0
  0
ARC
  5
5D2
102
{ACAD_REACTORS
330
6DD
102
}
330
1F
100
AcDbEntity
  8
LC-002-002-----0
 62
     7
370
    25
100
AcDbCircle
 10
1532.839553
 20
1729.885225
 30
0.0
 40
6.500000000000005
100
AcDbArc
 50
199.07704
 51
259.645823
  0
ARC
  5
5D3
102
{ACAD_REACTORS
330
6DD
102
}
330
1F
100
AcDbEntity
  8
LC-002-002-----0
 62
     7
370
    25
100
AcDbCircle
 10
1523.861381
 20
1726.78
 30
0.0
 40
3.000000000000295
100
AcDbArc
 50
19.055448
 51
90.0
  0
ARC
  5
5D4
102
{ACAD_REACTORS
330
6DD
102
}
330
1F
100
AcDbEntity
  8
LC-002-002-----0
 62
     7
370
    25
100
AcDbCircle
 10
1541.426499
 20
1718.281863
 30
0.0
 40
2.000000000000076
100
AcDbArc
 50
244.152631
 51
270.0
  0
ARC
  5
5D5
102
{ACAD_REACTORS
330
6DD
102
}
330
1F
100
AcDbEntity
  8
LC-002-002-----0
 62
     7
370
    25
100
AcDbCircle
 10
1541.426499
 20
1785.278137
 30
0.0
 40
2.0
100
AcDbArc
 50
90.0
 51
115.847369
  0
ARC
  5
5D6
102
{ACAD_REACTORS
330
6DD
102
}
330
1F
100
AcDbEntity
  8
LC-002-002-----0
 62
     7
370
    25
100
AcDbCircle
 10
1543.170196
 20
1721.881796
 30
0.0
 40
5.999999999999973
100
AcDbArc
 50
196.283517
 51
244.155028
  0
ARC
  5
5D7
102
{ACAD_REACTORS
330
6DD
102
}
330
1F
100
AcDbEntity
  8
LC-002-002-----0
 62
     7
370
    25
100
AcDbCircle
 10
1543.170196
 20
1781.678204
 30
0.0
 40
6.000000000000001
100
AcDbArc
 50
115.844972
 51
163.716483
  0
ARC
  5
5D8
102
{ACAD_REACTORS
330
6DD
102
}
330
1F
100
AcDbEntity
  8
LC-002-002-----0
 62
     7
370
    25
100
AcDbCircle
 10
1533.571381
 20
1719.077737
 30
0.0
 40
4.000000000000152
100
AcDbArc
 50
16.281751
 51
79.647048
  0
ARC
  5
5D9
102
{ACAD_REACTORS
330
6DD
102
}
330
1F
100
AcDbEntity
  8
LC-002-002-----0
 62
     7
370
    25
100
AcDbCircle
 10
1533.571381
 20
1784.482263
 30
0.0
 40
4.00000000000002
100
AcDbArc
 50
280.352952
 51
343.718249
  0
LINE
  5
5DA
102
{ACAD_REACTORS
330
6DD
102
}
330
1F
100
AcDbEntity
  8
LC-002-002-----0
 62
     7
370
    25
100
AcDbLine
 10
1584.772425
 20
1806.78
 30
0.0
 11
1584.772425
 21
1696.78
 31
0.0
  0
LINE
  5
5DB
102
{ACAD_REACTORS
330
6DD
102
}
330
1F
100
AcDbEntity
  8
LC-002-002-----0
 62
     7
370
    25
100
AcDbLine
 10
1580.772425
 20
1696.78
 30
0.0
 11
1584.772425
 21
1696.78
 31
0.0
  0
LINE
  5
5DC
102
{ACAD_REACTORS
330
6DD
102
}
330
1F
100
AcDbEntity
  8
LC-002-002-----0
 62
     7
370
    25
100
AcDbLine
 10
1544.629743
 20
1712.275036
 30
0.0
 11
1544.629743
 21
1714.28
 31
0.0
  0
LINE
  5
5DD
102
{ACAD_REACTORS
330
6DD
102
}
330
1F
100
AcDbEntity
  8
LC-002-002-----0
 62
     7
370
    25
100
AcDbLine
 10
1548.959518
 20
1709.03061
 30
0.0
 11
1549.969867
 21
1707.280635
 31
0.0
  0
LINE
  5
5DE
102
{ACAD_REACTORS
330
6DD
102
}
330
1F
100
AcDbEntity
  8
LC-002-002-----0
 62
     7
370
    25
100
AcDbLine
 10
1555.166386
 20
1704.28
 30
0.0
 11
1570.629743
 21
1704.28
 31
0.0
  0
LINE
  5
5DF
102
{ACAD_REACTORS
330
6DD
102
}
330
1F
100
AcDbEntity
  8
LC-002-002-----0
 62
     7
370
    25
100
AcDbLine
 10
1580.312202
 20
1696.78
 30
0.0
 11
1580.772425
 21
1696.78
 31
0.0
  0
ARC
  5
5E0
102
{ACAD_REACTORS
330
6DD
102
}
330
1F
100
AcDbEntity
  8
LC-002-002-----0
 62
     7
370
    25
100
AcDbCircle
 10
1570.629743
 20
1700.28
 30
0.0
 40
3.999999999999755
100
AcDbArc
 50
14.492147
 51
90.0
  0
ARC
  5
5E1
102
{ACAD_REACTORS
330
6DD
102
}
330
1F
100
AcDbEntity
  8
LC-002-002-----0
 62
     7
370
    25
100
AcDbCircle
 10
1580.312202
 20
1702.78
 30
0.0
 40
5.999999999999878
100
AcDbArc
 50
194.469452
 51
270.0
  0
ARC
  5
5E2
102
{ACAD_REACTORS
330
6DD
102
}
330
1F
100
AcDbEntity
  8
LC-002-002-----0
 62
     7
370
    25
100
AcDbCircle
 10
1555.166386
 20
1710.28
 30
0.0
 40
6.000000000000091
100
AcDbArc
 50
209.988476
 51
270.0
  0
ARC
  5
5E3
102
{ACAD_REACTORS
330
6DD
102
}
330
1F
100
AcDbEntity
  8
LC-002-002-----0
 62
     7
370
    25
100
AcDbCircle
 10
1544.629743
 20
1706.53
 30
0.0
 40
4.999999999999792
100
AcDbArc
 50
30.016153
 51
82.072225
  0
ARC
  5
5E4
102
{ACAD_REACTORS
330
6DD
102
}
330
1F
100
AcDbEntity
  8
LC-002-002-----0
 62
     7
370
    25
100
AcDbCircle
 10
1545.429743
 20
1712.274563
 30
0.0
 40
0.7999999999997272
100
AcDbArc
 50
180.0
 51
262.062606
  0
LINE
  5
5E5
102
{ACAD_REACTORS
330
6DD
102
}
330
1F
100
AcDbEntity
  8
LC-002-002-----0
 62
     7
370
    25
100
AcDbLine
 10
1580.772425
 20
1806.78
 30
0.0
 11
1584.772425
 21
1806.78
 31
0.0
  0
LINE
  5
5E6
102
{ACAD_REACTORS
330
6DD
102
}
330
1F
100
AcDbEntity
  8
LC-002-002-----0
 62
     7
370
    25
100
AcDbLine
 10
1548.959518
 20
1794.52939
 30
0.0
 11
1549.969867
 21
1796.279365
 31
0.0
  0
LINE
  5
5E7
102
{ACAD_REACTORS
330
6DD
102
}
330
1F
100
AcDbEntity
  8
LC-002-002-----0
 62
     7
370
    25
100
AcDbLine
 10
1555.166386
 20
1799.28
 30
0.0
 11
1570.629743
 21
1799.28
 31
0.0
  0
LINE
  5
5E8
102
{ACAD_REACTORS
330
6DD
102
}
330
1F
100
AcDbEntity
  8
LC-002-002-----0
 62
     7
370
    25
100
AcDbLine
 10
1580.312202
 20
1806.78
 30
0.0
 11
1580.772425
 21
1806.78
 31
0.0
  0
ARC
  5
5E9
102
{ACAD_REACTORS
330
6DD
102
}
330
1F
100
AcDbEntity
  8
LC-002-002-----0
 62
     7
370
    25
100
AcDbCircle
 10
1570.629743
 20
1803.28
 30
0.0
 40
4.0
100
AcDbArc
 50
270.0
 51
345.507853
  0
ARC
  5
5EA
102
{ACAD_REACTORS
330
6DD
102
}
330
1F
100
AcDbEntity
  8
LC-002-002-----0
 62
     7
370
    25
100
AcDbCircle
 10
1580.312202
 20
1800.78
 30
0.0
 40
6.0
100
AcDbArc
 50
90.0
 51
165.530548
  0
ARC
  5
5EB
102
{ACAD_REACTORS
330
6DD
102
}
330
1F
100
AcDbEntity
  8
LC-002-002-----0
 62
     7
370
    25
100
AcDbCircle
 10
1555.166386
 20
1793.28
 30
0.0
 40
6.0
100
AcDbArc
 50
90.0
 51
150.011524
  0
ARC
  5
5EC
102
{ACAD_REACTORS
330
6DD
102
}
330
1F
100
AcDbEntity
  8
LC-002-002-----0
 62
     7
370
    25
100
AcDbCircle
 10
1544.629743
 20
1797.03
 30
0.0
 40
5.000000000000194
100
AcDbArc
 50
277.927775
 51
329.983847
  0
ARC
  5
5ED
102
{ACAD_REACTORS
330
6DD
102
}
330
1F
100
AcDbEntity
  8
LC-002-002-----0
 62
     7
370
    25
100
AcDbCircle
 10
1545.429743
 20
1791.285437
 30
0.0
 40
0.7999999999999126
100
AcDbArc
 50
97.937394
 51
180.0
  0
LINE
  5
5EE
102
{ACAD_REACTORS
330
6DD
102
}
330
1F
100
AcDbEntity
  8
LC-002-002-----0
 62
     7
370
    25
100
AcDbLine
 10
1544.629743
 20
1789.28
 30
0.0
 11
1544.629743
 21
1791.285437
 31
0.0
  0
LINE
  5
5EF
102
{ACAD_REACTORS
330
6DD
102
}
330
1F
100
AcDbEntity
  8
LC-002-002-----0
 62
     7
370
    25
100
AcDbLine
 10
1542.129743
 20
1787.278137
 30
0.0
 11
1542.129743
 21
1789.28
 31
0.0
  0
LINE
  5
5F0
102
{ACAD_REACTORS
330
6DD
102
}
330
1F
100
AcDbEntity
  8
LC-002-002-----0
 62
     7
370
    25
100
AcDbLine
 10
1484.370196
 20
1805.28
 30
0.0
 11
1483.21542
 21
1805.28
 31
0.0
  0
LINE
  5
5F1
102
{ACAD_REACTORS
330
6D7
102
}
330
1F
100
AcDbEntity
  8
LC-002-002-----0
 62
     7
370
    25
100
AcDbLine
 10
1532.170196
 20
1973.78
 30
0.0
 11
1532.570196
 21
1973.78
 31
0.0
  0
LINE
  5
5F2
102
{ACAD_REACTORS
330
6D7
102
}
330
1F
100
AcDbEntity
  8
LC-002-002-----0
 62
     7
370
    25
100
AcDbLine
 10
1484.370196
 20
1968.28
 30
0.0
 11
1483.215403
 21
1968.28
 31
0.0
  0
LINE
  5
5F3
102
{ACAD_REACTORS
330
6D9
102
}
330
1F
100
AcDbEntity
  8
LC-004-099-----0
 62
     7
370
    50
100
AcDbLine
 10
1593.466945
 20
1771.364511
 30
0.0
 11
1593.466945
 21
1796.78
 31
0.0
  0
LINE
  5
5F4
102
{ACAD_REACTORS
330
6D9
102
}
330
1F
100
AcDbEntity
  8
LC-002-002-----0
 62
     7
370
    25
100
AcDbLine
 10
1597.772425
 20
1731.78
 30
0.0
 11
1597.772425
 21
1693.53
 31
0.0
  0
INSERT
  5
60E
102
{ACAD_REACTORS
330
6D6
102
}
330
1F
100
AcDbEntity
  8
LC-009-003-----0
 62
     7
370
    25
100
AcDbBlockReference
  2
LCDIM11
 10
0.0
 20
0.0
 30
0.0
  0
INSERT
  5
628
102
{ACAD_REACTORS
330
6D6
102
}
330
1F
100
AcDbEntity
  8
LC-009-003-----0
 62
     7
370
    25
100
AcDbBlockReference
  2
LCDIM12
 10
0.0
 20
0.0
 30
0.0
  0
INSERT
  5
642
102
{ACAD_REACTORS
330
6D6
102
}
330
1F
100
AcDbEntity
  8
LC-009-003-----0
 62
     7
370
    25
100
AcDbBlockReference
  2
LCDIM13
 10
0.0
 20
0.0
 30
0.0
  0
INSERT
  5
65C
330
1F
100
AcDbEntity
  8
LC-009-003-----0
 62
     7
370
    25
100
AcDbBlockReference
  2
LCDIM14
 10
0.0
 20
0.0
 30
0.0
  0
INSERT
  5
676
330
1F
100
AcDbEntity
  8
LC-009-003-----0
 62
     7
370
    25
100
AcDbBlockReference
  2
LCDIM15
 10
0.0
 20
0.0
 30
0.0
  0
INSERT
  5
683
102
{ACAD_REACTORS
330
6E0
102
}
330
1F
100
AcDbEntity
  8
LC-011-005-----0
 62
     7
370
    25
100
AcDbBlockReference
  2
*X333
 10
0.0
 20
0.0
 30
0.0
  0
TEXT
  5
684
330
1F
100
AcDbEntity
  8
LC-012-004-----0
 62
     7
370
    25
100
AcDbText
 10
1249.685007
 20
476.091057
 30
0.0
 40
25.0
  1
Art. Nr. 946
 41
0.8
  7
LCTX0-400-0-0pDIN-Schrift
100
AcDbText
  0
LINE
  5
685
102
{ACAD_REACTORS
330
6DE
102
}
330
1F
100
AcDbEntity
  8
LC-006-006-MLN-0
 62
     7
370
    25
100
AcDbLine
 10
1280.353675
 20
955.206964
 30
0.0
 11
1673.853675
 21
955.206964
 31
0.0
  0
LINE
  5
686
102
{ACAD_REACTORS
330
6DE
102
}
330
1F
100
AcDbEntity
  8
LC-006-006-MLN-0
 62
     7
370
    25
100
AcDbLine
 10
1477.103675
 20
830.956964
 30
0.0
 11
1477.103675
 21
1079.456964
 31
0.0
  0
TEXT
  5
687
102
{ACAD_REACTORS
330
6DE
102
}
330
1F
100
AcDbEntity
  8
LC-012-004-----0
 62
     7
370
    35
100
AcDbText
 10
1235.53226
 20
1127.7405
 30
0.0
 40
35.0
  1
Ausschnitt Unterbau M 1:20
 41
0.8
  7
LCTX0-400-0-0pDIN-Schrift
100
AcDbText
  0
LINE
  5
688
330
1F
100
AcDbEntity
  8
LC-002-002-----0
 62
     7
370
    50
100
AcDbLine
 10
1303.353675
 20
833.956964
 30
0.0
 11
1650.853675
 21
833.956964
 31
0.0
  0
LINE
  5
689
330
1F
100
AcDbEntity
  8
LC-002-002-----0
 62
     7
370
    50
100
AcDbLine
 10
1283.353675
 20
853.956964
 30
0.0
 11
1283.353675
 21
1056.456964
 31
0.0
  0
INSERT
  5
6A3
330
1F
100
AcDbEntity
  8
LC-009-003-----0
 62
     7
370
    25
100
AcDbBlockReference
  2
LCDIM16
 10
0.0
 20
0.0
 30
0.0
  0
INSERT
  5
6BD
330
1F
100
AcDbEntity
  8
LC-009-003-----0
 62
     7
370
    25
100
AcDbBlockReference
  2
LCDIM17
 10
0.0
 20
0.0
 30
0.0
  0
INSERT
  5
6CC
330
1F
100
AcDbEntity
  8
LC-009-003-----0
 62
     7
370
    25
100
AcDbBlockReference
  2
LCDIM18
 10
0.0
 20
0.0
 30
0.0
  0
TEXT
  5
6CD
330
1F
100
AcDbEntity
  8
LC-012-004-----0
 62
     7
370
    25
100
AcDbText
 10
194.153846
 20
395.0
 30
0.0
 40
25.0
  1
a
 41
0.8
  7
LCTX0-400-0-0pDIN-Schrift
100
AcDbText
  0
TEXT
  5
6CE
330
1F
100
AcDbEntity
  8
LC-012-004-----0
 62
     7
370
    25
100
AcDbText
 10
272.153846
 20
395.0
 30
0.0
 40
25.0
  1
Ausschn. Unterbau
 41
0.7
  7
LCTX0-400-0-0pDIN-Schrift
100
AcDbText
  0
TEXT
  5
6CF
330
1F
100
AcDbEntity
  8
LC-012-004-----0
 62
     7
370
    25
100
AcDbText
 10
532.153846
 20
395.0
 30
0.0
 40
25.0
  1
05.02.09
 41
0.7
  7
LCTX0-400-0-0pDIN-Schrift
100
AcDbText
  0
TEXT
  5
6D0
330
1F
100
AcDbEntity
  8
LC-012-004-----0
 62
     7
370
    25
100
AcDbText
 10
662.153846
 20
395.0
 30
0.0
 40
25.0
  1
HÄ
 41
0.8
  7
LCTX0-400-0-0pDIN-Schrift
100
AcDbText
  0
ENDSEC
  0
SECTION
  2
OBJECTS
  0
DICTIONARY
  5
C
330
0
100
AcDbDictionary
281
     1
  3
ACAD_GROUP
350
D
  3
ACAD_LAYOUT
350
1A
  3
ACAD_MLINESTYLE
350
17
  3
ACAD_PLOTSETTINGS
350
19
  3
ACAD_PLOTSTYLENAME
350
E
  0
DICTIONARY
  5
D
102
{ACAD_REACTORS
330
C
102
}
330
C
100
AcDbDictionary
281
     1
  3
LCGROUP10
350
6D6
  3
LCGROUP1019
350
6DF
  3
LCGROUP1067
350
6E2
  3
LCGROUP1070
350
6E3
  3
LCGROUP1071
350
6E1
  3
LCGROUP1121
350
6D8
  3
LCGROUP1122
350
6D7
  3
LCGROUP1196
350
6DD
  3
LCGROUP1288
350
6DE
  3
LCGROUP581
350
6DA
  3
LCGROUP588
350
6D9
  3
LCGROUP781
350
6E0
  3
LCGROUP819
350
6D5
  3
LCGROUP826
350
6D4
  3
LCGROUP828
350
6D3
  3
LCGROUP829
350
6D2
  3
LCGROUP830
350
6D1
  3
LCGROUP876
350
6DB
  3
LCGROUP878
350
6DC
  0
DICTIONARY
  5
1A
102
{ACAD_REACTORS
330
C
102
}
330
C
100
AcDbDictionary
281
     1
  3
Layout1
350
1E
  3
Layout2
350
26
  3
Model
350
22
  0
DICTIONARY
  5
17
102
{ACAD_REACTORS
330
C
102
}
330
C
100
AcDbDictionary
281
     1
  3
Standard
350
18
  0
DICTIONARY
  5
19
102
{ACAD_REACTORS
330
C
102
}
330
C
100
AcDbDictionary
281
     1
  0
ACDBDICTIONARYWDFLT
  5
E
102
{ACAD_REACTORS
330
C
102
}
330
C
100
AcDbDictionary
281
     1
  3
Normal
350
F
100
AcDbDictionaryWithDefault
340
F
  0
GROUP
  5
6D6
102
{ACAD_REACTORS
330
D
102
}
330
D
100
AcDbGroup
300
GRP10
 70
     1
 71
     1
340
105
340
106
340
107
340
108
340
10A
340
112
340
113
340
114
340
11B
340
11C
340
11D
340
11E
340
11F
340
120
340
121
340
122
340
123
340
124
340
125
340
126
340
127
340
128
340
129
340
12A
340
12B
340
12C
340
12D
340
12E
340
12F
340
130
340
131
340
132
340
133
340
134
340
135
340
136
340
137
340
138
340
139
340
13A
340
13B
340
13C
340
13D
340
13E
340
13F
340
140
340
141
340
142
340
143
340
144
340
145
340
146
340
147
340
148
340
149
340
14A
340
14B
340
14C
340
14D
340
14E
340
14F
340
150
340
151
340
152
340
153
340
154
340
155
340
156
340
157
340
158
340
159
340
15A
340
15B
340
15C
340
15D
340
15E
340
15F
340
160
340
161
340
162
340
163
340
164
340
165
340
166
340
167
340
168
340
169
340
16A
340
16B
340
16C
340
16D
340
16E
340
16F
340
170
340
171
340
172
340
173
340
174
340
175
340
176
340
177
340
178
340
179
340
17A
340
17B
340
17C
340
17D
340
17E
340
17F
340
180
340
181
340
182
340
183
340
184
340
185
340
186
340
187
340
188
340
189
340
28B
340
28C
340
28D
340
28E
340
28F
340
290
340
291
340
292
340
293
340
294
340
2AE
340
2F5
340
60E
340
628
340
642
  0
GROUP
  5
6DF
102
{ACAD_REACTORS
330
D
102
}
330
D
100
AcDbGroup
300
GRP1019-LCMaster-LCGROUP876
 70
     1
 71
     1
340
4DB
340
4DC
340
4DD
340
4DE
340
4DF
340
4E0
340
4E1
340
4E2
340
4E3
340
4E4
340
4E5
340
4E6
340
4E7
340
4E8
340
4E9
340
4EA
340
4EB
340
4EC
340
4ED
340
4EE
340
4EF
340
4F0
340
4F1
340
4F2
340
4F3
340
4F4
340
4F5
340
4F6
340
4F7
340
4F8
340
4F9
340
4FA
340
4FB
340
4FC
340
4FD
340
4FE
340
4FF
340
500
340
501
340
502
340
503
340
506
340
507
  0
GROUP
  5
6E2
102
{ACAD_REACTORS
330
D
102
}
330
D
100
AcDbGroup
300
GRP1067-LCMaster-LCGROUP1070
 70
     1
 71
     1
340
509
340
50A
340
50B
340
50D
340
50E
340
510
340
511
340
512
340
513
  0
GROUP
  5
6E3
102
{ACAD_REACTORS
330
D
102
}
330
D
100
AcDbGroup
300
GRP1070-LCMaster-LCGROUP1196
 70
     1
 71
     1
340
59A
340
59B
340
59E
340
59F
340
5A2
340
5A3
340
5A4
340
5A5
340
5A6
340
5A7
  0
GROUP
  5
6E1
102
{ACAD_REACTORS
330
D
102
}
330
D
100
AcDbGroup
300
GRP1071-LCMaster-LCGROUP1067
 70
     1
 71
     1
340
50C
340
50F
340
514
340
515
340
516
340
517
340
518
340
519
340
51A
340
51B
340
51C
340
51D
340
51E
340
51F
340
520
340
521
340
522
340
523
340
524
340
525
340
526
340
527
340
528
340
529
340
52A
340
52B
340
52C
340
52D
340
52E
340
52F
340
530
340
531
340
532
340
533
340
534
340
535
340
536
340
537
340
538
340
539
340
53A
340
53B
  0
GROUP
  5
6D8
102
{ACAD_REACTORS
330
D
102
}
330
D
100
AcDbGroup
300
GRP1121-LCMaster-LCGROUP1196
 70
     1
 71
     1
340
595
340
596
340
598
340
5C6
  0
GROUP
  5
6D7
102
{ACAD_REACTORS
330
D
102
}
330
D
100
AcDbGroup
300
GRP2961-LCMaster-LCGROUP1121
 70
     1
 71
     1
340
53C
340
53D
340
53E
340
53F
340
540
340
541
340
542
340
543
340
544
340
545
340
546
340
547
340
548
340
549
340
54A
340
54B
340
54C
340
54D
340
54E
340
54F
340
550
340
551
340
552
340
553
340
554
340
555
340
556
340
557
340
558
340
559
340
55A
340
55B
340
55C
340
55D
340
55E
340
55F
340
560
340
561
340
562
340
563
340
564
340
565
340
566
340
567
340
568
340
569
340
56A
340
56B
340
56C
340
56D
340
56E
340
56F
340
570
340
571
340
572
340
573
340
574
340
575
340
576
340
577
340
578
340
579
340
57A
340
57B
340
57C
340
57D
340
57E
340
57F
340
580
340
581
340
582
340
583
340
593
340
5F1
340
5F2
  0
GROUP
  5
6DD
102
{ACAD_REACTORS
330
D
102
}
330
D
100
AcDbGroup
300
GRP1196
 70
     1
 71
     1
340
594
340
597
340
599
340
59C
340
59D
340
5A0
340
5A1
340
5A8
340
5A9
340
5AA
340
5AB
340
5AC
340
5AD
340
5AE
340
5AF
340
5B0
340
5B1
340
5B2
340
5B3
340
5B4
340
5B5
340
5C5
340
5C7
340
5C8
340
5C9
340
5CA
340
5CB
340
5CC
340
5CD
340
5CE
340
5CF
340
5D0
340
5D1
340
5D2
340
5D3
340
5D4
340
5D5
340
5D6
340
5D7
340
5D8
340
5D9
340
5DA
340
5DB
340
5DC
340
5DD
340
5DE
340
5DF
340
5E0
340
5E1
340
5E2
340
5E3
340
5E4
340
5E5
340
5E6
340
5E7
340
5E8
340
5E9
340
5EA
340
5EB
340
5EC
340
5ED
340
5EE
340
5EF
340
5F0
  0
GROUP
  5
6DE
102
{ACAD_REACTORS
330
D
102
}
330
D
100
AcDbGroup
300
GRP1288
 70
     1
 71
     1
340
685
340
686
340
687
  0
GROUP
  5
6DA
102
{ACAD_REACTORS
330
D
102
}
330
D
100
AcDbGroup
300
GRP581
 70
     1
 71
     1
340
18A
340
18B
340
18C
340
18D
340
18E
340
18F
340
190
340
191
340
192
340
193
340
194
340
195
340
196
340
197
340
198
340
199
340
19A
340
19B
340
19C
340
19D
340
19E
340
19F
340
1A0
340
1A1
340
1A2
340
1A3
340
1A4
340
1A5
340
1A6
340
1A7
340
1A8
340
1A9
340
1AA
340
1AB
340
1AC
340
1AD
340
1AE
340
1AF
340
1B0
340
1B1
340
1B2
340
1B3
340
1B4
340
1B5
340
1B6
340
1B7
340
1B8
340
1B9
340
1BA
340
1BB
340
1BC
340
1BD
340
1BE
340
1BF
340
1C0
340
1C1
340
1C2
340
1C3
340
1C4
340
1C5
340
1C6
340
1C7
340
1C8
340
1C9
340
1CA
340
1CB
340
1CC
340
1CD
340
1CE
340
1CF
340
1D0
340
1D1
340
1D2
340
1D3
340
1D4
340
1D5
340
1D6
340
1D7
340
1D8
340
1D9
340
1DA
340
1DB
340
1DC
340
1DD
340
1DE
340
1DF
340
1E0
340
1E1
340
1E2
340
1E3
340
1E4
340
1E5
340
1E6
340
1E7
340
1E8
340
1E9
340
1EA
340
1EB
340
1EC
340
1ED
340
1EE
340
1EF
340
1F0
340
1F3
340
1F4
340
211
340
22B
340
2C8
340
2E2
340
310
340
311
340
312
  0
GROUP
  5
6D9
102
{ACAD_REACTORS
330
D
102
}
330
D
100
AcDbGroup
300
GRP588
 70
     1
 71
     1
340
22C
340
22D
340
22E
340
22F
340
230
340
231
340
232
340
233
340
234
340
235
340
236
340
237
340
238
340
239
340
23A
340
23B
340
23C
340
23D
340
23E
340
23F
340
240
340
241
340
242
340
243
340
244
340
245
340
246
340
247
340
248
340
249
340
24A
340
24B
340
24C
340
24D
340
24E
340
250
340
251
340
252
340
253
340
254
340
255
340
256
340
257
340
258
340
259
340
25A
340
25B
340
25C
340
25D
340
25E
340
25F
340
260
340
261
340
262
340
263
340
264
340
265
340
266
340
267
340
268
340
269
340
26A
340
26B
340
26C
340
26D
340
26E
340
26F
340
270
340
28A
340
5F3
340
5F4
  0
GROUP
  5
6E0
102
{ACAD_REACTORS
330
D
102
}
330
D
100
AcDbGroup
300
GRP781
 70
     1
 71
     1
340
10D
340
10E
340
10F
340
110
340
2E3
340
2E4
340
2E5
340
2E6
340
2E7
340
2EE
340
2EF
340
2F0
340
2F1
340
2F2
340
2F3
340
2F4
340
30F
340
360
340
361
340
362
340
363
340
364
340
36B
340
683
  0
GROUP
  5
6D5
102
{ACAD_REACTORS
330
D
102
}
330
D
100
AcDbGroup
300
GRP819
 70
     1
 71
     1
340
313
340
314
340
315
340
316
340
317
340
318
340
319
340
31A
340
329
340
343
340
35D
340
35F
  0
GROUP
  5
6D4
102
{ACAD_REACTORS
330
D
102
}
330
D
100
AcDbGroup
300
GRP826-LCMaster-LCGROUP581
 70
     1
 71
     1
340
36C
340
3D4
340
3D5
340
3D6
340
3D7
340
3D8
340
3D9
340
3DA
340
3DB
340
3DC
340
3DD
340
3DE
340
3DF
340
3E0
340
3E1
340
3E2
340
3E3
340
3E4
340
3E5
340
3E6
340
3E7
340
3E8
340
3E9
340
3EA
340
3EB
340
3EC
340
3ED
340
3EE
340
3EF
340
3F0
340
3F1
340
3F2
340
3F3
340
3F4
340
3F5
340
3F6
340
3F7
340
3F8
340
3F9
340
3FA
340
408
340
41A
340
41B
340
41C
340
41D
340
41E
340
41F
340
420
340
421
340
422
340
423
340
424
340
425
340
426
340
427
340
428
340
429
340
42A
340
42B
340
42C
340
42D
340
42E
340
42F
340
430
340
431
340
432
340
433
340
434
340
435
340
436
340
437
340
438
340
439
340
43A
340
43B
340
43C
340
446
340
450
340
45E
340
46C
340
47C
340
48A
340
48B
340
48C
340
48D
340
48E
340
48F
340
490
340
491
340
492
340
493
340
494
340
495
340
496
340
497
340
498
340
499
340
49A
340
504
340
505
  0
GROUP
  5
6D3
102
{ACAD_REACTORS
330
D
102
}
330
D
100
AcDbGroup
300
GRP828-LCMaster-LCGROUP878
 70
     1
 71
     1
340
49F
340
4A0
340
4A6
340
4A7
340
4AB
340
4AC
340
4AD
340
4AE
340
4AF
340
4B0
  0
GROUP
  5
6D2
102
{ACAD_REACTORS
330
D
102
}
330
D
100
AcDbGroup
300
GRP829-LCMaster-LCGROUP828
 70
     1
 71
     1
340
36E
340
36F
340
370
340
374
340
375
340
376
340
378
340
379
340
37A
340
3B6
340
3B7
340
3B8
340
3B9
340
3BA
340
3BB
340
3C4
  0
GROUP
  5
6D1
102
{ACAD_REACTORS
330
D
102
}
330
D
100
AcDbGroup
300
GRP830-LCMaster-LCGROUP829
 70
     1
 71
     1
340
36D
340
371
340
372
340
373
340
377
340
37B
340
37C
340
37D
340
37E
340
37F
340
380
340
381
340
399
340
3A3
340
3B5
340
3BC
340
3BD
340
3BE
340
3BF
340
3C0
340
3C1
340
3C2
340
3C3
  0
GROUP
  5
6DB
102
{ACAD_REACTORS
330
D
102
}
330
D
100
AcDbGroup
300
GRP876-LCMaster-LCGROUP826
 70
     1
 71
     1
340
3C5
340
3C6
340
3C7
340
3C8
340
3C9
340
3FB
340
3FC
340
3FD
340
3FE
340
3FF
340
400
340
401
340
402
340
403
340
404
340
405
340
406
340
407
340
418
340
419
340
49B
340
49C
340
508
  0
GROUP
  5
6DC
102
{ACAD_REACTORS
330
D
102
}
330
D
100
AcDbGroup
300
GRP2319-LCMaster-LCGROUP877
 70
     1
 71
     1
340
49D
340
49E
340
4A1
340
4A2
340
4A3
340
4A4
340
4A5
340
4A8
340
4A9
340
4AA
340
4DA
  0
LAYOUT
  5
1E
102
{ACAD_REACTORS
330
1A
102
}
330
1A
100
AcDbPlotSettings
  1

  2

  4

  6

 40
0.0
 41
0.0
 42
0.0
 43
0.0
 44
0.0
 45
0.0
 46
0.0
 47
0.0
 48
0.0
 49
0.0
140
0.0
141
0.0
142
1.0
143
1.0
 70
   688
 72
     0
 73
     0
 74
     5
  7

 75
    16
147
1.0
148
0.0
149
0.0
100
AcDbLayout
  1
Layout1
 70
     1
 71
     1
 10
0.0
 20
0.0
 11
2100.0
 21
2970.0
 12
0.0
 22
0.0
 32
0.0
 14
0.0
 24
0.0
 34
0.0
 15
2100.0
 25
2970.0
 35
0.0
146
0.0
 13
0.0
 23
0.0
 33
0.0
 16
1.0
 26
0.0
 36
0.0
 17
0.0
 27
1.0
 37
0.0
 76
     0
330
1B
  0
LAYOUT
  5
26
102
{ACAD_REACTORS
330
1A
102
}
330
1A
100
AcDbPlotSettings
  1

  2

  4

  6

 40
0.0
 41
0.0
 42
0.0
 43
0.0
 44
0.0
 45
0.0
 46
0.0
 47
0.0
 48
0.0
 49
0.0
140
0.0
141
0.0
142
1.0
143
1.0
 70
   688
 72
     0
 73
     0
 74
     5
  7

 75
    16
147
1.0
148
0.0
149
0.0
100
AcDbLayout
  1
Layout2
 70
     1
 71
     2
 10
0.0
 20
0.0
 11
0.0
 21
0.0
 12
0.0
 22
0.0
 32
0.0
 14
0.0
 24
0.0
 34
0.0
 15
0.0
 25
0.0
 35
0.0
146
0.0
 13
0.0
 23
0.0
 33
0.0
 16
1.0
 26
0.0
 36
0.0
 17
0.0
 27
1.0
 37
0.0
 76
     0
330
23
  0
LAYOUT
  5
22
102
{ACAD_REACTORS
330
1A
102
}
330
1A
100
AcDbPlotSettings
  1

  2

  4

  6

 40
0.0
 41
0.0
 42
0.0
 43
0.0
 44
0.0
 45
0.0
 46
0.0
 47
0.0
 48
0.0
 49
0.0
140
0.0
141
0.0
142
1.0
143
1.0
 70
  1776
 72
     0
 73
     0
 74
     0
  7

 75
     0
147
1.0
148
0.0
149
0.0
100
AcDbLayout
  1
Model
 70
     1
 71
     0
 10
0.0
 20
0.0
 11
2100.0
 21
2970.0
 12
0.0
 22
0.0
 32
0.0
 14
0.0
 24
0.0
 34
0.0
 15
2100.0
 25
2970.0
 35
0.0
146
0.0
 13
0.0
 23
0.0
 33
0.0
 16
1.0
 26
0.0
 36
0.0
 17
0.0
 27
1.0
 37
0.0
 76
     0
330
1F
  0
MLINESTYLE
  5
18
102
{ACAD_REACTORS
330
17
102
}
330
17
100
AcDbMlineStyle
  2
Standard
 70
     0
  3

 62
   256
 51
90.0
 52
90.0
 71
     2
 49
0.5
 62
   256
  6
BYLAYER
 49
-0.5
 62
   256
  6
BYLAYER
  0
ACDBPLACEHOLDER
  5
F
102
{ACAD_REACTORS
330
E
102
}
330
E
  0
ENDSEC
  0
EOF
