  0
SECTION
  2
HEADER
  9
$ACADVER
  1
AC1015
  9
$ACADMAINTVER
 70
     6
  9
$DWGCODEPAGE
  3
ANSI_1252
  9
$INSBASE
 10
0.0
 20
0.0
 30
0.0
  9
$EXTMIN
 10
0.0
 20
0.0
 30
0.0
  9
$EXTMAX
 10
2100.0
 20
2970.0
 30
0.0
  9
$LIMMIN
 10
0.0
 20
0.0
  9
$LIMMAX
 10
2100.0
 20
2970.0
  9
$ORTHOMODE
 70
     0
  9
$REGENMODE
 70
     1
  9
$FILLMODE
 70
     1
  9
$QTEXTMODE
 70
     0
  9
$MIRRTEXT
 70
     1
  9
$LTSCALE
 40
10.0
  9
$ATTMODE
 70
     1
  9
$TEXTSIZE
 40
2.5
  9
$TRACEWID
 40
1.0
  9
$TEXTSTYLE
  7
Standard
  9
$CLAYER
  8
0
  9
$CELTYPE
  6
ByLayer
  9
$CECOLOR
 62
     7
  9
$CELTSCALE
 40
1.0
  9
$DISPSILH
 70
     0
  9
$DIMSCALE
 40
10.0
  9
$DIMASZ
 40
3.5
  9
$DIMEXO
 40
0.625
  9
$DIMDLI
 40
3.75
  9
$DIMRND
 40
0.0
  9
$DIMDLE
 40
0.0
  9
$DIMEXE
 40
1.25
  9
$DIMTP
 40
0.0
  9
$DIMTM
 40
0.0
  9
$DIMTXT
 40
3.5
  9
$DIMCEN
 40
2.5
  9
$DIMTSZ
 40
0.0
  9
$DIMTOL
 70
     0
  9
$DIMLIM
 70
     0
  9
$DIMTIH
 70
     0
  9
$DIMTOH
 70
     0
  9
$DIMSE1
 70
     0
  9
$DIMSE2
 70
     0
  9
$DIMTAD
 70
     1
  9
$DIMZIN
 70
     8
  9
$DIMBLK
  1

  9
$DIMASO
 70
     1
  9
$DIMSHO
 70
     1
  9
$DIMPOST
  1

  9
$DIMAPOST
  1

  9
$DIMALT
 70
     0
  9
$DIMALTD
 70
     3
  9
$DIMALTF
 40
0.03937
  9
$DIMLFAC
 40
1.0
  9
$DIMTOFL
 70
     1
  9
$DIMTVP
 40
0.0
  9
$DIMTIX
 70
     0
  9
$DIMSOXD
 70
     0
  9
$DIMSAH
 70
     0
  9
$DIMBLK1
  1

  9
$DIMBLK2
  1

  9
$DIMSTYLE
  2
ISO-25
  9
$DIMCLRD
 70
     0
  9
$DIMCLRE
 70
     0
  9
$DIMCLRT
 70
     0
  9
$DIMTFAC
 40
1.0
  9
$DIMGAP
 40
0.625
  9
$DIMJUST
 70
     0
  9
$DIMSD1
 70
     0
  9
$DIMSD2
 70
     0
  9
$DIMTOLJ
 70
     0
  9
$DIMTZIN
 70
     8
  9
$DIMALTZ
 70
     0
  9
$DIMALTTZ
 70
     0
  9
$DIMUPT
 70
     0
  9
$DIMDEC
 70
     2
  9
$DIMTDEC
 70
     2
  9
$DIMALTU
 70
     2
  9
$DIMALTTD
 70
     3
  9
$DIMTXSTY
  7
Standard
  9
$DIMAUNIT
 70
     0
  9
$DIMADEC
 70
     0
  9
$DIMALTRND
 40
0.0
  9
$DIMAZIN
 70
     0
  9
$DIMDSEP
 70
    44
  9
$DIMATFIT
 70
     3
  9
$DIMFRAC
 70
     0
  9
$DIMLDRBLK
  1

  9
$DIMLUNIT
 70
     2
  9
$DIMLWD
 70
    -2
  9
$DIMLWE
 70
    -2
  9
$DIMTMOVE
 70
     0
  9
$LUNITS
 70
     2
  9
$LUPREC
 70
     4
  9
$SKETCHINC
 40
1.0
  9
$FILLETRAD
 40
10.0
  9
$AUNITS
 70
     0
  9
$AUPREC
 70
     0
  9
$MENU
  1
.
  9
$ELEVATION
 40
0.0
  9
$PELEVATION
 40
0.0
  9
$THICKNESS
 40
0.0
  9
$LIMCHECK
 70
     0
  9
$CHAMFERA
 40
10.0
  9
$CHAMFERB
 40
10.0
  9
$CHAMFERC
 40
20.0
  9
$CHAMFERD
 40
0.0
  9
$SKPOLY
 70
     0
  9
$TDCREATE
 40
2455216.746883137
  9
$TDUCREATE
 40
2455216.70521647
  9
$TDUPDATE
 40
2455216.746883148
  9
$TDUUPDATE
 40
2455216.705216481
  9
$TDINDWG
 40
0.0000000116
  9
$TDUSRTIMER
 40
0.0000000116
  9
$USRTIMER
 70
     1
  9
$ANGBASE
 50
0.0
  9
$ANGDIR
 70
     0
  9
$PDMODE
 70
     0
  9
$PDSIZE
 40
0.0
  9
$PLINEWID
 40
0.0
  9
$SPLFRAME
 70
     0
  9
$SPLINETYPE
 70
     6
  9
$SPLINESEGS
 70
     8
  9
$HANDSEED
  5
69D
  9
$SURFTAB1
 70
     6
  9
$SURFTAB2
 70
     6
  9
$SURFTYPE
 70
     6
  9
$SURFU
 70
     6
  9
$SURFV
 70
     6
  9
$UCSBASE
  2

  9
$UCSNAME
  2

  9
$UCSORG
 10
0.0
 20
0.0
 30
0.0
  9
$UCSXDIR
 10
1.0
 20
0.0
 30
0.0
  9
$UCSYDIR
 10
0.0
 20
1.0
 30
0.0
  9
$UCSORTHOREF
  2

  9
$UCSORTHOVIEW
 70
     0
  9
$UCSORGTOP
 10
0.0
 20
0.0
 30
0.0
  9
$UCSORGBOTTOM
 10
0.0
 20
0.0
 30
0.0
  9
$UCSORGLEFT
 10
0.0
 20
0.0
 30
0.0
  9
$UCSORGRIGHT
 10
0.0
 20
0.0
 30
0.0
  9
$UCSORGFRONT
 10
0.0
 20
0.0
 30
0.0
  9
$UCSORGBACK
 10
0.0
 20
0.0
 30
0.0
  9
$PUCSBASE
  2

  9
$PUCSNAME
  2

  9
$PUCSORG
 10
0.0
 20
0.0
 30
0.0
  9
$PUCSXDIR
 10
1.0
 20
0.0
 30
0.0
  9
$PUCSYDIR
 10
0.0
 20
1.0
 30
0.0
  9
$PUCSORTHOREF
  2

  9
$PUCSORTHOVIEW
 70
     0
  9
$PUCSORGTOP
 10
0.0
 20
0.0
 30
0.0
  9
$PUCSORGBOTTOM
 10
0.0
 20
0.0
 30
0.0
  9
$PUCSORGLEFT
 10
0.0
 20
0.0
 30
0.0
  9
$PUCSORGRIGHT
 10
0.0
 20
0.0
 30
0.0
  9
$PUCSORGFRONT
 10
0.0
 20
0.0
 30
0.0
  9
$PUCSORGBACK
 10
0.0
 20
0.0
 30
0.0
  9
$USERI1
 70
     0
  9
$USERI2
 70
     0
  9
$USERI3
 70
     0
  9
$USERI4
 70
     0
  9
$USERI5
 70
     0
  9
$USERR1
 40
0.0
  9
$USERR2
 40
0.0
  9
$USERR3
 40
0.0
  9
$USERR4
 40
0.0
  9
$USERR5
 40
0.0
  9
$WORLDVIEW
 70
     1
  9
$SHADEDGE
 70
     3
  9
$SHADEDIF
 70
    70
  9
$TILEMODE
 70
     1
  9
$MAXACTVP
 70
    64
  9
$PINSBASE
 10
0.0
 20
0.0
 30
0.0
  9
$PLIMCHECK
 70
     0
  9
$PEXTMIN
 10
0.0
 20
0.0
 30
0.0
  9
$PEXTMAX
 10
2100.0
 20
2970.0
 30
0.0
  9
$PLIMMIN
 10
0.0
 20
0.0
  9
$PLIMMAX
 10
2100.0
 20
2970.0
  9
$UNITMODE
 70
     0
  9
$VISRETAIN
 70
     1
  9
$PLINEGEN
 70
     0
  9
$PSLTSCALE
 70
     1
  9
$TREEDEPTH
 70
  3020
  9
$CMLSTYLE
  2
Standard
  9
$CMLJUST
 70
     0
  9
$CMLSCALE
 40
20.0
  9
$PROXYGRAPHICS
 70
     1
  9
$MEASUREMENT
 70
     1
  9
$CELWEIGHT
370
    -1
  9
$ENDCAPS
280
     0
  9
$JOINSTYLE
280
     0
  9
$LWDISPLAY
290
     0
  9
$INSUNITS
 70
     4
  9
$HYPERLINKBASE
  1

  9
$STYLESHEET
  1

  9
$XEDIT
290
     1
  9
$CEPSNTYPE
380
     0
  9
$PSTYLEMODE
290
     1
  9
$FINGERPRINTGUID
  2
{FAEB1C30-E019-11D5-929B-00C0DF256EC4}
  9
$VERSIONGUID
  2
{FAEB1C32-E019-11D5-929B-00C0DF256EC4}
  9
$EXTNAMES
290
     1
  9
$PSVPSCALE
 40
0.0
  9
$OLESTARTUP
290
     0
  0
ENDSEC
  0
SECTION
  2
CLASSES
  0
CLASS
  1
ACDBDICTIONARYWDFLT
  2
AcDbDictionaryWithDefault
  3
ObjectDBX Classes
 90
        0
280
     0
281
     0
  0
CLASS
  1
ACDBPLACEHOLDER
  2
AcDbPlaceHolder
  3
ObjectDBX Classes
 90
        0
280
     0
281
     0
  0
CLASS
  1
LAYOUT
  2
AcDbLayout
  3
ObjectDBX Classes
 90
        0
280
     0
281
     0
  0
ENDSEC
  0
SECTION
  2
TABLES
  0
TABLE
  2
VPORT
  5
8
330
0
100
AcDbSymbolTable
 70
     2
  0
VPORT
  5
29
330
8
100
AcDbSymbolTableRecord
100
AcDbViewportTableRecord
  2
*ACTIVE
 70
     0
 10
0.0
 20
0.0
 11
1.0
 21
1.0
 12
1050.0
 22
1485.0
 13
0.0
 23
0.0
 14
1.0
 24
1.0
 15
0.0
 25
0.0
 16
0.0
 26
0.0
 36
1.0
 17
0.0
 27
0.0
 37
0.0
 40
2970.0
 41
0.707071
 42
50.0
 43
0.0
 44
0.0
 50
0.0
 51
0.0
 71
    16
 72
   100
 73
     1
 74
     0
 75
     0
 76
     0
 77
     0
 78
     0
281
     0
 65
     0
110
0.0
120
0.0
130
0.0
111
1.0
121
0.0
131
0.0
112
0.0
122
1.0
132
0.0
 79
     0
146
0.0
  0
ENDTAB
  0
TABLE
  2
LTYPE
  5
5
330
0
100
AcDbSymbolTable
 70
     4
  0
LTYPE
  5
14
330
5
100
AcDbSymbolTableRecord
100
AcDbLinetypeTableRecord
  2
ByBlock
 70
     0
  3

 72
    65
 73
     0
 40
0.0
  0
LTYPE
  5
15
330
5
100
AcDbSymbolTableRecord
100
AcDbLinetypeTableRecord
  2
ByLayer
 70
     0
  3

 72
    65
 73
     0
 40
0.0
  0
LTYPE
  5
16
330
5
100
AcDbSymbolTableRecord
100
AcDbLinetypeTableRecord
  2
Continuous
 70
     0
  3
Solid line
 72
    65
 73
     0
 40
0.0
  0
LTYPE
  5
2A
330
5
100
AcDbSymbolTableRecord
100
AcDbLinetypeTableRecord
  2
DASHED
 70
     0
  3
__ __ __ __ __
 72
    65
 73
     2
 40
6.25
 49
5.0
 74
     4
 75
     0
340
0
 46
1.0
 50
0.0
 44
0.0
 45
0.0
 49
-1.25
 74
     4
 75
     0
340
0
 46
1.0
 50
0.0
 44
0.0
 45
0.0
  0
LTYPE
  5
105
330
5
100
AcDbSymbolTableRecord
100
AcDbLinetypeTableRecord
  2
CENTER
 70
     0
  3
__ . __ . __ . __ . __
 72
    65
 73
     4
 40
7.5
 49
5.0
 74
     4
 75
     0
340
0
 46
1.0
 50
0.0
 44
0.0
 45
0.0
 49
-1.25
 74
     4
 75
     0
340
0
 46
1.0
 50
0.0
 44
0.0
 45
0.0
 49
0.0
 74
     4
 75
     0
340
0
 46
1.0
 50
0.0
 44
0.0
 45
0.0
 49
-1.25
 74
     4
 75
     0
340
0
 46
1.0
 50
0.0
 44
0.0
 45
0.0
  0
LTYPE
  5
12E
330
5
100
AcDbSymbolTableRecord
100
AcDbLinetypeTableRecord
  2
DASHDOT
 70
     0
  3
__ . __ . __ . __ . __
 72
    65
 73
     4
 40
7.5
 49
5.0
 74
     4
 75
     0
340
0
 46
1.0
 50
0.0
 44
0.0
 45
0.0
 49
-1.25
 74
     4
 75
     0
340
0
 46
1.0
 50
0.0
 44
0.0
 45
0.0
 49
0.0
 74
     4
 75
     0
340
0
 46
1.0
 50
0.0
 44
0.0
 45
0.0
 49
-1.25
 74
     4
 75
     0
340
0
 46
1.0
 50
0.0
 44
0.0
 45
0.0
  0
ENDTAB
  0
TABLE
  2
LAYER
  5
2
330
0
100
AcDbSymbolTable
 70
    16
  0
LAYER
  5
10
330
2
100
AcDbSymbolTableRecord
100
AcDbLayerTableRecord
  2
0
 70
     0
 62
     7
  6
Continuous
370
    -3
390
F
  0
LAYER
  5
2B
330
2
100
AcDbSymbolTableRecord
100
AcDbLayerTableRecord
  2
LC-INFO-1-10-mm-A4H-0
 70
     1
 62
     7
  6
ByBlock
370
    -3
390
F
  0
LAYER
  5
2C
330
2
100
AcDbSymbolTableRecord
100
AcDbLayerTableRecord
  2
LC-CUT-HIDDEN
 70
     0
 62
     7
  6
DASHED
370
    -3
390
F
  0
LAYER
  5
2D
330
2
100
AcDbSymbolTableRecord
100
AcDbLayerTableRecord
  2
LC-VIEWPORT
 70
     0
 62
     7
  6
ByBlock
370
    -3
390
F
  0
LAYER
  5
2E
330
2
100
AcDbSymbolTableRecord
100
AcDbLayerTableRecord
  2
LC-3D-HIDDEN
 70
     0
 62
     9
  6
DASHED
370
    -3
390
F
  0
LAYER
  5
33
330
2
100
AcDbSymbolTableRecord
100
AcDbLayerTableRecord
  2
LC-001-111-----0
 70
     0
 62
   253
  6
ByBlock
370
    -3
390
F
  0
LAYER
  5
A1
330
2
100
AcDbSymbolTableRecord
100
AcDbLayerTableRecord
  2
LC-002-002-----0
 70
     0
 62
     1
  6
ByBlock
370
    -3
390
F
  0
LAYER
  5
103
330
2
100
AcDbSymbolTableRecord
100
AcDbLayerTableRecord
  2
LC-003-230-ZVN-0
 70
     0
 62
     2
  6
ByBlock
370
    -3
390
F
  0
LAYER
  5
106
330
2
100
AcDbSymbolTableRecord
100
AcDbLayerTableRecord
  2
LC-004-006-MLN-0
 70
     0
 62
     2
  6
CENTER
370
    -3
390
F
  0
LAYER
  5
11F
330
2
100
AcDbSymbolTableRecord
100
AcDbLayerTableRecord
  2
LC-005-002-RND-0
 70
     0
 62
     2
  6
ByBlock
370
    -3
390
F
  0
LAYER
  5
175
330
2
100
AcDbSymbolTableRecord
100
AcDbLayerTableRecord
  2
LC-006-100-D00-0
 70
     0
 62
    44
  6
ByBlock
370
    -3
390
F
  0
LAYER
  5
235
330
2
100
AcDbSymbolTableRecord
100
AcDbLayerTableRecord
  2
LC-007-005-----0
 70
     0
 62
     2
  6
ByBlock
370
    -3
390
F
  0
LAYER
  5
243
330
2
100
AcDbSymbolTableRecord
100
AcDbLayerTableRecord
  2
LC-008-003-MTH-0
 70
     0
 62
     2
  6
ByBlock
370
    -3
390
F
  0
LAYER
  5
246
330
2
100
AcDbSymbolTableRecord
100
AcDbLayerTableRecord
  2
LC-009-003-MTG-0
 70
     0
 62
     2
  6
ByBlock
370
    -3
390
F
  0
LAYER
  5
248
330
2
100
AcDbSymbolTableRecord
100
AcDbLayerTableRecord
  2
LC-010-003-----0
 70
     0
 62
     2
  6
ByBlock
370
    -3
390
F
  0
LAYER
  5
5F2
330
2
100
AcDbSymbolTableRecord
100
AcDbLayerTableRecord
  2
LC-011-004-----0
 70
     0
 62
     7
  6
ByBlock
370
    -3
390
F
  0
ENDTAB
  0
TABLE
  2
STYLE
  5
3
330
0
100
AcDbSymbolTable
 70
     2
  0
STYLE
  5
11
330
3
100
AcDbSymbolTableRecord
100
AcDbTextStyleTableRecord
  2
Standard
 70
     0
 40
0.0
 41
1.0
 50
0.0
 71
     0
 42
2.5
  3
txt
  4

  0
STYLE
  5
2F
330
3
100
AcDbSymbolTableRecord
100
AcDbTextStyleTableRecord
  2
LCTX0-400-0-0pDIN-Schrift
 70
     0
 40
0.0
 41
0.7
 50
0.0
 71
     0
 42
3.5
  3
TXT
  4

  0
ENDTAB
  0
TABLE
  2
VIEW
  5
6
330
0
100
AcDbSymbolTable
 70
     0
  0
ENDTAB
  0
TABLE
  2
UCS
  5
7
330
0
100
AcDbSymbolTable
 70
     0
  0
ENDTAB
  0
TABLE
  2
APPID
  5
9
330
0
100
AcDbSymbolTable
 70
     1
  0
APPID
  5
12
330
9
100
AcDbSymbolTableRecord
100
AcDbRegAppTableRecord
  2
ACAD
 70
     0
  0
ENDTAB
  0
TABLE
  2
DIMSTYLE
  5
A
330
0
100
AcDbSymbolTable
 70
     1
100
AcDbDimStyleTable
  0
DIMSTYLE
105
27
330
A
100
AcDbSymbolTableRecord
100
AcDbDimStyleTableRecord
  2
ISO-25
 70
     0
 41
2.5
 42
0.625
 43
3.75
 44
1.25
 73
     0
 74
     0
 77
     1
 78
     8
140
2.5
141
2.5
143
0.03937
147
0.625
171
     3
172
     1
271
     2
272
     2
274
     3
278
    44
283
     0
284
     8
340
11
  0
ENDTAB
  0
TABLE
  2
BLOCK_RECORD
  5
1
330
0
100
AcDbSymbolTable
 70
    35
  0
BLOCK_RECORD
  5
1F
330
1
100
AcDbSymbolTableRecord
100
AcDbBlockTableRecord
  2
*Model_Space
340
22
  0
BLOCK_RECORD
  5
1B
330
1
100
AcDbSymbolTableRecord
100
AcDbBlockTableRecord
  2
*Paper_Space
340
1E
  0
BLOCK_RECORD
  5
23
330
1
100
AcDbSymbolTableRecord
100
AcDbBlockTableRecord
  2
*Paper_Space0
340
26
  0
BLOCK_RECORD
  5
30
330
1
100
AcDbSymbolTableRecord
100
AcDbBlockTableRecord
  2
SYM1
340
0
102
{BLKREFS
331
104
102
}
  0
BLOCK_RECORD
  5
1BD
330
1
100
AcDbSymbolTableRecord
100
AcDbBlockTableRecord
  2
KLON1
340
0
102
{BLKREFS
331
1C2
102
}
  0
BLOCK_RECORD
  5
1CA
330
1
100
AcDbSymbolTableRecord
100
AcDbBlockTableRecord
  2
KLON2
340
0
102
{BLKREFS
331
1D5
102
}
  0
BLOCK_RECORD
  5
232
330
1
100
AcDbSymbolTableRecord
100
AcDbBlockTableRecord
  2
*X14
340
0
102
{BLKREFS
331
23E
102
}
  0
BLOCK_RECORD
  5
240
330
1
100
AcDbSymbolTableRecord
100
AcDbBlockTableRecord
  2
LCDIM1
340
0
102
{BLKREFS
331
25C
102
}
  0
BLOCK_RECORD
  5
25D
330
1
100
AcDbSymbolTableRecord
100
AcDbBlockTableRecord
  2
LCDIM2
340
0
102
{BLKREFS
331
276
102
}
  0
BLOCK_RECORD
  5
277
330
1
100
AcDbSymbolTableRecord
100
AcDbBlockTableRecord
  2
LCDIM3
340
0
102
{BLKREFS
331
290
102
}
  0
BLOCK_RECORD
  5
291
330
1
100
AcDbSymbolTableRecord
100
AcDbBlockTableRecord
  2
LCDIM4
340
0
102
{BLKREFS
331
2AA
102
}
  0
BLOCK_RECORD
  5
32C
330
1
100
AcDbSymbolTableRecord
100
AcDbBlockTableRecord
  2
POLY1
340
0
102
{BLKREFS
331
355
102
}
  0
BLOCK_RECORD
  5
356
330
1
100
AcDbSymbolTableRecord
100
AcDbBlockTableRecord
  2
POLY2
340
0
102
{BLKREFS
331
377
102
}
  0
BLOCK_RECORD
  5
39A
330
1
100
AcDbSymbolTableRecord
100
AcDbBlockTableRecord
  2
POLY3
340
0
102
{BLKREFS
331
3A7
102
}
  0
BLOCK_RECORD
  5
3A8
330
1
100
AcDbSymbolTableRecord
100
AcDbBlockTableRecord
  2
POLY4
340
0
102
{BLKREFS
331
3B5
102
}
  0
BLOCK_RECORD
  5
3E4
330
1
100
AcDbSymbolTableRecord
100
AcDbBlockTableRecord
  2
POLY5
340
0
102
{BLKREFS
331
3F3
102
}
  0
BLOCK_RECORD
  5
3F5
330
1
100
AcDbSymbolTableRecord
100
AcDbBlockTableRecord
  2
POLY6
340
0
102
{BLKREFS
331
404
102
}
  0
BLOCK_RECORD
  5
406
330
1
100
AcDbSymbolTableRecord
100
AcDbBlockTableRecord
  2
POLY7
340
0
102
{BLKREFS
331
415
102
}
  0
BLOCK_RECORD
  5
451
330
1
100
AcDbSymbolTableRecord
100
AcDbBlockTableRecord
  2
POLY8
340
0
102
{BLKREFS
331
472
102
}
  0
BLOCK_RECORD
  5
495
330
1
100
AcDbSymbolTableRecord
100
AcDbBlockTableRecord
  2
POLY9
340
0
102
{BLKREFS
331
4A2
102
}
  0
BLOCK_RECORD
  5
4A3
330
1
100
AcDbSymbolTableRecord
100
AcDbBlockTableRecord
  2
POLY10
340
0
102
{BLKREFS
331
4B0
102
}
  0
BLOCK_RECORD
  5
4F8
330
1
100
AcDbSymbolTableRecord
100
AcDbBlockTableRecord
  2
POLY11
340
0
102
{BLKREFS
331
507
102
}
  0
BLOCK_RECORD
  5
50C
330
1
100
AcDbSymbolTableRecord
100
AcDbBlockTableRecord
  2
LCDIM5
340
0
102
{BLKREFS
331
525
102
}
  0
BLOCK_RECORD
  5
526
330
1
100
AcDbSymbolTableRecord
100
AcDbBlockTableRecord
  2
LCDIM6
340
0
102
{BLKREFS
331
53F
102
}
  0
BLOCK_RECORD
  5
540
330
1
100
AcDbSymbolTableRecord
100
AcDbBlockTableRecord
  2
LCDIM7
340
0
102
{BLKREFS
331
559
102
}
  0
BLOCK_RECORD
  5
55A
330
1
100
AcDbSymbolTableRecord
100
AcDbBlockTableRecord
  2
LCDIM8
340
0
102
{BLKREFS
331
573
102
}
  0
BLOCK_RECORD
  5
57B
330
1
100
AcDbSymbolTableRecord
100
AcDbBlockTableRecord
  2
LCDIM9
340
0
102
{BLKREFS
331
594
102
}
  0
BLOCK_RECORD
  5
595
330
1
100
AcDbSymbolTableRecord
100
AcDbBlockTableRecord
  2
LCDIM10
340
0
102
{BLKREFS
331
5AE
102
}
  0
BLOCK_RECORD
  5
5AF
330
1
100
AcDbSymbolTableRecord
100
AcDbBlockTableRecord
  2
LCDIM11
340
0
102
{BLKREFS
331
5C8
102
}
  0
BLOCK_RECORD
  5
5C9
330
1
100
AcDbSymbolTableRecord
100
AcDbBlockTableRecord
  2
LCDIM12
340
0
102
{BLKREFS
331
5E2
102
}
  0
BLOCK_RECORD
  5
5E3
330
1
100
AcDbSymbolTableRecord
100
AcDbBlockTableRecord
  2
LCDIM13
340
0
102
{BLKREFS
331
5F1
102
}
  0
BLOCK_RECORD
  5
5F9
330
1
100
AcDbSymbolTableRecord
100
AcDbBlockTableRecord
  2
LCDIM14
340
0
102
{BLKREFS
331
612
102
}
  0
BLOCK_RECORD
  5
613
330
1
100
AcDbSymbolTableRecord
100
AcDbBlockTableRecord
  2
LCDIM15
340
0
102
{BLKREFS
331
62C
102
}
  0
BLOCK_RECORD
  5
62D
330
1
100
AcDbSymbolTableRecord
100
AcDbBlockTableRecord
  2
LCDIM16
340
0
102
{BLKREFS
331
63B
102
}
  0
BLOCK_RECORD
  5
63D
330
1
100
AcDbSymbolTableRecord
100
AcDbBlockTableRecord
  2
LCDIM17
340
0
102
{BLKREFS
331
656
102
}
  0
BLOCK_RECORD
  5
657
330
1
100
AcDbSymbolTableRecord
100
AcDbBlockTableRecord
  2
LCDIM18
340
0
102
{BLKREFS
331
670
102
}
  0
BLOCK_RECORD
  5
672
330
1
100
AcDbSymbolTableRecord
100
AcDbBlockTableRecord
  2
LCDIM19
340
0
102
{BLKREFS
331
68B
102
}
  0
ENDTAB
  0
ENDSEC
  0
SECTION
  2
BLOCKS
  0
BLOCK
  5
20
330
1F
100
AcDbEntity
  8
0
100
AcDbBlockBegin
  2
*Model_Space
 70
     0
 71
     0
 10
0.0
 20
0.0
 30
0.0
  3
*Model_Space
  1

  0
ENDBLK
  5
21
330
1F
100
AcDbEntity
  8
0
100
AcDbBlockEnd
  0
BLOCK
  5
1C
330
1B
100
AcDbEntity
 67
     1
  8
0
100
AcDbBlockBegin
  2
*Paper_Space
 70
     0
 71
     0
 10
0.0
 20
0.0
 30
0.0
  3
*Paper_Space
  1

  0
ENDBLK
  5
1D
330
1B
100
AcDbEntity
 67
     1
  8
0
100
AcDbBlockEnd
  0
BLOCK
  5
24
330
23
100
AcDbEntity
  8
0
100
AcDbBlockBegin
  2
*Paper_Space0
 70
     0
 71
     0
 10
0.0
 20
0.0
 30
0.0
  3
*Paper_Space0
  1

  0
ENDBLK
  5
25
330
23
100
AcDbEntity
  8
0
100
AcDbBlockEnd
  0
BLOCK
  5
31
330
30
100
AcDbEntity
  8
0
100
AcDbBlockBegin
  2
SYM1
 70
     0
 71
     0
 10
0.0
 20
0.0
 30
0.0
  3
SYM1
  1

  4
SYM1
  0
LINE
  5
34
330
30
100
AcDbEntity
  8
LC-001-111-----0
 62
   253
370
    50
100
AcDbLine
 10
2050.0
 20
50.0
 30
0.0
 11
2050.0
 21
2920.0
 31
0.0
  0
LINE
  5
35
330
30
100
AcDbEntity
  8
LC-001-111-----0
 62
   253
370
    25
100
AcDbLine
 10
178.0
 20
220.0
 30
0.0
 11
724.0
 21
220.0
 31
0.0
  0
LINE
  5
36
330
30
100
AcDbEntity
  8
LC-001-111-----0
 62
   253
370
    35
100
AcDbLine
 10
724.0
 20
220.0
 30
0.0
 11
2050.0
 21
220.0
 31
0.0
  0
LINE
  5
37
330
30
100
AcDbEntity
  8
LC-001-111-----0
 62
   253
370
    50
100
AcDbLine
 10
178.0
 20
602.5
 30
0.0
 11
2050.0
 21
602.5
 31
0.0
  0
LINE
  5
38
330
30
100
AcDbEntity
  8
LC-001-111-----0
 62
   253
370
    25
100
AcDbLine
 10
178.0
 20
92.5
 30
0.0
 11
2050.0
 21
92.5
 31
0.0
  0
LINE
  5
39
330
30
100
AcDbEntity
  8
LC-001-111-----0
 62
   253
370
    25
100
AcDbLine
 10
178.0
 20
135.0
 30
0.0
 11
724.0
 21
135.0
 31
0.0
  0
LINE
  5
3A
330
30
100
AcDbEntity
  8
LC-001-111-----0
 62
   253
370
    25
100
AcDbLine
 10
178.0
 20
177.5
 30
0.0
 11
724.0
 21
177.5
 31
0.0
  0
LINE
  5
3B
330
30
100
AcDbEntity
  8
LC-001-111-----0
 62
   253
370
    25
100
AcDbLine
 10
178.0
 20
262.5
 30
0.0
 11
1166.0
 21
262.5
 31
0.0
  0
LINE
  5
3C
330
30
100
AcDbEntity
  8
LC-001-111-----0
 62
   253
370
    25
100
AcDbLine
 10
178.0
 20
305.0
 30
0.0
 11
1166.0
 21
305.0
 31
0.0
  0
LINE
  5
3D
330
30
100
AcDbEntity
  8
LC-001-111-----0
 62
   253
370
    25
100
AcDbLine
 10
178.0
 20
347.5
 30
0.0
 11
1166.0
 21
347.5
 31
0.0
  0
LINE
  5
3E
330
30
100
AcDbEntity
  8
LC-001-111-----0
 62
   253
370
    25
100
AcDbLine
 10
178.0
 20
390.0
 30
0.0
 11
1166.0
 21
390.0
 31
0.0
  0
LINE
  5
3F
330
30
100
AcDbEntity
  8
LC-001-111-----0
 62
   253
370
    35
100
AcDbLine
 10
178.0
 20
432.5
 30
0.0
 11
2050.0
 21
432.5
 31
0.0
  0
LINE
  5
40
330
30
100
AcDbEntity
  8
LC-001-111-----0
 62
   253
370
    25
100
AcDbLine
 10
828.0
 20
262.5
 30
0.0
 11
828.0
 21
432.5
 31
0.0
  0
LINE
  5
41
330
30
100
AcDbEntity
  8
LC-001-111-----0
 62
   253
370
    35
100
AcDbLine
 10
1920.0
 20
92.5
 30
0.0
 11
1920.0
 21
220.0
 31
0.0
  0
LINE
  5
42
330
30
100
AcDbEntity
  8
LC-001-111-----0
 62
   253
370
    25
100
AcDbLine
 10
1166.0
 20
538.75
 30
0.0
 11
2050.0
 21
538.75
 31
0.0
  0
LINE
  5
43
330
30
100
AcDbEntity
  8
LC-001-111-----0
 62
   253
370
    25
100
AcDbLine
 10
256.0
 20
50.0
 30
0.0
 11
256.0
 21
432.5
 31
0.0
  0
LINE
  5
44
330
30
100
AcDbEntity
  8
LC-001-111-----0
 62
   253
370
    25
100
AcDbLine
 10
516.0
 20
50.0
 30
0.0
 11
516.0
 21
432.5
 31
0.0
  0
LINE
  5
45
330
30
100
AcDbEntity
  8
LC-001-111-----0
 62
   253
370
    25
100
AcDbLine
 10
646.0
 20
50.0
 30
0.0
 11
646.0
 21
432.5
 31
0.0
  0
LINE
  5
46
330
30
100
AcDbEntity
  8
LC-001-111-----0
 62
   253
370
    35
100
AcDbLine
 10
724.0
 20
50.0
 30
0.0
 11
724.0
 21
602.5
 31
0.0
  0
LINE
  5
47
330
30
100
AcDbEntity
  8
LC-001-111-----0
 62
   253
370
    35
100
AcDbLine
 10
1166.0
 20
50.0
 30
0.0
 11
1166.0
 21
602.5
 31
0.0
  0
LINE
  5
48
330
30
100
AcDbEntity
  8
LC-001-111-----0
 62
   253
370
    25
100
AcDbLine
 10
1920.0
 20
135.0
 30
0.0
 11
2050.0
 21
135.0
 31
0.0
  0
LINE
  5
49
330
30
100
AcDbEntity
  8
LC-001-111-----0
 62
   253
370
    25
100
AcDbLine
 10
984.0
 20
220.0
 30
0.0
 11
984.0
 21
602.5
 31
0.0
  0
LINE
  5
4A
330
30
100
AcDbEntity
  8
LC-001-111-----0
 62
   253
370
    25
100
AcDbLine
 10
1686.0
 20
538.75
 30
0.0
 11
1686.0
 21
602.5
 31
0.0
  0
LINE
  5
4B
330
30
100
AcDbEntity
  8
LC-001-111-----0
 62
   253
370
    25
100
AcDbLine
 10
1608.0
 20
50.0
 30
0.0
 11
1608.0
 21
92.5
 31
0.0
  0
LINE
  5
4C
330
30
100
AcDbEntity
  8
LC-001-111-----0
 62
   253
370
    50
100
AcDbLine
 10
178.0
 20
50.0
 30
0.0
 11
178.0
 21
2920.0
 31
0.0
  0
LINE
  5
4D
330
30
100
AcDbEntity
  8
LC-001-111-----0
 62
   253
370
    50
100
AcDbLine
 10
178.0
 20
2920.0
 30
0.0
 11
2050.0
 21
2920.0
 31
0.0
  0
TEXT
  5
4E
330
30
100
AcDbEntity
  8
LC-001-111-----0
 62
     7
370
    25
100
AcDbText
 10
1471.410714
 20
558.125
 30
0.0
 40
25.0
  1
1:10
 41
0.75
  7
LCTX0-400-0-0pDIN-Schrift
 72
     1
 11
1504.0
 21
558.125
 31
0.0
100
AcDbText
  0
TEXT
  5
4F
330
30
100
AcDbEntity
  8
LC-001-111-----0
 62
     7
370
    25
100
AcDbText
 10
1947.410714
 20
101.25
 30
0.0
 40
25.0
  1
1
 41
0.75
  7
LCTX0-400-0-0pDIN-Schrift
 72
     1
 11
1955.0
 21
101.25
 31
0.0
100
AcDbText
  0
TEXT
  5
50
330
30
100
AcDbEntity
  8
LC-001-111-----0
 62
     7
370
    25
100
AcDbText
 10
740.285714
 20
398.75
 30
0.0
 40
25.0
  1
2008
 41
0.75
  7
LCTX0-400-0-0pDIN-Schrift
 72
     1
 11
776.0
 21
398.75
 31
0.0
100
AcDbText
  0
TEXT
  5
51
330
30
100
AcDbEntity
  8
LC-001-111-----0
 62
     7
370
    25
100
AcDbText
 10
861.803571
 20
356.25
 30
0.0
 40
25.0
  1
29.10.
 41
0.75
  7
LCTX0-400-0-0pDIN-Schrift
 72
     1
 11
906.0
 21
356.25
 31
0.0
100
AcDbText
  0
TEXT
  5
52
330
30
100
AcDbEntity
  8
LC-001-111-----0
 62
     7
370
    25
100
AcDbText
 10
1056.696429
 20
356.25
 30
0.0
 40
25.0
  1
HÄ
 41
0.75
  7
LCTX0-400-0-0pDIN-Schrift
 72
     1
 11
1075.0
 21
356.25
 31
0.0
100
AcDbText
  0
TEXT
  5
53
330
30
100
AcDbEntity
  8
LC-001-111-----0
 62
   253
370
    20
100
AcDbText
 10
1183.923077
 20
560.625
 30
0.0
 40
20.0
  1
Maßstab
 41
0.75
  7
LCTX0-400-0-0pDIN-Schrift
100
AcDbText
  0
TEXT
  5
54
330
30
100
AcDbEntity
  8
LC-001-111-----0
 62
   253
370
    20
100
AcDbText
 10
869.928571
 20
401.25
 30
0.0
 40
20.0
  1
Datum
 41
0.75
  7
LCTX0-400-0-0pDIN-Schrift
 72
     1
 11
906.0
 21
401.25
 31
0.0
100
AcDbText
  0
TEXT
  5
55
330
30
100
AcDbEntity
  8
LC-001-111-----0
 62
   253
370
    20
100
AcDbText
 10
1042.857143
 20
401.25
 30
0.0
 40
20.0
  1
Name
 41
0.75
  7
LCTX0-400-0-0pDIN-Schrift
 72
     1
 11
1075.0
 21
401.25
 31
0.0
100
AcDbText
  0
TEXT
  5
56
330
30
100
AcDbEntity
  8
LC-001-111-----0
 62
   253
370
    20
100
AcDbText
 10
741.923077
 20
358.75
 30
0.0
 40
20.0
  1
Bearb.
 41
0.75
  7
LCTX0-400-0-0pDIN-Schrift
100
AcDbText
  0
TEXT
  5
57
330
30
100
AcDbEntity
  8
LC-001-111-----0
 62
   253
370
    20
100
AcDbText
 10
741.923077
 20
316.25
 30
0.0
 40
20.0
  1
Gepr.
 41
0.75
  7
LCTX0-400-0-0pDIN-Schrift
100
AcDbText
  0
TEXT
  5
58
330
30
100
AcDbEntity
  8
LC-001-111-----0
 62
   253
370
    20
100
AcDbText
 10
741.923077
 20
273.75
 30
0.0
 40
20.0
  1
Norm
 41
0.75
  7
LCTX0-400-0-0pDIN-Schrift
100
AcDbText
  0
TEXT
  5
59
330
30
100
AcDbEntity
  8
LC-001-111-----0
 62
   253
370
    20
100
AcDbText
 10
1937.923077
 20
188.75
 30
0.0
 40
20.0
  1
Blatt
 41
0.75
  7
LCTX0-400-0-0pDIN-Schrift
100
AcDbText
  0
TEXT
  5
5A
330
30
100
AcDbEntity
  8
LC-001-111-----0
 62
   253
370
    20
100
AcDbText
 10
2012.076923
 20
103.75
 30
0.0
 40
20.0
  1
Bl.
 41
0.75
  7
LCTX0-400-0-0pDIN-Schrift
 72
     2
 11
2037.076923
 21
103.75
 31
0.0
100
AcDbText
  0
TEXT
  5
5B
330
30
100
AcDbEntity
  8
LC-001-111-----0
 62
   253
370
    20
100
AcDbText
 10
200.0
 20
61.25
 30
0.0
 40
20.0
  1
Zust.
 41
0.6
  7
LCTX0-400-0-0pDIN-Schrift
 72
     1
 11
222.0
 21
61.25
 31
0.0
100
AcDbText
  0
TEXT
  5
5C
330
30
100
AcDbEntity
  8
LC-001-111-----0
 62
   253
370
    20
100
AcDbText
 10
334.928571
 20
61.25
 30
0.0
 40
20.0
  1
Änderung
 41
0.75
  7
LCTX0-400-0-0pDIN-Schrift
 72
     1
 11
386.0
 21
61.25
 31
0.0
100
AcDbText
  0
TEXT
  5
5D
330
30
100
AcDbEntity
  8
LC-001-111-----0
 62
   253
370
    20
100
AcDbText
 10
544.928571
 20
61.25
 30
0.0
 40
20.0
  1
Datum
 41
0.75
  7
LCTX0-400-0-0pDIN-Schrift
 72
     1
 11
581.0
 21
61.25
 31
0.0
100
AcDbText
  0
TEXT
  5
5E
330
30
100
AcDbEntity
  8
LC-001-111-----0
 62
   253
370
    20
100
AcDbText
 10
652.857143
 20
61.25
 30
0.0
 40
20.0
  1
Name
 41
0.75
  7
LCTX0-400-0-0pDIN-Schrift
 72
     1
 11
685.0
 21
61.25
 31
0.0
100
AcDbText
  0
TEXT
  5
5F
330
30
100
AcDbEntity
  8
LC-001-111-----0
 62
     7
370
    50
100
AcDbText
 10
1326.75
 20
343.75
 30
0.0
 40
50.0
  1
Typos D-100 small
 41
0.75
  7
LCTX0-400-0-0pDIN-Schrift
 72
     1
 11
1608.0
 21
343.75
 31
0.0
100
AcDbText
  0
TEXT
  5
60
330
30
100
AcDbEntity
  8
LC-001-111-----0
 62
     7
370
    50
100
AcDbText
 10
1328.714286
 20
131.25
 30
0.0
 40
50.0
  1
4.08.741.04.00
 41
0.75
  7
LCTX0-400-0-0pDIN-Schrift
 72
     1
 11
1543.0
 21
131.25
 31
0.0
100
AcDbText
  0
ARC
  5
61
330
30
100
AcDbEntity
  8
LC-001-111-----0
 62
   253
370
    25
100
AcDbCircle
 10
758.903191
 20
174.567744
 30
0.0
 40
20.81533311668208
100
AcDbArc
 50
62.408264
 51
94.48185
  0
LINE
  5
62
330
30
100
AcDbEntity
  8
LC-001-111-----0
 62
   253
370
    50
100
AcDbLine
 10
178.0
 20
50.0
 30
0.0
 11
2050.0
 21
50.0
 31
0.0
  0
LINE
  5
63
330
30
100
AcDbEntity
  8
LC-001-111-----0
 62
   253
370
    25
100
AcDbLine
 10
50.0
 20
1485.0
 30
0.0
 11
0.0
 21
1485.0
 31
0.0
  0
LINE
  5
64
330
30
100
AcDbEntity
  8
LC-001-111-----0
 62
   253
370
    25
100
AcDbLine
 10
1063.835603
 20
195.169147
 30
0.0
 11
1063.835603
 21
157.149147
 31
0.0
  0
LINE
  5
65
330
30
100
AcDbEntity
  8
LC-001-111-----0
 62
   253
370
    25
100
AcDbLine
 10
2100.0
 20
2970.0
 30
0.0
 11
2100.0
 21
0.0
 31
0.0
  0
LINE
  5
66
330
30
100
AcDbEntity
  8
LC-001-111-----0
 62
   253
370
    25
100
AcDbLine
 10
2100.0
 20
0.0
 30
0.0
 11
0.0
 21
0.0
 31
0.0
  0
LINE
  5
67
330
30
100
AcDbEntity
  8
LC-001-111-----0
 62
   253
370
    25
100
AcDbLine
 10
0.0
 20
0.0
 30
0.0
 11
0.0
 21
2970.0
 31
0.0
  0
LINE
  5
68
330
30
100
AcDbEntity
  8
LC-001-111-----0
 62
   253
370
    25
100
AcDbLine
 10
2100.0
 20
2970.0
 30
0.0
 11
0.0
 21
2970.0
 31
0.0
  0
TEXT
  5
69
330
30
100
AcDbEntity
  8
LC-001-111-----0
 62
   253
370
    20
100
AcDbText
 10
763.0
 20
111.159147
 30
0.0
 40
20.0
  1
Hofbauerstraße1 · D-94209 REGEN
 41
0.65
  7
LCTX0-400-0-0pDIN-Schrift
 72
     1
 11
945.0
 21
111.159147
 31
0.0
100
AcDbText
  0
ARC
  5
6A
330
30
100
AcDbEntity
  8
LC-001-111-----0
 62
   253
370
    25
100
AcDbCircle
 10
758.032826
 20
185.671748
 30
0.0
 40
9.677270814709853
100
AcDbArc
 50
94.48185
 51
252.731329
  0
ARC
  5
6B
330
30
100
AcDbEntity
  8
LC-001-111-----0
 62
   253
370
    25
100
AcDbCircle
 10
823.845603
 20
176.159147
 30
0.0
 40
19.01000000000008
100
AcDbArc
 50
74.719456
 51
285.280544
  0
LINE
  5
6C
330
30
100
AcDbEntity
  8
LC-001-111-----0
 62
   253
370
    25
100
AcDbLine
 10
828.855603
 20
157.821208
 30
0.0
 11
828.855603
 21
163.204148
 31
0.0
  0
ARC
  5
6D
330
30
100
AcDbEntity
  8
LC-001-111-----0
 62
   253
370
    25
100
AcDbCircle
 10
823.845603
 20
176.159147
 30
0.0
 40
13.88999999999995
100
AcDbArc
 50
68.857352
 51
291.142648
  0
ARC
  5
6E
330
30
100
AcDbEntity
  8
LC-001-111-----0
 62
   253
370
    25
100
AcDbCircle
 10
823.845603
 20
176.159147
 30
0.0
 40
12.39000000000002
100
AcDbArc
 50
58.303227
 51
301.696773
  0
ARC
  5
6F
330
30
100
AcDbEntity
  8
LC-001-111-----0
 62
   253
370
    25
100
AcDbCircle
 10
1019.845603
 20
176.159147
 30
0.0
 40
19.01000000000008
100
AcDbArc
 50
74.719456
 51
285.280544
  0
LINE
  5
70
330
30
100
AcDbEntity
  8
LC-001-111-----0
 62
   253
370
    25
100
AcDbLine
 10
830.355603
 20
165.617231
 30
0.0
 11
830.355603
 21
156.709726
 31
0.0
  0
LINE
  5
71
330
30
100
AcDbEntity
  8
LC-001-111-----0
 62
   253
370
    25
100
AcDbLine
 10
755.160101
 20
176.430697
 30
0.0
 11
762.683613
 21
174.091896
 31
0.0
  0
ARC
  5
72
330
30
100
AcDbEntity
  8
LC-001-111-----0
 62
   253
370
    25
100
AcDbCircle
 10
823.845603
 20
176.159147
 30
0.0
 40
20.51000000000012
100
AcDbArc
 50
71.493868
 51
288.506132
  0
LINE
  5
73
330
30
100
AcDbEntity
  8
LC-001-111-----0
 62
   253
370
    25
100
AcDbLine
 10
1024.855603
 20
157.821208
 30
0.0
 11
1024.855603
 21
163.204148
 31
0.0
  0
LINE
  5
74
330
30
100
AcDbEntity
  8
LC-001-111-----0
 62
   253
370
    25
100
AcDbLine
 10
830.355603
 20
195.608569
 30
0.0
 11
830.355603
 21
186.701063
 31
0.0
  0
ARC
  5
75
330
30
100
AcDbEntity
  8
LC-001-111-----0
 62
   253
370
    25
100
AcDbCircle
 10
1019.845603
 20
176.159147
 30
0.0
 40
13.88999999999995
100
AcDbArc
 50
68.857352
 51
291.142648
  0
LINE
  5
76
330
30
100
AcDbEntity
  8
LC-001-111-----0
 62
   253
370
    25
100
AcDbLine
 10
862.835603
 20
155.649147
 30
0.0
 11
862.835603
 21
196.669147
 31
0.0
  0
LINE
  5
77
330
30
100
AcDbEntity
  8
LC-001-111-----0
 62
   253
370
    25
100
AcDbLine
 10
862.835603
 20
196.669147
 30
0.0
 11
872.355603
 21
196.669147
 31
0.0
  0
LINE
  5
78
330
30
100
AcDbEntity
  8
LC-001-111-----0
 62
   253
370
    25
100
AcDbLine
 10
872.355603
 20
196.669147
 30
0.0
 11
872.355603
 21
179.519147
 31
0.0
  0
LINE
  5
79
330
30
100
AcDbEntity
  8
LC-001-111-----0
 62
   253
370
    25
100
AcDbLine
 10
872.355603
 20
179.519147
 30
0.0
 11
887.335603
 21
179.519147
 31
0.0
  0
LINE
  5
7A
330
30
100
AcDbEntity
  8
LC-001-111-----0
 62
   253
370
    25
100
AcDbLine
 10
887.335603
 20
179.519147
 30
0.0
 11
887.335603
 21
196.669147
 31
0.0
  0
LINE
  5
7B
330
30
100
AcDbEntity
  8
LC-001-111-----0
 62
   253
370
    25
100
AcDbLine
 10
887.335603
 20
196.669147
 30
0.0
 11
896.855603
 21
196.669147
 31
0.0
  0
LINE
  5
7C
330
30
100
AcDbEntity
  8
LC-001-111-----0
 62
   253
370
    25
100
AcDbLine
 10
896.855603
 20
196.669147
 30
0.0
 11
896.855603
 21
155.649147
 31
0.0
  0
LINE
  5
7D
330
30
100
AcDbEntity
  8
LC-001-111-----0
 62
   253
370
    25
100
AcDbLine
 10
896.855603
 20
155.649147
 30
0.0
 11
887.335603
 21
155.649147
 31
0.0
  0
LINE
  5
7E
330
30
100
AcDbEntity
  8
LC-001-111-----0
 62
   253
370
    25
100
AcDbLine
 10
887.335603
 20
155.649147
 30
0.0
 11
887.335603
 21
172.799147
 31
0.0
  0
LINE
  5
7F
330
30
100
AcDbEntity
  8
LC-001-111-----0
 62
   253
370
    25
100
AcDbLine
 10
887.335603
 20
172.799147
 30
0.0
 11
872.355603
 21
172.799147
 31
0.0
  0
LINE
  5
80
330
30
100
AcDbEntity
  8
LC-001-111-----0
 62
   253
370
    25
100
AcDbLine
 10
872.355603
 20
172.799147
 30
0.0
 11
872.355603
 21
155.649147
 31
0.0
  0
LINE
  5
81
330
30
100
AcDbEntity
  8
LC-001-111-----0
 62
   253
370
    25
100
AcDbLine
 10
872.355603
 20
155.649147
 30
0.0
 11
862.835603
 21
155.649147
 31
0.0
  0
CIRCLE
  5
82
330
30
100
AcDbEntity
  8
LC-001-111-----0
 62
   253
370
    25
100
AcDbCircle
 10
946.345603
 20
176.159147
 30
0.0
 40
12.39000000000044
  0
CIRCLE
  5
83
330
30
100
AcDbEntity
  8
LC-001-111-----0
 62
   253
370
    25
100
AcDbCircle
 10
946.345603
 20
176.159147
 30
0.0
 40
20.51000000000049
  0
ARC
  5
84
330
30
100
AcDbEntity
  8
LC-001-111-----0
 62
   253
370
    25
100
AcDbCircle
 10
1019.845603
 20
176.159147
 30
0.0
 40
12.39000000000002
100
AcDbArc
 50
58.303227
 51
301.696773
  0
LINE
  5
85
330
30
100
AcDbEntity
  8
LC-001-111-----0
 62
   253
370
    25
100
AcDbLine
 10
864.335603
 20
195.169147
 30
0.0
 11
864.335603
 21
157.149147
 31
0.0
  0
LINE
  5
86
330
30
100
AcDbEntity
  8
LC-001-111-----0
 62
   253
370
    25
100
AcDbLine
 10
1026.355603
 20
165.617231
 30
0.0
 11
1026.355603
 21
156.709726
 31
0.0
  0
LINE
  5
87
330
30
100
AcDbEntity
  8
LC-001-111-----0
 62
   253
370
    25
100
AcDbLine
 10
864.335603
 20
157.149147
 30
0.0
 11
870.855603
 21
157.149147
 31
0.0
  0
LINE
  5
88
330
30
100
AcDbEntity
  8
LC-001-111-----0
 62
   253
370
    25
100
AcDbLine
 10
870.855603
 20
157.149147
 30
0.0
 11
870.855603
 21
174.299147
 31
0.0
  0
LINE
  5
89
330
30
100
AcDbEntity
  8
LC-001-111-----0
 62
   253
370
    25
100
AcDbLine
 10
870.855603
 20
174.299147
 30
0.0
 11
888.835603
 21
174.299147
 31
0.0
  0
LINE
  5
8A
330
30
100
AcDbEntity
  8
LC-001-111-----0
 62
   253
370
    25
100
AcDbLine
 10
888.835603
 20
174.299147
 30
0.0
 11
888.835603
 21
157.149147
 31
0.0
  0
LINE
  5
8B
330
30
100
AcDbEntity
  8
LC-001-111-----0
 62
   253
370
    25
100
AcDbLine
 10
888.835603
 20
157.149147
 30
0.0
 11
895.355603
 21
157.149147
 31
0.0
  0
LINE
  5
8C
330
30
100
AcDbEntity
  8
LC-001-111-----0
 62
   253
370
    25
100
AcDbLine
 10
895.355603
 20
157.149147
 30
0.0
 11
895.355603
 21
195.169147
 31
0.0
  0
LINE
  5
8D
330
30
100
AcDbEntity
  8
LC-001-111-----0
 62
   253
370
    25
100
AcDbLine
 10
895.355603
 20
195.169147
 30
0.0
 11
888.835603
 21
195.169147
 31
0.0
  0
LINE
  5
8E
330
30
100
AcDbEntity
  8
LC-001-111-----0
 62
   253
370
    25
100
AcDbLine
 10
888.835603
 20
195.169147
 30
0.0
 11
888.835603
 21
178.019147
 31
0.0
  0
LINE
  5
8F
330
30
100
AcDbEntity
  8
LC-001-111-----0
 62
   253
370
    25
100
AcDbLine
 10
888.835603
 20
178.019147
 30
0.0
 11
870.855603
 21
178.019147
 31
0.0
  0
LINE
  5
90
330
30
100
AcDbEntity
  8
LC-001-111-----0
 62
   253
370
    25
100
AcDbLine
 10
870.855603
 20
178.019147
 30
0.0
 11
870.855603
 21
195.169147
 31
0.0
  0
CIRCLE
  5
91
330
30
100
AcDbEntity
  8
LC-001-111-----0
 62
   253
370
    25
100
AcDbCircle
 10
946.345603
 20
176.159147
 30
0.0
 40
19.01000000000055
  0
ARC
  5
92
330
30
100
AcDbEntity
  8
LC-001-111-----0
 62
   253
370
    25
100
AcDbCircle
 10
760.836588
 20
168.15034
 30
0.0
 40
6.222024781007809
100
AcDbArc
 50
268.246912
 51
72.731329
  0
ARC
  5
93
330
30
100
AcDbEntity
  8
LC-001-111-----0
 62
   253
370
    25
100
AcDbCircle
 10
761.412387
 20
186.963179
 30
0.0
 40
25.04367341134793
100
AcDbArc
 50
239.19233
 51
268.246912
  0
LINE
  5
94
330
30
100
AcDbEntity
  8
LC-001-111-----0
 62
   253
370
    25
100
AcDbLine
 10
748.586073
 20
165.453385
 30
0.0
 11
748.586073
 21
160.350534
 31
0.0
  0
ARC
  5
95
330
30
100
AcDbEntity
  8
LC-001-111-----0
 62
   253
370
    25
100
AcDbCircle
 10
760.81067
 20
180.45076
 30
0.0
 40
23.52572762426598
100
AcDbArc
 50
238.692783
 51
274.343327
  0
ARC
  5
96
330
30
100
AcDbEntity
  8
LC-001-111-----0
 62
   253
370
    25
100
AcDbCircle
 10
1019.845603
 20
176.159147
 30
0.0
 40
20.51000000000012
100
AcDbArc
 50
71.493868
 51
288.506132
  0
ARC
  5
97
330
30
100
AcDbEntity
  8
LC-001-111-----0
 62
   253
370
    25
100
AcDbCircle
 10
761.779647
 20
167.692822
 30
0.0
 40
10.73104525444839
100
AcDbArc
 50
274.343327
 51
74.255463
  0
LINE
  5
98
330
30
100
AcDbEntity
  8
LC-001-111-----0
 62
   253
370
    25
100
AcDbLine
 10
1026.355603
 20
195.608569
 30
0.0
 11
1026.355603
 21
186.701063
 31
0.0
  0
LINE
  5
99
330
30
100
AcDbEntity
  8
LC-001-111-----0
 62
   253
370
    25
100
AcDbLine
 10
764.691502
 20
178.02125
 30
0.0
 11
757.135251
 21
180.151556
 31
0.0
  0
LINE
  5
9A
330
30
100
AcDbEntity
  8
LC-001-111-----0
 62
   253
370
    25
100
AcDbLine
 10
1024.855603
 20
189.114146
 30
0.0
 11
1024.855603
 21
194.497086
 31
0.0
  0
ARC
  5
9B
330
30
100
AcDbEntity
  8
LC-001-111-----0
 62
   253
370
    25
100
AcDbCircle
 10
758.632108
 20
185.460948
 30
0.0
 40
5.51636013010035
100
AcDbArc
 50
90.951212
 51
254.255463
  0
ARC
  5
9C
330
30
100
AcDbEntity
  8
LC-001-111-----0
 62
   253
370
    25
100
AcDbCircle
 10
758.906662
 20
168.924866
 30
0.0
 40
22.05472179307849
100
AcDbArc
 50
64.088485
 51
90.951212
  0
LINE
  5
9D
330
30
100
AcDbEntity
  8
LC-001-111-----0
 62
   253
370
    25
100
AcDbLine
 10
768.544191
 20
188.762426
 30
0.0
 11
768.544191
 21
193.015758
 31
0.0
  0
LINE
  5
9E
330
30
100
AcDbEntity
  8
LC-001-111-----0
 62
   253
370
    25
100
AcDbLine
 10
1071.855603
 20
177.513832
 30
0.0
 11
1087.818366
 21
196.669147
 31
0.0
  0
LINE
  5
9F
330
30
100
AcDbEntity
  8
LC-001-111-----0
 62
   253
370
    25
100
AcDbLine
 10
1087.818366
 20
196.669147
 30
0.0
 11
1099.299433
 21
196.669147
 31
0.0
  0
LINE
  5
A0
330
30
100
AcDbEntity
  8
LC-001-111-----0
 62
   253
370
    25
100
AcDbLine
 10
1099.299433
 20
196.669147
 30
0.0
 11
1082.207766
 21
176.159147
 31
0.0
  0
LINE
  5
A2
330
30
100
AcDbEntity
  8
LC-002-002-----0
 62
     1
370
    25
100
AcDbLine
 10
1143.855603
 20
159.963432
 30
0.0
 11
1143.855603
 21
192.354862
 31
0.0
  0
LINE
  5
A3
330
30
100
AcDbEntity
  8
LC-002-002-----0
 62
     1
370
    25
100
AcDbLine
 10
1143.855603
 20
192.354862
 30
0.0
 11
1127.659888
 21
176.159147
 31
0.0
  0
LINE
  5
A4
330
30
100
AcDbEntity
  8
LC-002-002-----0
 62
     1
370
    25
100
AcDbLine
 10
1127.659888
 20
176.159147
 30
0.0
 11
1143.855603
 21
159.963432
 31
0.0
  0
LINE
  5
A5
330
30
100
AcDbEntity
  8
LC-002-002-----0
 62
     1
370
    25
100
AcDbLine
 10
1142.355603
 20
163.584752
 30
0.0
 11
1142.355603
 21
188.733542
 31
0.0
  0
LINE
  5
A6
330
30
100
AcDbEntity
  8
LC-001-111-----0
 62
   253
370
    25
100
AcDbLine
 10
1082.207766
 20
176.159147
 30
0.0
 11
1099.299433
 21
155.649147
 31
0.0
  0
LINE
  5
A7
330
30
100
AcDbEntity
  8
LC-001-111-----0
 62
   253
370
    25
100
AcDbLine
 10
1099.299433
 20
155.649147
 30
0.0
 11
1087.818366
 21
155.649147
 31
0.0
  0
LINE
  5
A8
330
30
100
AcDbEntity
  8
LC-001-111-----0
 62
   253
370
    25
100
AcDbLine
 10
1087.818366
 20
155.649147
 30
0.0
 11
1071.855603
 21
174.804462
 31
0.0
  0
LINE
  5
A9
330
30
100
AcDbEntity
  8
LC-001-111-----0
 62
   253
370
    25
100
AcDbLine
 10
1062.335603
 20
155.649147
 30
0.0
 11
1062.335603
 21
196.669147
 31
0.0
  0
LINE
  5
AA
330
30
100
AcDbEntity
  8
LC-001-111-----0
 62
   253
370
    25
100
AcDbLine
 10
828.855603
 20
189.114146
 30
0.0
 11
828.855603
 21
194.497086
 31
0.0
  0
ARC
  5
AB
330
30
100
AcDbEntity
  8
LC-001-111-----0
 62
   253
370
    25
100
AcDbCircle
 10
758.903191
 20
174.567744
 30
0.0
 40
19.31533311668209
100
AcDbArc
 50
65.072024
 51
94.48185
  0
LINE
  5
AC
330
30
100
AcDbEntity
  8
LC-001-111-----0
 62
   253
370
    25
100
AcDbLine
 10
1063.835603
 20
157.149147
 30
0.0
 11
1070.355603
 21
157.149147
 31
0.0
  0
LINE
  5
AD
330
30
100
AcDbEntity
  8
LC-001-111-----0
 62
   253
370
    25
100
AcDbLine
 10
1070.355603
 20
157.149147
 30
0.0
 11
1070.355603
 21
195.169147
 31
0.0
  0
LINE
  5
AE
330
30
100
AcDbEntity
  8
LC-001-111-----0
 62
   253
370
    25
100
AcDbLine
 10
1070.355603
 20
195.169147
 30
0.0
 11
1063.835603
 21
195.169147
 31
0.0
  0
LINE
  5
AF
330
30
100
AcDbEntity
  8
LC-001-111-----0
 62
   253
370
    25
100
AcDbLine
 10
1065.335603
 20
193.669147
 30
0.0
 11
1065.335603
 21
158.649147
 31
0.0
  0
LINE
  5
B0
330
30
100
AcDbEntity
  8
LC-002-002-----0
 62
     1
370
    25
100
AcDbLine
 10
1142.355603
 20
188.733542
 30
0.0
 11
1129.781208
 21
176.159147
 31
0.0
  0
LINE
  5
B1
330
30
100
AcDbEntity
  8
LC-002-002-----0
 62
     1
370
    25
100
AcDbLine
 10
1129.781208
 20
176.159147
 30
0.0
 11
1142.355603
 21
163.584752
 31
0.0
  0
LINE
  5
B2
330
30
100
AcDbEntity
  8
LC-001-111-----0
 62
   253
370
    25
100
AcDbLine
 10
1062.335603
 20
196.669147
 30
0.0
 11
1071.855603
 21
196.669147
 31
0.0
  0
LINE
  5
B3
330
30
100
AcDbEntity
  8
LC-001-111-----0
 62
   253
370
    25
100
AcDbLine
 10
1071.855603
 20
196.669147
 30
0.0
 11
1071.855603
 21
155.649147
 31
0.0
  0
LINE
  5
B4
330
30
100
AcDbEntity
  8
LC-001-111-----0
 62
   253
370
    25
100
AcDbLine
 10
1071.855603
 20
155.649147
 30
0.0
 11
1062.335603
 21
155.649147
 31
0.0
  0
ARC
  5
B5
330
30
100
AcDbEntity
  8
LC-001-111-----0
 62
   253
370
    25
100
AcDbCircle
 10
758.032826
 20
185.671748
 30
0.0
 40
8.177270814709827
100
AcDbArc
 50
94.48185
 51
252.731329
  0
LINE
  5
B6
330
30
100
AcDbEntity
  8
LC-001-111-----0
 62
   253
370
    25
100
AcDbLine
 10
755.60538
 20
177.863082
 30
0.0
 11
763.128892
 21
175.524281
 31
0.0
  0
ARC
  5
B7
330
30
100
AcDbEntity
  8
LC-001-111-----0
 62
   253
370
    25
100
AcDbCircle
 10
760.836588
 20
168.15034
 30
0.0
 40
7.72202478100773
100
AcDbArc
 50
268.246912
 51
72.731329
  0
LINE
  5
B8
330
30
100
AcDbEntity
  8
LC-001-111-----0
 62
   253
370
    25
100
AcDbLine
 10
827.355603
 20
191.143539
 30
0.0
 11
827.355603
 21
193.313738
 31
0.0
  0
ARC
  5
B9
330
30
100
AcDbEntity
  8
LC-001-111-----0
 62
   253
370
    25
100
AcDbCircle
 10
823.845603
 20
176.159147
 30
0.0
 40
17.50999999999996
100
AcDbArc
 50
78.436322
 51
281.563678
  0
LINE
  5
BA
330
30
100
AcDbEntity
  8
LC-001-111-----0
 62
   253
370
    25
100
AcDbLine
 10
827.355603
 20
159.004556
 30
0.0
 11
827.355603
 21
161.174755
 31
0.0
  0
LINE
  5
BB
330
30
100
AcDbEntity
  8
LC-002-002-----0
 62
     1
370
    25
100
AcDbLine
 10
1145.355603
 20
195.976182
 30
0.0
 11
1145.355603
 21
156.342112
 31
0.0
  0
LINE
  5
BC
330
30
100
AcDbEntity
  8
LC-002-002-----0
 62
     1
370
    25
100
AcDbLine
 10
1145.355603
 20
156.342112
 30
0.0
 11
1125.538568
 21
176.159147
 31
0.0
  0
LINE
  5
BD
330
30
100
AcDbEntity
  8
LC-002-002-----0
 62
     1
370
    25
100
AcDbLine
 10
1125.538568
 20
176.159147
 30
0.0
 11
1145.355603
 21
195.976182
 31
0.0
  0
LINE
  5
BE
330
30
100
AcDbEntity
  8
LC-001-111-----0
 62
   253
370
    25
100
AcDbLine
 10
1065.335603
 20
158.649147
 30
0.0
 11
1068.855603
 21
158.649147
 31
0.0
  0
LINE
  5
BF
330
30
100
AcDbEntity
  8
LC-001-111-----0
 62
   253
370
    25
100
AcDbLine
 10
1068.855603
 20
158.649147
 30
0.0
 11
1068.855603
 21
193.669147
 31
0.0
  0
LINE
  5
C0
330
30
100
AcDbEntity
  8
LC-001-111-----0
 62
   253
370
    25
100
AcDbLine
 10
1068.855603
 20
193.669147
 30
0.0
 11
1065.335603
 21
193.669147
 31
0.0
  0
LINE
  5
C1
330
30
100
AcDbEntity
  8
LC-001-111-----0
 62
   253
370
    25
100
AcDbLine
 10
1067.095603
 20
192.169147
 30
0.0
 11
1067.095603
 21
160.149147
 31
0.0
  0
ARC
  5
C2
330
30
100
AcDbEntity
  8
LC-001-111-----0
 62
   253
370
    25
100
AcDbCircle
 10
823.845603
 20
176.159147
 30
0.0
 40
15.38999999999992
100
AcDbArc
 50
76.816519
 51
283.183481
  0
LINE
  5
C3
330
30
100
AcDbEntity
  8
LC-001-111-----0
 62
   253
370
    25
100
AcDbLine
 10
870.855603
 20
195.169147
 30
0.0
 11
864.335603
 21
195.169147
 31
0.0
  0
LINE
  5
C4
330
30
100
AcDbEntity
  8
LC-001-111-----0
 62
   253
370
    25
100
AcDbLine
 10
1096.09687
 20
195.169147
 30
0.0
 11
1088.520928
 21
195.169147
 31
0.0
  0
LINE
  5
C5
330
30
100
AcDbEntity
  8
LC-001-111-----0
 62
   253
370
    25
100
AcDbLine
 10
865.835603
 20
158.649147
 30
0.0
 11
869.355603
 21
158.649147
 31
0.0
  0
LINE
  5
C6
330
30
100
AcDbEntity
  8
LC-001-111-----0
 62
   253
370
    25
100
AcDbLine
 10
1023.355603
 20
191.143539
 30
0.0
 11
1023.355603
 21
193.313738
 31
0.0
  0
LINE
  5
C7
330
30
100
AcDbEntity
  8
LC-001-111-----0
 62
   253
370
    25
100
AcDbLine
 10
892.095603
 20
192.169147
 30
0.0
 11
892.095603
 21
160.149147
 31
0.0
  0
TEXT
  5
C8
330
30
100
AcDbEntity
  8
LC-001-111-----0
 62
     1
370
    15
100
AcDbText
 10
1884.875
 20
21.25
 30
0.0
 40
15.0
  1
Typos-D100small
 41
0.75
  7
LCTX0-400-0-0pDIN-Schrift
 72
     1
 11
1958.0
 21
21.25
 31
0.0
100
AcDbText
  0
CIRCLE
  5
C9
330
30
100
AcDbEntity
  8
LC-001-111-----0
 62
   253
370
    25
100
AcDbCircle
 10
946.345603
 20
176.159147
 30
0.0
 40
17.51000000000047
  0
LINE
  5
CA
330
30
100
AcDbEntity
  8
LC-001-111-----0
 62
   253
370
    25
100
AcDbLine
 10
1088.520928
 20
195.169147
 30
0.0
 11
1072.679261
 21
176.159147
 31
0.0
  0
ARC
  5
CB
330
30
100
AcDbEntity
  8
LC-001-111-----0
 62
   253
370
    25
100
AcDbCircle
 10
1019.845603
 20
176.159147
 30
0.0
 40
17.50999999999996
100
AcDbArc
 50
78.436322
 51
281.563678
  0
ARC
  5
CC
330
30
100
AcDbEntity
  8
LC-001-111-----0
 62
   253
370
    25
100
AcDbCircle
 10
761.412387
 20
186.963179
 30
0.0
 40
26.54367341134783
100
AcDbArc
 50
244.741378
 51
268.246912
  0
LINE
  5
CD
330
30
100
AcDbEntity
  8
LC-001-111-----0
 62
   253
370
    25
100
AcDbLine
 10
1023.355603
 20
159.004556
 30
0.0
 11
1023.355603
 21
161.174755
 31
0.0
  0
LINE
  5
CE
330
30
100
AcDbEntity
  8
LC-002-002-----0
 62
     1
370
    25
100
AcDbLine
 10
1140.855603
 20
167.206073
 30
0.0
 11
1140.855603
 21
185.112221
 31
0.0
  0
LINE
  5
CF
330
30
100
AcDbEntity
  8
LC-002-002-----0
 62
     1
370
    25
100
AcDbLine
 10
1140.855603
 20
185.112221
 30
0.0
 11
1131.902529
 21
176.159147
 31
0.0
  0
LINE
  5
D0
330
30
100
AcDbEntity
  8
LC-002-002-----0
 62
     1
370
    25
100
AcDbLine
 10
1131.902529
 20
176.159147
 30
0.0
 11
1140.855603
 21
167.206073
 31
0.0
  0
CIRCLE
  5
D1
330
30
100
AcDbEntity
  8
LC-001-111-----0
 62
   253
370
    25
100
AcDbCircle
 10
946.345603
 20
176.159147
 30
0.0
 40
13.89000000000002
  0
LINE
  5
D2
330
30
100
AcDbEntity
  8
LC-001-111-----0
 62
   253
370
    25
100
AcDbLine
 10
890.335603
 20
158.649147
 30
0.0
 11
893.855603
 21
158.649147
 31
0.0
  0
LINE
  5
D3
330
30
100
AcDbEntity
  8
LC-001-111-----0
 62
   253
370
    25
100
AcDbLine
 10
893.855603
 20
158.649147
 30
0.0
 11
893.855603
 21
193.669147
 31
0.0
  0
ARC
  5
D4
330
30
100
AcDbEntity
  8
LC-001-111-----0
 62
   253
370
    25
100
AcDbCircle
 10
758.906662
 20
168.924866
 30
0.0
 40
20.55472179307891
100
AcDbArc
 50
57.190491
 51
90.951212
  0
ARC
  5
D5
330
30
100
AcDbEntity
  8
LC-001-111-----0
 62
   253
370
    25
100
AcDbCircle
 10
761.779647
 20
167.692822
 30
0.0
 40
12.23104525444841
100
AcDbArc
 50
274.343327
 51
74.255463
  0
LINE
  5
D6
330
30
100
AcDbEntity
  8
LC-001-111-----0
 62
   253
370
    25
100
AcDbLine
 10
893.855603
 20
193.669147
 30
0.0
 11
890.335603
 21
193.669147
 31
0.0
  0
LINE
  5
D7
330
30
100
AcDbEntity
  8
LC-001-111-----0
 62
   253
370
    25
100
AcDbLine
 10
890.335603
 20
193.669147
 30
0.0
 11
890.335603
 21
158.649147
 31
0.0
  0
LINE
  5
D8
330
30
100
AcDbEntity
  8
LC-001-111-----0
 62
   253
370
    25
100
AcDbLine
 10
890.335603
 20
176.159147
 30
0.0
 11
869.355603
 21
176.159147
 31
0.0
  0
TEXT
  5
D9
330
30
100
AcDbEntity
  8
LC-001-111-----0
 62
     7
370
    25
100
AcDbText
 10
1977.410714
 20
143.75
 30
0.0
 40
25.0
  1
1
 41
0.75
  7
LCTX0-400-0-0pDIN-Schrift
 72
     1
 11
1985.0
 21
143.75
 31
0.0
100
AcDbText
  0
LINE
  5
DA
330
30
100
AcDbEntity
  8
LC-001-111-----0
 62
   253
370
    25
100
AcDbLine
 10
869.355603
 20
158.649147
 30
0.0
 11
869.355603
 21
193.669147
 31
0.0
  0
LINE
  5
DB
330
30
100
AcDbEntity
  8
LC-001-111-----0
 62
   253
370
    25
100
AcDbLine
 10
869.355603
 20
193.669147
 30
0.0
 11
865.835603
 21
193.669147
 31
0.0
  0
LINE
  5
DC
330
30
100
AcDbEntity
  8
LC-001-111-----0
 62
   253
370
    25
100
AcDbLine
 10
865.835603
 20
193.669147
 30
0.0
 11
865.835603
 21
158.649147
 31
0.0
  0
LINE
  5
DD
330
30
100
AcDbEntity
  8
LC-001-111-----0
 62
   253
370
    25
100
AcDbLine
 10
867.595603
 20
192.169147
 30
0.0
 11
867.595603
 21
160.149147
 31
0.0
  0
CIRCLE
  5
DE
330
30
100
AcDbEntity
  8
LC-001-111-----0
 62
   253
370
    25
100
AcDbCircle
 10
946.345603
 20
176.159147
 30
0.0
 40
15.38999999999984
  0
LINE
  5
DF
330
30
100
AcDbEntity
  8
LC-001-111-----0
 62
   253
370
    25
100
AcDbLine
 10
1072.679261
 20
176.159147
 30
0.0
 11
1088.520928
 21
157.149147
 31
0.0
  0
LINE
  5
E0
330
30
100
AcDbEntity
  8
LC-001-111-----0
 62
   253
370
    25
100
AcDbLine
 10
1088.520928
 20
157.149147
 30
0.0
 11
1096.09687
 21
157.149147
 31
0.0
  0
LINE
  5
E1
330
30
100
AcDbEntity
  8
LC-001-111-----0
 62
   253
370
    25
100
AcDbLine
 10
1096.09687
 20
157.149147
 30
0.0
 11
1080.255204
 21
176.159147
 31
0.0
  0
LINE
  5
E2
330
30
100
AcDbEntity
  8
LC-001-111-----0
 62
   253
370
    25
100
AcDbLine
 10
770.044191
 20
186.20063
 30
0.0
 11
770.044191
 21
193.903002
 31
0.0
  0
ARC
  5
E3
330
30
100
AcDbEntity
  8
LC-001-111-----0
 62
   253
370
    25
100
AcDbCircle
 10
761.412387
 20
186.963179
 30
0.0
 40
23.54367341134796
100
AcDbArc
 50
232.518913
 51
268.246912
  0
ARC
  5
E4
330
30
100
AcDbEntity
  8
LC-001-111-----0
 62
   253
370
    25
100
AcDbCircle
 10
760.836588
 20
168.15034
 30
0.0
 40
4.722024781007908
100
AcDbArc
 50
268.246912
 51
72.731329
  0
LINE
  5
E5
330
30
100
AcDbEntity
  8
LC-001-111-----0
 62
   253
370
    25
100
AcDbLine
 10
757.542274
 20
181.595277
 30
0.0
 11
765.098525
 21
179.464972
 31
0.0
  0
ARC
  5
E6
330
30
100
AcDbEntity
  8
LC-001-111-----0
 62
   253
370
    25
100
AcDbCircle
 10
758.632108
 20
185.460948
 30
0.0
 40
4.016360130100384
100
AcDbArc
 50
90.951212
 51
254.255463
  0
ARC
  5
E7
330
30
100
AcDbEntity
  8
LC-001-111-----0
 62
   253
370
    25
100
AcDbCircle
 10
758.032826
 20
185.671748
 30
0.0
 40
11.17727081470983
100
AcDbArc
 50
94.48185
 51
252.731329
  0
LINE
  5
E8
330
30
100
AcDbEntity
  8
LC-001-111-----0
 62
   253
370
    25
100
AcDbLine
 10
762.238334
 20
172.659511
 30
0.0
 11
754.714822
 21
174.998312
 31
0.0
  0
LINE
  5
E9
330
30
100
AcDbEntity
  8
LC-001-111-----0
 62
   253
370
    25
100
AcDbLine
 10
747.086073
 20
168.279997
 30
0.0
 11
747.086073
 21
159.524163
 31
0.0
  0
ARC
  5
EA
330
30
100
AcDbEntity
  8
LC-001-111-----0
 62
   253
370
    25
100
AcDbCircle
 10
758.903191
 20
174.567744
 30
0.0
 40
22.31533311668187
100
AcDbArc
 50
60.049399
 51
94.48185
  0
ARC
  5
EB
330
30
100
AcDbEntity
  8
LC-001-111-----0
 62
   253
370
    25
100
AcDbCircle
 10
760.81067
 20
180.45076
 30
0.0
 40
25.02572762426604
100
AcDbArc
 50
236.741348
 51
274.343327
  0
LINE
  5
EC
330
30
100
AcDbEntity
  8
LC-001-111-----0
 62
   253
370
    25
100
AcDbLine
 10
1080.255204
 20
176.159147
 30
0.0
 11
1096.09687
 21
195.169147
 31
0.0
  0
LINE
  5
ED
330
30
100
AcDbEntity
  8
LC-001-111-----0
 62
   253
370
    25
100
AcDbLine
 10
750.086073
 20
162.957321
 30
0.0
 11
750.086073
 21
161.212369
 31
0.0
  0
LINE
  5
EE
330
30
100
AcDbEntity
  8
LC-001-111-----0
 62
   253
370
    25
100
AcDbLine
 10
1078.302641
 20
176.159147
 30
0.0
 11
1092.894308
 21
193.669147
 31
0.0
  0
LINE
  5
EF
330
30
100
AcDbEntity
  8
LC-002-002-----0
 62
     1
370
    25
100
AcDbLine
 10
1139.355603
 20
170.827393
 30
0.0
 11
1139.355603
 21
181.490901
 31
0.0
  0
LINE
  5
F0
330
30
100
AcDbEntity
  8
LC-002-002-----0
 62
     1
370
    25
100
AcDbLine
 10
1139.355603
 20
181.490901
 30
0.0
 11
1134.023849
 21
176.159147
 31
0.0
  0
LINE
  5
F1
330
30
100
AcDbEntity
  8
LC-002-002-----0
 62
     1
370
    25
100
AcDbLine
 10
1134.023849
 20
176.159147
 30
0.0
 11
1139.355603
 21
170.827393
 31
0.0
  0
LINE
  5
F2
330
30
100
AcDbEntity
  8
LC-002-002-----0
 62
     1
370
    25
100
AcDbLine
 10
1137.855603
 20
174.448713
 30
0.0
 11
1137.855603
 21
177.869581
 31
0.0
  0
LINE
  5
F3
330
30
100
AcDbEntity
  8
LC-002-002-----0
 62
     1
370
    25
100
AcDbLine
 10
1137.855603
 20
177.869581
 30
0.0
 11
1136.145169
 21
176.159147
 31
0.0
  0
LINE
  5
F4
330
30
100
AcDbEntity
  8
LC-002-002-----0
 62
     1
370
    25
100
AcDbLine
 10
1136.145169
 20
176.159147
 30
0.0
 11
1137.855603
 21
174.448713
 31
0.0
  0
LINE
  5
F5
330
30
100
AcDbEntity
  8
LC-001-111-----0
 62
   253
370
    25
100
AcDbLine
 10
1092.894308
 20
193.669147
 30
0.0
 11
1089.22349
 21
193.669147
 31
0.0
  0
LINE
  5
F6
330
30
100
AcDbEntity
  8
LC-001-111-----0
 62
   253
370
    25
100
AcDbLine
 10
1089.22349
 20
193.669147
 30
0.0
 11
1074.631824
 21
176.159147
 31
0.0
  0
ARC
  5
F7
330
30
100
AcDbEntity
  8
LC-001-111-----0
 62
   253
370
    25
100
AcDbCircle
 10
1019.845603
 20
176.159147
 30
0.0
 40
15.38999999999992
100
AcDbArc
 50
76.816519
 51
283.183481
  0
LINE
  5
F8
330
30
100
AcDbEntity
  8
LC-001-111-----0
 62
   253
370
    25
100
AcDbLine
 10
1074.631824
 20
176.159147
 30
0.0
 11
1089.22349
 21
158.649147
 31
0.0
  0
LINE
  5
F9
330
30
100
AcDbEntity
  8
LC-001-111-----0
 62
   253
370
    25
100
AcDbLine
 10
1089.22349
 20
158.649147
 30
0.0
 11
1092.894308
 21
158.649147
 31
0.0
  0
LINE
  5
FA
330
30
100
AcDbEntity
  8
LC-001-111-----0
 62
   253
370
    25
100
AcDbLine
 10
1092.894308
 20
158.649147
 30
0.0
 11
1078.302641
 21
176.159147
 31
0.0
  0
LINE
  5
FB
330
30
100
AcDbEntity
  8
LC-001-111-----0
 62
   253
370
    25
100
AcDbLine
 10
1076.467232
 20
176.159147
 30
0.0
 11
1090.098623
 21
192.516815
 31
0.0
  0
LINE
  5
FC
330
30
100
AcDbEntity
  8
LC-001-111-----0
 62
   253
370
    25
100
AcDbLine
 10
1076.467232
 20
176.159147
 30
0.0
 11
1090.098623
 21
159.801479
 31
0.0
  0
ARC
  5
FD
330
30
100
AcDbEntity
  8
LC-001-111-----0
 62
   253
370
    25
100
AcDbCircle
 10
760.81067
 20
180.45076
 30
0.0
 40
22.02572762426587
100
AcDbArc
 50
240.862164
 51
274.343327
  0
ARC
  5
FE
330
30
100
AcDbEntity
  8
LC-001-111-----0
 62
   253
370
    25
100
AcDbCircle
 10
761.779647
 20
167.692822
 30
0.0
 40
9.231045254448425
100
AcDbArc
 50
274.343327
 51
74.255463
  0
LINE
  5
FF
330
30
100
AcDbEntity
  8
LC-001-111-----0
 62
   253
370
    25
100
AcDbLine
 10
764.284479
 20
176.577529
 30
0.0
 11
756.728228
 21
178.707834
 31
0.0
  0
ARC
  5
100
330
30
100
AcDbEntity
  8
LC-001-111-----0
 62
   253
370
    25
100
AcDbCircle
 10
758.632108
 20
185.460948
 30
0.0
 40
7.016360130100396
100
AcDbArc
 50
90.951212
 51
254.255463
  0
ARC
  5
101
330
30
100
AcDbEntity
  8
LC-001-111-----0
 62
   253
370
    25
100
AcDbCircle
 10
758.906662
 20
168.924866
 30
0.0
 40
23.55472179307856
100
AcDbArc
 50
69.789306
 51
90.951212
  0
LINE
  5
102
330
30
100
AcDbEntity
  8
LC-001-111-----0
 62
   253
370
    25
100
AcDbLine
 10
767.044191
 20
191.029289
 30
0.0
 11
767.044191
 21
192.083629
 31
0.0
  0
ENDBLK
  5
32
330
30
100
AcDbEntity
  8
0
100
AcDbBlockEnd
  0
BLOCK
  5
1BE
330
1BD
100
AcDbEntity
  8
0
100
AcDbBlockBegin
  2
KLON1
 70
     0
 71
     0
 10
0.0
 20
0.0
 30
0.0
  3
KLON1
  1

  4
KLON1
  0
LINE
  5
1C0
330
1BD
100
AcDbEntity
  8
LC-006-100-D00-0
 62
     7
370
    13
100
AcDbLine
 10
856.519321
 20
2553.014087
 30
0.0
 11
856.521922
 21
2553.015778
 31
0.0
  0
LINE
  5
1C1
330
1BD
100
AcDbEntity
  8
LC-006-100-D00-0
 62
     7
370
    13
100
AcDbLine
 10
856.521922
 20
2553.015778
 30
0.0
 11
856.524322
 21
2553.017801
 31
0.0
  0
ENDBLK
  5
1BF
330
1BD
100
AcDbEntity
  8
0
100
AcDbBlockEnd
  0
BLOCK
  5
1CB
330
1CA
100
AcDbEntity
  8
0
100
AcDbBlockBegin
  2
KLON2
 70
     0
 71
     0
 10
0.0
 20
0.0
 30
0.0
  3
KLON2
  1

  4
KLON2
  0
LINE
  5
1CD
330
1CA
100
AcDbEntity
  8
LC-006-100-D00-0
 62
    40
370
    13
100
AcDbLine
 10
482.621597
 20
2572.02
 30
0.0
 11
479.319613
 21
2572.02
 31
0.0
  0
LINE
  5
1CE
330
1CA
100
AcDbEntity
  8
LC-006-100-D00-0
 62
    40
370
    13
100
AcDbLine
 10
479.319613
 20
2572.02
 30
0.0
 11
476.1434
 21
2572.02
 31
0.0
  0
LINE
  5
1CF
330
1CA
100
AcDbEntity
  8
LC-006-100-D00-0
 62
    40
370
    13
100
AcDbLine
 10
476.1434
 20
2572.02
 30
0.0
 11
473.21394
 21
2572.02
 31
0.0
  0
LINE
  5
1D0
330
1CA
100
AcDbEntity
  8
LC-006-100-D00-0
 62
    40
370
    13
100
AcDbLine
 10
473.21394
 20
2572.02
 30
0.0
 11
470.600781
 21
2572.02
 31
0.0
  0
LINE
  5
1D1
330
1CA
100
AcDbEntity
  8
LC-006-100-D00-0
 62
    40
370
    13
100
AcDbLine
 10
470.600781
 20
2572.02
 30
0.0
 11
468.494861
 21
2572.02
 31
0.0
  0
LINE
  5
1D2
330
1CA
100
AcDbEntity
  8
LC-006-100-D00-0
 62
    40
370
    13
100
AcDbLine
 10
468.494861
 20
2572.02
 30
0.0
 11
466.927023
 21
2572.02
 31
0.0
  0
LINE
  5
1D3
330
1CA
100
AcDbEntity
  8
LC-006-100-D00-0
 62
    40
370
    13
100
AcDbLine
 10
466.927023
 20
2572.02
 30
0.0
 11
465.956987
 21
2572.02
 31
0.0
  0
LINE
  5
1D4
330
1CA
100
AcDbEntity
  8
LC-006-100-D00-0
 62
    40
370
    13
100
AcDbLine
 10
465.956987
 20
2572.02
 30
0.0
 11
465.621597
 21
2572.02
 31
0.0
  0
ENDBLK
  5
1CC
330
1CA
100
AcDbEntity
  8
0
100
AcDbBlockEnd
  0
BLOCK
  5
233
330
232
100
AcDbEntity
  8
0
100
AcDbBlockBegin
  2
*X14
 70
     1
 71
     0
 10
0.0
 20
0.0
 30
0.0
  3
*X14
  1

  4
*X1
  0
LINE
  5
236
330
232
100
AcDbEntity
  8
LC-007-005-----0
 62
     7
370
    25
100
AcDbLine
 10
1339.080608
 20
2527.02
 30
0.0
 11
1347.792762
 21
2535.732154
 31
0.0
  0
LINE
  5
237
330
232
100
AcDbEntity
  8
LC-007-005-----0
 62
     7
370
    25
100
AcDbLine
 10
1310.796336
 20
2527.02
 30
0.0
 11
1346.31777
 21
2562.541434
 31
0.0
  0
LINE
  5
238
330
232
100
AcDbEntity
  8
LC-007-005-----0
 62
     7
370
    25
100
AcDbLine
 10
1282.512065
 20
2527.02
 30
0.0
 11
1320.512065
 21
2565.02
 31
0.0
  0
LINE
  5
239
330
232
100
AcDbEntity
  8
LC-007-005-----0
 62
     7
370
    25
100
AcDbLine
 10
1280.621597
 20
2553.413803
 30
0.0
 11
1292.227794
 21
2565.02
 31
0.0
  0
LINE
  5
23A
330
232
100
AcDbEntity
  8
LC-007-005-----0
 62
     7
370
    25
100
AcDbLine
 10
433.983928
 20
2527.02
 30
0.0
 11
440.621597
 21
2533.657669
 31
0.0
  0
LINE
  5
23B
330
232
100
AcDbEntity
  8
LC-007-005-----0
 62
     7
370
    25
100
AcDbLine
 10
405.699656
 20
2527.02
 30
0.0
 11
440.621597
 21
2561.94194
 31
0.0
  0
LINE
  5
23C
330
232
100
AcDbEntity
  8
LC-007-005-----0
 62
     7
370
    25
100
AcDbLine
 10
377.415385
 20
2527.02
 30
0.0
 11
415.415385
 21
2565.02
 31
0.0
  0
LINE
  5
23D
330
232
100
AcDbEntity
  8
LC-007-005-----0
 62
     7
370
    25
100
AcDbLine
 10
371.975989
 20
2549.864875
 30
0.0
 11
387.131114
 21
2565.02
 31
0.0
  0
ENDBLK
  5
234
330
232
100
AcDbEntity
  8
0
100
AcDbBlockEnd
  0
BLOCK
  5
241
330
240
100
AcDbEntity
  8
0
100
AcDbBlockBegin
  2
LCDIM1
 70
     0
 71
     0
 10
0.0
 20
0.0
 30
0.0
  3
LCDIM1
  1

  4
LCDIM1
  0
LINE
  5
244
330
240
100
AcDbEntity
  8
LC-008-003-MTH-0
 62
     7
370
    25
100
AcDbLine
 10
1030.621597
 20
2372.02
 30
0.0
 11
1075.310164
 21
2372.02
 31
0.0
  0
LINE
  5
245
330
240
100
AcDbEntity
  8
LC-008-003-MTH-0
 62
     7
370
    25
100
AcDbLine
 10
1030.621597
 20
2572.02
 30
0.0
 11
1075.310164
 21
2572.02
 31
0.0
  0
LINE
  5
247
330
240
100
AcDbEntity
  8
LC-009-003-MTG-0
 62
     7
370
    25
100
AcDbLine
 10
1060.310164
 20
2372.02
 30
0.0
 11
1060.310164
 21
2572.02
 31
0.0
  0
LINE
  5
249
330
240
100
AcDbEntity
  8
LC-010-003-----0
 62
     7
370
    25
100
AcDbLine
 10
1057.047009
 20
2396.806122
 30
0.0
 11
1060.310164
 21
2372.02
 31
0.0
  0
LINE
  5
24A
330
240
100
AcDbEntity
  8
LC-010-003-----0
 62
     7
370
    25
100
AcDbLine
 10
1060.310164
 20
2372.02
 30
0.0
 11
1063.573319
 21
2396.806122
 31
0.0
  0
LINE
  5
24B
330
240
100
AcDbEntity
  8
LC-010-003-----0
 62
     7
370
    25
100
AcDbLine
 10
1063.573319
 20
2396.806122
 30
0.0
 11
1057.047009
 21
2396.806122
 31
0.0
  0
LINE
  5
24C
330
240
100
AcDbEntity
  8
LC-010-003-----0
 62
     7
370
    25
100
AcDbLine
 10
1057.895429
 20
2396.86173
 30
0.0
 11
1060.310164
 21
2378.52
 31
0.0
  0
LINE
  5
24D
330
240
100
AcDbEntity
  8
LC-010-003-----0
 62
     7
370
    25
100
AcDbLine
 10
1060.310164
 20
2378.52
 30
0.0
 11
1062.724898
 21
2396.86173
 31
0.0
  0
LINE
  5
24E
330
240
100
AcDbEntity
  8
LC-010-003-----0
 62
     7
370
    25
100
AcDbLine
 10
1058.74385
 20
2396.917339
 30
0.0
 11
1060.310164
 21
2385.02
 31
0.0
  0
LINE
  5
24F
330
240
100
AcDbEntity
  8
LC-010-003-----0
 62
     7
370
    25
100
AcDbLine
 10
1060.310164
 20
2385.02
 30
0.0
 11
1061.876478
 21
2396.917339
 31
0.0
  0
LINE
  5
250
330
240
100
AcDbEntity
  8
LC-010-003-----0
 62
     7
370
    25
100
AcDbLine
 10
1059.59227
 20
2396.972947
 30
0.0
 11
1060.310164
 21
2391.52
 31
0.0
  0
LINE
  5
251
330
240
100
AcDbEntity
  8
LC-010-003-----0
 62
     7
370
    25
100
AcDbLine
 10
1060.310164
 20
2391.52
 30
0.0
 11
1061.028058
 21
2396.972947
 31
0.0
  0
LINE
  5
252
330
240
100
AcDbEntity
  8
LC-010-003-----0
 62
     7
370
    25
100
AcDbLine
 10
1063.573319
 20
2547.233878
 30
0.0
 11
1060.310164
 21
2572.02
 31
0.0
  0
LINE
  5
253
330
240
100
AcDbEntity
  8
LC-010-003-----0
 62
     7
370
    25
100
AcDbLine
 10
1060.310164
 20
2572.02
 30
0.0
 11
1057.047009
 21
2547.233878
 31
0.0
  0
LINE
  5
254
330
240
100
AcDbEntity
  8
LC-010-003-----0
 62
     7
370
    25
100
AcDbLine
 10
1057.047009
 20
2547.233878
 30
0.0
 11
1063.573319
 21
2547.233878
 31
0.0
  0
LINE
  5
255
330
240
100
AcDbEntity
  8
LC-010-003-----0
 62
     7
370
    25
100
AcDbLine
 10
1062.724898
 20
2547.17827
 30
0.0
 11
1060.310164
 21
2565.52
 31
0.0
  0
LINE
  5
256
330
240
100
AcDbEntity
  8
LC-010-003-----0
 62
     7
370
    25
100
AcDbLine
 10
1060.310164
 20
2565.52
 30
0.0
 11
1057.895429
 21
2547.17827
 31
0.0
  0
LINE
  5
257
330
240
100
AcDbEntity
  8
LC-010-003-----0
 62
     7
370
    25
100
AcDbLine
 10
1061.876478
 20
2547.122661
 30
0.0
 11
1060.310164
 21
2559.02
 31
0.0
  0
LINE
  5
258
330
240
100
AcDbEntity
  8
LC-010-003-----0
 62
     7
370
    25
100
AcDbLine
 10
1060.310164
 20
2559.02
 30
0.0
 11
1058.74385
 21
2547.122661
 31
0.0
  0
LINE
  5
259
330
240
100
AcDbEntity
  8
LC-010-003-----0
 62
     7
370
    25
100
AcDbLine
 10
1061.028058
 20
2547.067053
 30
0.0
 11
1060.310164
 21
2552.52
 31
0.0
  0
LINE
  5
25A
330
240
100
AcDbEntity
  8
LC-010-003-----0
 62
     7
370
    25
100
AcDbLine
 10
1060.310164
 20
2552.52
 30
0.0
 11
1059.59227
 21
2547.067053
 31
0.0
  0
TEXT
  5
25B
330
240
100
AcDbEntity
  8
LC-010-003-----0
 62
     7
370
    25
100
AcDbText
 10
1045.310164
 20
2448.736561
 30
0.0
 40
25.0
  1
200
 50
90.0
 41
0.7
  7
LCTX0-400-0-0pDIN-Schrift
 72
     1
 11
1045.310164
 21
2473.736561
 31
0.0
100
AcDbText
  0
ENDBLK
  5
242
330
240
100
AcDbEntity
  8
0
100
AcDbBlockEnd
  0
BLOCK
  5
25E
330
25D
100
AcDbEntity
  8
0
100
AcDbBlockBegin
  2
LCDIM2
 70
     0
 71
     0
 10
0.0
 20
0.0
 30
0.0
  3
LCDIM2
  1

  4
LCDIM2
  0
LINE
  5
260
330
25D
100
AcDbEntity
  8
LC-008-003-MTH-0
 62
     7
370
    25
100
AcDbLine
 10
925.998068
 20
2568.438114
 30
0.0
 11
925.998068
 21
2637.962157
 31
0.0
  0
LINE
  5
261
330
25D
100
AcDbEntity
  8
LC-008-003-MTH-0
 62
     7
370
    25
100
AcDbLine
 10
1255.245125
 20
2568.438114
 30
0.0
 11
1255.245125
 21
2637.962157
 31
0.0
  0
LINE
  5
262
330
25D
100
AcDbEntity
  8
LC-009-003-MTG-0
 62
     7
370
    25
100
AcDbLine
 10
925.998068
 20
2622.962156
 30
0.0
 11
1255.245125
 21
2622.962156
 31
0.0
  0
LINE
  5
263
330
25D
100
AcDbEntity
  8
LC-010-003-----0
 62
     7
370
    25
100
AcDbLine
 10
950.78419
 20
2626.225311
 30
0.0
 11
925.998068
 21
2622.962156
 31
0.0
  0
LINE
  5
264
330
25D
100
AcDbEntity
  8
LC-010-003-----0
 62
     7
370
    25
100
AcDbLine
 10
925.998068
 20
2622.962156
 30
0.0
 11
950.78419
 21
2619.699001
 31
0.0
  0
LINE
  5
265
330
25D
100
AcDbEntity
  8
LC-010-003-----0
 62
     7
370
    25
100
AcDbLine
 10
950.78419
 20
2619.699001
 30
0.0
 11
950.78419
 21
2626.225311
 31
0.0
  0
LINE
  5
266
330
25D
100
AcDbEntity
  8
LC-010-003-----0
 62
     7
370
    25
100
AcDbLine
 10
950.839798
 20
2625.376891
 30
0.0
 11
932.498068
 21
2622.962156
 31
0.0
  0
LINE
  5
267
330
25D
100
AcDbEntity
  8
LC-010-003-----0
 62
     7
370
    25
100
AcDbLine
 10
932.498068
 20
2622.962156
 30
0.0
 11
950.839798
 21
2620.547422
 31
0.0
  0
LINE
  5
268
330
25D
100
AcDbEntity
  8
LC-010-003-----0
 62
     7
370
    25
100
AcDbLine
 10
950.895407
 20
2624.528471
 30
0.0
 11
938.998068
 21
2622.962156
 31
0.0
  0
LINE
  5
269
330
25D
100
AcDbEntity
  8
LC-010-003-----0
 62
     7
370
    25
100
AcDbLine
 10
938.998068
 20
2622.962156
 30
0.0
 11
950.895407
 21
2621.395842
 31
0.0
  0
LINE
  5
26A
330
25D
100
AcDbEntity
  8
LC-010-003-----0
 62
     7
370
    25
100
AcDbLine
 10
950.951015
 20
2623.68005
 30
0.0
 11
945.498068
 21
2622.962156
 31
0.0
  0
LINE
  5
26B
330
25D
100
AcDbEntity
  8
LC-010-003-----0
 62
     7
370
    25
100
AcDbLine
 10
945.498068
 20
2622.962156
 30
0.0
 11
950.951015
 21
2622.244262
 31
0.0
  0
LINE
  5
26C
330
25D
100
AcDbEntity
  8
LC-010-003-----0
 62
     7
370
    25
100
AcDbLine
 10
1230.459003
 20
2619.699001
 30
0.0
 11
1255.245125
 21
2622.962156
 31
0.0
  0
LINE
  5
26D
330
25D
100
AcDbEntity
  8
LC-010-003-----0
 62
     7
370
    25
100
AcDbLine
 10
1255.245125
 20
2622.962156
 30
0.0
 11
1230.459003
 21
2626.225311
 31
0.0
  0
LINE
  5
26E
330
25D
100
AcDbEntity
  8
LC-010-003-----0
 62
     7
370
    25
100
AcDbLine
 10
1230.459003
 20
2626.225311
 30
0.0
 11
1230.459003
 21
2619.699001
 31
0.0
  0
LINE
  5
26F
330
25D
100
AcDbEntity
  8
LC-010-003-----0
 62
     7
370
    25
100
AcDbLine
 10
1230.403395
 20
2620.547422
 30
0.0
 11
1248.745125
 21
2622.962156
 31
0.0
  0
LINE
  5
270
330
25D
100
AcDbEntity
  8
LC-010-003-----0
 62
     7
370
    25
100
AcDbLine
 10
1248.745125
 20
2622.962156
 30
0.0
 11
1230.403395
 21
2625.376891
 31
0.0
  0
LINE
  5
271
330
25D
100
AcDbEntity
  8
LC-010-003-----0
 62
     7
370
    25
100
AcDbLine
 10
1230.347787
 20
2621.395842
 30
0.0
 11
1242.245125
 21
2622.962156
 31
0.0
  0
LINE
  5
272
330
25D
100
AcDbEntity
  8
LC-010-003-----0
 62
     7
370
    25
100
AcDbLine
 10
1242.245125
 20
2622.962156
 30
0.0
 11
1230.347787
 21
2624.528471
 31
0.0
  0
LINE
  5
273
330
25D
100
AcDbEntity
  8
LC-010-003-----0
 62
     7
370
    25
100
AcDbLine
 10
1230.292178
 20
2622.244262
 30
0.0
 11
1235.745125
 21
2622.962156
 31
0.0
  0
LINE
  5
274
330
25D
100
AcDbEntity
  8
LC-010-003-----0
 62
     7
370
    25
100
AcDbLine
 10
1235.745125
 20
2622.962156
 30
0.0
 11
1230.292178
 21
2623.68005
 31
0.0
  0
TEXT
  5
275
330
25D
100
AcDbEntity
  8
LC-010-003-----0
 62
     7
370
    25
100
AcDbText
 10
1055.558608
 20
2637.962157
 30
0.0
 40
25.0
  1
329
 41
0.7
  7
LCTX0-400-0-0pDIN-Schrift
 72
     1
 11
1080.141942
 21
2637.962157
 31
0.0
100
AcDbText
  0
ENDBLK
  5
25F
330
25D
100
AcDbEntity
  8
0
100
AcDbBlockEnd
  0
BLOCK
  5
278
330
277
100
AcDbEntity
  8
0
100
AcDbBlockBegin
  2
LCDIM3
 70
     0
 71
     0
 10
0.0
 20
0.0
 30
0.0
  3
LCDIM3
  1

  4
LCDIM3
  0
LINE
  5
27A
330
277
100
AcDbEntity
  8
LC-008-003-MTH-0
 62
     7
370
    25
100
AcDbLine
 10
835.621597
 20
2377.02
 30
0.0
 11
835.621597
 21
2201.955489
 31
0.0
  0
LINE
  5
27B
330
277
100
AcDbEntity
  8
LC-008-003-MTH-0
 62
     7
370
    25
100
AcDbLine
 10
1285.621597
 20
2377.02
 30
0.0
 11
1285.621597
 21
2201.955489
 31
0.0
  0
LINE
  5
27C
330
277
100
AcDbEntity
  8
LC-009-003-MTG-0
 62
     7
370
    25
100
AcDbLine
 10
835.621597
 20
2216.955489
 30
0.0
 11
1285.621597
 21
2216.955489
 31
0.0
  0
LINE
  5
27D
330
277
100
AcDbEntity
  8
LC-010-003-----0
 62
     7
370
    25
100
AcDbLine
 10
860.407719
 20
2220.218644
 30
0.0
 11
835.621597
 21
2216.955489
 31
0.0
  0
LINE
  5
27E
330
277
100
AcDbEntity
  8
LC-010-003-----0
 62
     7
370
    25
100
AcDbLine
 10
835.621597
 20
2216.955489
 30
0.0
 11
860.407719
 21
2213.692334
 31
0.0
  0
LINE
  5
27F
330
277
100
AcDbEntity
  8
LC-010-003-----0
 62
     7
370
    25
100
AcDbLine
 10
860.407719
 20
2213.692334
 30
0.0
 11
860.407719
 21
2220.218644
 31
0.0
  0
LINE
  5
280
330
277
100
AcDbEntity
  8
LC-010-003-----0
 62
     7
370
    25
100
AcDbLine
 10
860.463327
 20
2219.370224
 30
0.0
 11
842.121597
 21
2216.955489
 31
0.0
  0
LINE
  5
281
330
277
100
AcDbEntity
  8
LC-010-003-----0
 62
     7
370
    25
100
AcDbLine
 10
842.121597
 20
2216.955489
 30
0.0
 11
860.463327
 21
2214.540754
 31
0.0
  0
LINE
  5
282
330
277
100
AcDbEntity
  8
LC-010-003-----0
 62
     7
370
    25
100
AcDbLine
 10
860.518935
 20
2218.521803
 30
0.0
 11
848.621597
 21
2216.955489
 31
0.0
  0
LINE
  5
283
330
277
100
AcDbEntity
  8
LC-010-003-----0
 62
     7
370
    25
100
AcDbLine
 10
848.621597
 20
2216.955489
 30
0.0
 11
860.518935
 21
2215.389175
 31
0.0
  0
LINE
  5
284
330
277
100
AcDbEntity
  8
LC-010-003-----0
 62
     7
370
    25
100
AcDbLine
 10
860.574544
 20
2217.673383
 30
0.0
 11
855.121597
 21
2216.955489
 31
0.0
  0
LINE
  5
285
330
277
100
AcDbEntity
  8
LC-010-003-----0
 62
     7
370
    25
100
AcDbLine
 10
855.121597
 20
2216.955489
 30
0.0
 11
860.574544
 21
2216.237595
 31
0.0
  0
LINE
  5
286
330
277
100
AcDbEntity
  8
LC-010-003-----0
 62
     7
370
    25
100
AcDbLine
 10
1260.835475
 20
2213.692334
 30
0.0
 11
1285.621597
 21
2216.955489
 31
0.0
  0
LINE
  5
287
330
277
100
AcDbEntity
  8
LC-010-003-----0
 62
     7
370
    25
100
AcDbLine
 10
1285.621597
 20
2216.955489
 30
0.0
 11
1260.835475
 21
2220.218644
 31
0.0
  0
LINE
  5
288
330
277
100
AcDbEntity
  8
LC-010-003-----0
 62
     7
370
    25
100
AcDbLine
 10
1260.835475
 20
2220.218644
 30
0.0
 11
1260.835475
 21
2213.692334
 31
0.0
  0
LINE
  5
289
330
277
100
AcDbEntity
  8
LC-010-003-----0
 62
     7
370
    25
100
AcDbLine
 10
1260.779866
 20
2214.540754
 30
0.0
 11
1279.121597
 21
2216.955489
 31
0.0
  0
LINE
  5
28A
330
277
100
AcDbEntity
  8
LC-010-003-----0
 62
     7
370
    25
100
AcDbLine
 10
1279.121597
 20
2216.955489
 30
0.0
 11
1260.779866
 21
2219.370224
 31
0.0
  0
LINE
  5
28B
330
277
100
AcDbEntity
  8
LC-010-003-----0
 62
     7
370
    25
100
AcDbLine
 10
1260.724258
 20
2215.389175
 30
0.0
 11
1272.621597
 21
2216.955489
 31
0.0
  0
LINE
  5
28C
330
277
100
AcDbEntity
  8
LC-010-003-----0
 62
     7
370
    25
100
AcDbLine
 10
1272.621597
 20
2216.955489
 30
0.0
 11
1260.724258
 21
2218.521803
 31
0.0
  0
LINE
  5
28D
330
277
100
AcDbEntity
  8
LC-010-003-----0
 62
     7
370
    25
100
AcDbLine
 10
1260.66865
 20
2216.237595
 30
0.0
 11
1266.121596
 21
2216.955489
 31
0.0
  0
LINE
  5
28E
330
277
100
AcDbEntity
  8
LC-010-003-----0
 62
     7
370
    25
100
AcDbLine
 10
1266.121596
 20
2216.955489
 30
0.0
 11
1260.66865
 21
2217.673383
 31
0.0
  0
TEXT
  5
28F
330
277
100
AcDbEntity
  8
LC-010-003-----0
 62
     7
370
    25
100
AcDbText
 10
1094.347575
 20
2231.955489
 30
0.0
 40
25.0
  1
450
 41
0.7
  7
LCTX0-400-0-0pDIN-Schrift
 72
     1
 11
1119.347575
 21
2231.955489
 31
0.0
100
AcDbText
  0
ENDBLK
  5
279
330
277
100
AcDbEntity
  8
0
100
AcDbBlockEnd
  0
BLOCK
  5
292
330
291
100
AcDbEntity
  8
0
100
AcDbBlockBegin
  2
LCDIM4
 70
     0
 71
     0
 10
0.0
 20
0.0
 30
0.0
  3
LCDIM4
  1

  4
LCDIM4
  0
LINE
  5
294
330
291
100
AcDbEntity
  8
LC-008-003-MTH-0
 62
     7
370
    25
100
AcDbLine
 10
1280.621597
 20
2527.02
 30
0.0
 11
1280.621597
 21
2381.015504
 31
0.0
  0
LINE
  5
295
330
291
100
AcDbEntity
  8
LC-008-003-MTH-0
 62
     7
370
    25
100
AcDbLine
 10
1285.621597
 20
2527.02
 30
0.0
 11
1285.621597
 21
2381.015504
 31
0.0
  0
LINE
  5
296
330
291
100
AcDbEntity
  8
LC-010-003-----0
 62
     7
370
    25
100
AcDbLine
 10
1255.835475
 20
2392.752349
 30
0.0
 11
1280.621597
 21
2396.015504
 31
0.0
  0
LINE
  5
297
330
291
100
AcDbEntity
  8
LC-010-003-----0
 62
     7
370
    25
100
AcDbLine
 10
1280.621597
 20
2396.015504
 30
0.0
 11
1255.835475
 21
2399.278659
 31
0.0
  0
LINE
  5
298
330
291
100
AcDbEntity
  8
LC-010-003-----0
 62
     7
370
    25
100
AcDbLine
 10
1255.835475
 20
2399.278659
 30
0.0
 11
1255.835475
 21
2392.752349
 31
0.0
  0
LINE
  5
299
330
291
100
AcDbEntity
  8
LC-010-003-----0
 62
     7
370
    25
100
AcDbLine
 10
1255.779866
 20
2393.60077
 30
0.0
 11
1274.121597
 21
2396.015504
 31
0.0
  0
LINE
  5
29A
330
291
100
AcDbEntity
  8
LC-010-003-----0
 62
     7
370
    25
100
AcDbLine
 10
1274.121597
 20
2396.015504
 30
0.0
 11
1255.779866
 21
2398.430239
 31
0.0
  0
LINE
  5
29B
330
291
100
AcDbEntity
  8
LC-010-003-----0
 62
     7
370
    25
100
AcDbLine
 10
1255.724258
 20
2394.44919
 30
0.0
 11
1267.621597
 21
2396.015504
 31
0.0
  0
LINE
  5
29C
330
291
100
AcDbEntity
  8
LC-010-003-----0
 62
     7
370
    25
100
AcDbLine
 10
1267.621597
 20
2396.015504
 30
0.0
 11
1255.724258
 21
2397.581818
 31
0.0
  0
LINE
  5
29D
330
291
100
AcDbEntity
  8
LC-010-003-----0
 62
     7
370
    25
100
AcDbLine
 10
1255.66865
 20
2395.29761
 30
0.0
 11
1261.121596
 21
2396.015504
 31
0.0
  0
LINE
  5
29E
330
291
100
AcDbEntity
  8
LC-010-003-----0
 62
     7
370
    25
100
AcDbLine
 10
1261.121596
 20
2396.015504
 30
0.0
 11
1255.66865
 21
2396.733398
 31
0.0
  0
LINE
  5
29F
330
291
100
AcDbEntity
  8
LC-010-003-----0
 62
     7
370
    25
100
AcDbLine
 10
1310.407719
 20
2399.278659
 30
0.0
 11
1285.621597
 21
2396.015504
 31
0.0
  0
LINE
  5
2A0
330
291
100
AcDbEntity
  8
LC-010-003-----0
 62
     7
370
    25
100
AcDbLine
 10
1285.621597
 20
2396.015504
 30
0.0
 11
1310.407719
 21
2392.752349
 31
0.0
  0
LINE
  5
2A1
330
291
100
AcDbEntity
  8
LC-010-003-----0
 62
     7
370
    25
100
AcDbLine
 10
1310.407719
 20
2392.752349
 30
0.0
 11
1310.407719
 21
2399.278659
 31
0.0
  0
LINE
  5
2A2
330
291
100
AcDbEntity
  8
LC-010-003-----0
 62
     7
370
    25
100
AcDbLine
 10
1310.463327
 20
2398.430239
 30
0.0
 11
1292.121597
 21
2396.015504
 31
0.0
  0
LINE
  5
2A3
330
291
100
AcDbEntity
  8
LC-010-003-----0
 62
     7
370
    25
100
AcDbLine
 10
1292.121597
 20
2396.015504
 30
0.0
 11
1310.463327
 21
2393.60077
 31
0.0
  0
LINE
  5
2A4
330
291
100
AcDbEntity
  8
LC-010-003-----0
 62
     7
370
    25
100
AcDbLine
 10
1310.518935
 20
2397.581818
 30
0.0
 11
1298.621597
 21
2396.015504
 31
0.0
  0
LINE
  5
2A5
330
291
100
AcDbEntity
  8
LC-010-003-----0
 62
     7
370
    25
100
AcDbLine
 10
1298.621597
 20
2396.015504
 30
0.0
 11
1310.518935
 21
2394.44919
 31
0.0
  0
LINE
  5
2A6
330
291
100
AcDbEntity
  8
LC-010-003-----0
 62
     7
370
    25
100
AcDbLine
 10
1310.574544
 20
2396.733398
 30
0.0
 11
1305.121597
 21
2396.015504
 31
0.0
  0
LINE
  5
2A7
330
291
100
AcDbEntity
  8
LC-010-003-----0
 62
     7
370
    25
100
AcDbLine
 10
1305.121597
 20
2396.015504
 30
0.0
 11
1310.574544
 21
2395.29761
 31
0.0
  0
LINE
  5
2A8
330
291
100
AcDbEntity
  8
LC-009-003-MTG-0
 62
     7
370
    25
100
AcDbLine
 10
1245.621596
 20
2396.015504
 30
0.0
 11
1328.09737
 21
2396.015504
 31
0.0
  0
TEXT
  5
2A9
330
291
100
AcDbEntity
  8
LC-010-003-----0
 62
     7
370
    25
100
AcDbText
 10
1326.775443
 20
2411.015504
 30
0.0
 40
25.0
  1
5
 41
0.7
  7
LCTX0-400-0-0pDIN-Schrift
100
AcDbText
  0
ENDBLK
  5
293
330
291
100
AcDbEntity
  8
0
100
AcDbBlockEnd
  0
BLOCK
  5
32D
330
32C
100
AcDbEntity
  8
0
100
AcDbBlockBegin
  2
POLY1
 70
     0
 71
     0
 10
0.0
 20
0.0
 30
0.0
  3
POLY1
  1

  4
POLY1
  0
LINE
  5
32F
330
32C
100
AcDbEntity
  8
LC-002-002-----0
 62
     7
370
    25
100
AcDbLine
 10
866.424039
 20
2355.687674
 30
0.0
 11
866.424039
 21
2355.687674
 31
0.0
  0
LINE
  5
330
330
32C
100
AcDbEntity
  8
LC-002-002-----0
 62
     7
370
    25
100
AcDbLine
 10
866.424039
 20
2355.687674
 30
0.0
 11
866.586658
 21
2355.687739
 31
0.0
  0
LINE
  5
331
330
32C
100
AcDbEntity
  8
LC-002-002-----0
 62
     7
370
    25
100
AcDbLine
 10
866.586658
 20
2355.687739
 30
0.0
 11
866.586658
 21
2355.687739
 31
0.0
  0
LINE
  5
332
330
32C
100
AcDbEntity
  8
LC-002-002-----0
 62
     7
370
    25
100
AcDbLine
 10
866.586658
 20
2355.687739
 30
0.0
 11
867.053795
 21
2355.688095
 31
0.0
  0
LINE
  5
333
330
32C
100
AcDbEntity
  8
LC-002-002-----0
 62
     7
370
    25
100
AcDbLine
 10
867.053795
 20
2355.688095
 30
0.0
 11
867.053795
 21
2355.688095
 31
0.0
  0
LINE
  5
334
330
32C
100
AcDbEntity
  8
LC-002-002-----0
 62
     7
370
    25
100
AcDbLine
 10
867.053795
 20
2355.688095
 30
0.0
 11
867.806858
 21
2355.687805
 31
0.0
  0
LINE
  5
335
330
32C
100
AcDbEntity
  8
LC-002-002-----0
 62
     7
370
    25
100
AcDbLine
 10
867.806858
 20
2355.687805
 30
0.0
 11
867.806858
 21
2355.687805
 31
0.0
  0
LINE
  5
336
330
32C
100
AcDbEntity
  8
LC-002-002-----0
 62
     7
370
    25
100
AcDbLine
 10
867.806858
 20
2355.687805
 30
0.0
 11
868.841187
 21
2355.687563
 31
0.0
  0
LINE
  5
337
330
32C
100
AcDbEntity
  8
LC-002-002-----0
 62
     7
370
    25
100
AcDbLine
 10
868.841187
 20
2355.687563
 30
0.0
 11
868.841187
 21
2355.687563
 31
0.0
  0
LINE
  5
338
330
32C
100
AcDbEntity
  8
LC-002-002-----0
 62
     7
370
    25
100
AcDbLine
 10
868.841187
 20
2355.687563
 30
0.0
 11
870.188441
 21
2355.687529
 31
0.0
  0
LINE
  5
339
330
32C
100
AcDbEntity
  8
LC-002-002-----0
 62
     7
370
    25
100
AcDbLine
 10
870.188441
 20
2355.687529
 30
0.0
 11
870.188441
 21
2355.687529
 31
0.0
  0
LINE
  5
33A
330
32C
100
AcDbEntity
  8
LC-002-002-----0
 62
     7
370
    25
100
AcDbLine
 10
870.188441
 20
2355.687529
 30
0.0
 11
871.844145
 21
2355.687613
 31
0.0
  0
LINE
  5
33B
330
32C
100
AcDbEntity
  8
LC-002-002-----0
 62
     7
370
    25
100
AcDbLine
 10
871.844145
 20
2355.687613
 30
0.0
 11
871.844145
 21
2355.687613
 31
0.0
  0
LINE
  5
33C
330
32C
100
AcDbEntity
  8
LC-002-002-----0
 62
     7
370
    25
100
AcDbLine
 10
871.844145
 20
2355.687613
 30
0.0
 11
873.7916
 21
2355.687941
 31
0.0
  0
LINE
  5
33D
330
32C
100
AcDbEntity
  8
LC-002-002-----0
 62
     7
370
    25
100
AcDbLine
 10
873.7916
 20
2355.687941
 30
0.0
 11
873.7916
 21
2355.687941
 31
0.0
  0
LINE
  5
33E
330
32C
100
AcDbEntity
  8
LC-002-002-----0
 62
     7
370
    25
100
AcDbLine
 10
873.7916
 20
2355.687941
 30
0.0
 11
876.005341
 21
2355.687793
 31
0.0
  0
LINE
  5
33F
330
32C
100
AcDbEntity
  8
LC-002-002-----0
 62
     7
370
    25
100
AcDbLine
 10
876.005341
 20
2355.687793
 30
0.0
 11
876.005341
 21
2355.687793
 31
0.0
  0
LINE
  5
340
330
32C
100
AcDbEntity
  8
LC-002-002-----0
 62
     7
370
    25
100
AcDbLine
 10
876.005341
 20
2355.687793
 30
0.0
 11
878.416347
 21
2355.687761
 31
0.0
  0
LINE
  5
341
330
32C
100
AcDbEntity
  8
LC-002-002-----0
 62
     7
370
    25
100
AcDbLine
 10
878.416347
 20
2355.687761
 30
0.0
 11
878.416347
 21
2355.687761
 31
0.0
  0
LINE
  5
342
330
32C
100
AcDbEntity
  8
LC-002-002-----0
 62
     7
370
    25
100
AcDbLine
 10
878.416347
 20
2355.687761
 30
0.0
 11
880.900708
 21
2355.687763
 31
0.0
  0
LINE
  5
343
330
32C
100
AcDbEntity
  8
LC-002-002-----0
 62
     7
370
    25
100
AcDbLine
 10
880.900708
 20
2355.687763
 30
0.0
 11
880.900708
 21
2355.687763
 31
0.0
  0
LINE
  5
344
330
32C
100
AcDbEntity
  8
LC-002-002-----0
 62
     7
370
    25
100
AcDbLine
 10
880.900708
 20
2355.687763
 30
0.0
 11
883.301019
 21
2355.68781
 31
0.0
  0
LINE
  5
345
330
32C
100
AcDbEntity
  8
LC-002-002-----0
 62
     7
370
    25
100
AcDbLine
 10
883.301019
 20
2355.68781
 30
0.0
 11
883.301019
 21
2355.68781
 31
0.0
  0
LINE
  5
346
330
32C
100
AcDbEntity
  8
LC-002-002-----0
 62
     7
370
    25
100
AcDbLine
 10
883.301019
 20
2355.68781
 30
0.0
 11
885.495705
 21
2355.687946
 31
0.0
  0
LINE
  5
347
330
32C
100
AcDbEntity
  8
LC-002-002-----0
 62
     7
370
    25
100
AcDbLine
 10
885.495705
 20
2355.687946
 30
0.0
 11
885.495705
 21
2355.687946
 31
0.0
  0
LINE
  5
348
330
32C
100
AcDbEntity
  8
LC-002-002-----0
 62
     7
370
    25
100
AcDbLine
 10
885.495705
 20
2355.687946
 30
0.0
 11
887.422612
 21
2355.687621
 31
0.0
  0
LINE
  5
349
330
32C
100
AcDbEntity
  8
LC-002-002-----0
 62
     7
370
    25
100
AcDbLine
 10
887.422612
 20
2355.687621
 30
0.0
 11
887.422612
 21
2355.687621
 31
0.0
  0
LINE
  5
34A
330
32C
100
AcDbEntity
  8
LC-002-002-----0
 62
     7
370
    25
100
AcDbLine
 10
887.422612
 20
2355.687621
 30
0.0
 11
889.061348
 21
2355.687538
 31
0.0
  0
LINE
  5
34B
330
32C
100
AcDbEntity
  8
LC-002-002-----0
 62
     7
370
    25
100
AcDbLine
 10
889.061348
 20
2355.687538
 30
0.0
 11
889.061348
 21
2355.687538
 31
0.0
  0
LINE
  5
34C
330
32C
100
AcDbEntity
  8
LC-002-002-----0
 62
     7
370
    25
100
AcDbLine
 10
889.061348
 20
2355.687538
 30
0.0
 11
890.398477
 21
2355.687566
 31
0.0
  0
LINE
  5
34D
330
32C
100
AcDbEntity
  8
LC-002-002-----0
 62
     7
370
    25
100
AcDbLine
 10
890.398477
 20
2355.687566
 30
0.0
 11
890.398477
 21
2355.687566
 31
0.0
  0
LINE
  5
34E
330
32C
100
AcDbEntity
  8
LC-002-002-----0
 62
     7
370
    25
100
AcDbLine
 10
890.398477
 20
2355.687566
 30
0.0
 11
891.429749
 21
2355.687791
 31
0.0
  0
LINE
  5
34F
330
32C
100
AcDbEntity
  8
LC-002-002-----0
 62
     7
370
    25
100
AcDbLine
 10
891.429749
 20
2355.687791
 30
0.0
 11
891.429749
 21
2355.687791
 31
0.0
  0
LINE
  5
350
330
32C
100
AcDbEntity
  8
LC-002-002-----0
 62
     7
370
    25
100
AcDbLine
 10
891.429749
 20
2355.687791
 30
0.0
 11
892.184307
 21
2355.688062
 31
0.0
  0
LINE
  5
351
330
32C
100
AcDbEntity
  8
LC-002-002-----0
 62
     7
370
    25
100
AcDbLine
 10
892.184307
 20
2355.688062
 30
0.0
 11
892.184307
 21
2355.688062
 31
0.0
  0
LINE
  5
352
330
32C
100
AcDbEntity
  8
LC-002-002-----0
 62
     7
370
    25
100
AcDbLine
 10
892.184307
 20
2355.688062
 30
0.0
 11
892.654698
 21
2355.687712
 31
0.0
  0
LINE
  5
353
330
32C
100
AcDbEntity
  8
LC-002-002-----0
 62
     7
370
    25
100
AcDbLine
 10
892.654698
 20
2355.687712
 30
0.0
 11
892.654698
 21
2355.687712
 31
0.0
  0
LINE
  5
354
330
32C
100
AcDbEntity
  8
LC-002-002-----0
 62
     7
370
    25
100
AcDbLine
 10
892.654698
 20
2355.687712
 30
0.0
 11
892.819119
 21
2355.687643
 31
0.0
  0
ENDBLK
  5
32E
330
32C
100
AcDbEntity
  8
0
100
AcDbBlockEnd
  0
BLOCK
  5
357
330
356
100
AcDbEntity
  8
0
100
AcDbBlockBegin
  2
POLY2
 70
     0
 71
     0
 10
0.0
 20
0.0
 30
0.0
  3
POLY2
  1

  4
POLY2
  0
LINE
  5
359
330
356
100
AcDbEntity
  8
LC-002-002-----0
 62
     7
370
    25
100
AcDbLine
 10
901.04402
 20
2534.643003
 30
0.0
 11
901.04402
 21
2534.643003
 31
0.0
  0
LINE
  5
35A
330
356
100
AcDbEntity
  8
LC-002-002-----0
 62
     7
370
    25
100
AcDbLine
 10
901.04402
 20
2534.643003
 30
0.0
 11
901.214546
 21
2534.714048
 31
0.0
  0
LINE
  5
35B
330
356
100
AcDbEntity
  8
LC-002-002-----0
 62
     7
370
    25
100
AcDbLine
 10
901.214546
 20
2534.714048
 30
0.0
 11
901.214546
 21
2534.714048
 31
0.0
  0
LINE
  5
35C
330
356
100
AcDbEntity
  8
LC-002-002-----0
 62
     7
370
    25
100
AcDbLine
 10
901.214546
 20
2534.714048
 30
0.0
 11
901.374693
 21
2534.79816
 31
0.0
  0
LINE
  5
35D
330
356
100
AcDbEntity
  8
LC-002-002-----0
 62
     7
370
    25
100
AcDbLine
 10
901.374693
 20
2534.79816
 30
0.0
 11
901.374693
 21
2534.79816
 31
0.0
  0
LINE
  5
35E
330
356
100
AcDbEntity
  8
LC-002-002-----0
 62
     7
370
    25
100
AcDbLine
 10
901.374693
 20
2534.79816
 30
0.0
 11
901.511487
 21
2534.885221
 31
0.0
  0
LINE
  5
35F
330
356
100
AcDbEntity
  8
LC-002-002-----0
 62
     7
370
    25
100
AcDbLine
 10
901.511487
 20
2534.885221
 30
0.0
 11
901.511487
 21
2534.885221
 31
0.0
  0
LINE
  5
360
330
356
100
AcDbEntity
  8
LC-002-002-----0
 62
     7
370
    25
100
AcDbLine
 10
901.511487
 20
2534.885221
 30
0.0
 11
901.622676
 21
2534.967978
 31
0.0
  0
LINE
  5
361
330
356
100
AcDbEntity
  8
LC-002-002-----0
 62
     7
370
    25
100
AcDbLine
 10
901.622676
 20
2534.967978
 30
0.0
 11
901.622676
 21
2534.967978
 31
0.0
  0
LINE
  5
362
330
356
100
AcDbEntity
  8
LC-002-002-----0
 62
     7
370
    25
100
AcDbLine
 10
901.622676
 20
2534.967978
 30
0.0
 11
901.715448
 21
2535.046647
 31
0.0
  0
LINE
  5
363
330
356
100
AcDbEntity
  8
LC-002-002-----0
 62
     7
370
    25
100
AcDbLine
 10
901.715448
 20
2535.046647
 30
0.0
 11
901.715448
 21
2535.046647
 31
0.0
  0
LINE
  5
364
330
356
100
AcDbEntity
  8
LC-002-002-----0
 62
     7
370
    25
100
AcDbLine
 10
901.715448
 20
2535.046647
 30
0.0
 11
901.79333
 21
2535.120593
 31
0.0
  0
LINE
  5
365
330
356
100
AcDbEntity
  8
LC-002-002-----0
 62
     7
370
    25
100
AcDbLine
 10
901.79333
 20
2535.120593
 30
0.0
 11
901.79333
 21
2535.120593
 31
0.0
  0
LINE
  5
366
330
356
100
AcDbEntity
  8
LC-002-002-----0
 62
     7
370
    25
100
AcDbLine
 10
901.79333
 20
2535.120593
 30
0.0
 11
901.858875
 21
2535.189365
 31
0.0
  0
LINE
  5
367
330
356
100
AcDbEntity
  8
LC-002-002-----0
 62
     7
370
    25
100
AcDbLine
 10
901.858875
 20
2535.189365
 30
0.0
 11
901.858875
 21
2535.189365
 31
0.0
  0
LINE
  5
368
330
356
100
AcDbEntity
  8
LC-002-002-----0
 62
     7
370
    25
100
AcDbLine
 10
901.858875
 20
2535.189365
 30
0.0
 11
901.91433
 21
2535.252992
 31
0.0
  0
LINE
  5
369
330
356
100
AcDbEntity
  8
LC-002-002-----0
 62
     7
370
    25
100
AcDbLine
 10
901.91433
 20
2535.252992
 30
0.0
 11
901.91433
 21
2535.252992
 31
0.0
  0
LINE
  5
36A
330
356
100
AcDbEntity
  8
LC-002-002-----0
 62
     7
370
    25
100
AcDbLine
 10
901.91433
 20
2535.252992
 30
0.0
 11
901.961272
 21
2535.31138
 31
0.0
  0
LINE
  5
36B
330
356
100
AcDbEntity
  8
LC-002-002-----0
 62
     7
370
    25
100
AcDbLine
 10
901.961272
 20
2535.31138
 30
0.0
 11
901.961272
 21
2535.31138
 31
0.0
  0
LINE
  5
36C
330
356
100
AcDbEntity
  8
LC-002-002-----0
 62
     7
370
    25
100
AcDbLine
 10
901.961272
 20
2535.31138
 30
0.0
 11
902.000912
 21
2535.364422
 31
0.0
  0
LINE
  5
36D
330
356
100
AcDbEntity
  8
LC-002-002-----0
 62
     7
370
    25
100
AcDbLine
 10
902.000912
 20
2535.364422
 30
0.0
 11
902.000912
 21
2535.364422
 31
0.0
  0
LINE
  5
36E
330
356
100
AcDbEntity
  8
LC-002-002-----0
 62
     7
370
    25
100
AcDbLine
 10
902.000912
 20
2535.364422
 30
0.0
 11
902.034153
 21
2535.411929
 31
0.0
  0
LINE
  5
36F
330
356
100
AcDbEntity
  8
LC-002-002-----0
 62
     7
370
    25
100
AcDbLine
 10
902.034153
 20
2535.411929
 30
0.0
 11
902.034153
 21
2535.411929
 31
0.0
  0
LINE
  5
370
330
356
100
AcDbEntity
  8
LC-002-002-----0
 62
     7
370
    25
100
AcDbLine
 10
902.034153
 20
2535.411929
 30
0.0
 11
902.061547
 21
2535.453438
 31
0.0
  0
LINE
  5
371
330
356
100
AcDbEntity
  8
LC-002-002-----0
 62
     7
370
    25
100
AcDbLine
 10
902.061547
 20
2535.453438
 30
0.0
 11
902.061547
 21
2535.453438
 31
0.0
  0
LINE
  5
372
330
356
100
AcDbEntity
  8
LC-002-002-----0
 62
     7
370
    25
100
AcDbLine
 10
902.061547
 20
2535.453438
 30
0.0
 11
902.0834
 21
2535.488268
 31
0.0
  0
LINE
  5
373
330
356
100
AcDbEntity
  8
LC-002-002-----0
 62
     7
370
    25
100
AcDbLine
 10
902.0834
 20
2535.488268
 30
0.0
 11
902.0834
 21
2535.488268
 31
0.0
  0
LINE
  5
374
330
356
100
AcDbEntity
  8
LC-002-002-----0
 62
     7
370
    25
100
AcDbLine
 10
902.0834
 20
2535.488268
 30
0.0
 11
902.0994
 21
2535.514839
 31
0.0
  0
LINE
  5
375
330
356
100
AcDbEntity
  8
LC-002-002-----0
 62
     7
370
    25
100
AcDbLine
 10
902.0994
 20
2535.514839
 30
0.0
 11
902.0994
 21
2535.514839
 31
0.0
  0
LINE
  5
376
330
356
100
AcDbEntity
  8
LC-002-002-----0
 62
     7
370
    25
100
AcDbLine
 10
902.0994
 20
2535.514839
 30
0.0
 11
902.112269
 21
2535.536921
 31
0.0
  0
ENDBLK
  5
358
330
356
100
AcDbEntity
  8
0
100
AcDbBlockEnd
  0
BLOCK
  5
39B
330
39A
100
AcDbEntity
  8
0
100
AcDbBlockBegin
  2
POLY3
 70
     0
 71
     0
 10
0.0
 20
0.0
 30
0.0
  3
POLY3
  1

  4
POLY3
  0
LINE
  5
39D
330
39A
100
AcDbEntity
  8
LC-002-002-----0
 62
     7
370
    25
100
AcDbLine
 10
894.954824
 20
2523.405066
 30
0.0
 11
894.954824
 21
2523.405066
 31
0.0
  0
LINE
  5
39E
330
39A
100
AcDbEntity
  8
LC-002-002-----0
 62
     7
370
    25
100
AcDbLine
 10
894.954824
 20
2523.405066
 30
0.0
 11
894.953517
 21
2523.455637
 31
0.0
  0
LINE
  5
39F
330
39A
100
AcDbEntity
  8
LC-002-002-----0
 62
     7
370
    25
100
AcDbLine
 10
894.953517
 20
2523.455637
 30
0.0
 11
894.953517
 21
2523.455637
 31
0.0
  0
LINE
  5
3A0
330
39A
100
AcDbEntity
  8
LC-002-002-----0
 62
     7
370
    25
100
AcDbLine
 10
894.953517
 20
2523.455637
 30
0.0
 11
894.95019
 21
2523.599698
 31
0.0
  0
LINE
  5
3A1
330
39A
100
AcDbEntity
  8
LC-002-002-----0
 62
     7
370
    25
100
AcDbLine
 10
894.95019
 20
2523.599698
 30
0.0
 11
894.95019
 21
2523.599698
 31
0.0
  0
LINE
  5
3A2
330
39A
100
AcDbEntity
  8
LC-002-002-----0
 62
     7
370
    25
100
AcDbLine
 10
894.95019
 20
2523.599698
 30
0.0
 11
894.946614
 21
2523.821748
 31
0.0
  0
LINE
  5
3A3
330
39A
100
AcDbEntity
  8
LC-002-002-----0
 62
     7
370
    25
100
AcDbLine
 10
894.946614
 20
2523.821748
 30
0.0
 11
894.946614
 21
2523.821748
 31
0.0
  0
LINE
  5
3A4
330
39A
100
AcDbEntity
  8
LC-002-002-----0
 62
     7
370
    25
100
AcDbLine
 10
894.946614
 20
2523.821748
 30
0.0
 11
894.944472
 21
2524.109756
 31
0.0
  0
LINE
  5
3A5
330
39A
100
AcDbEntity
  8
LC-002-002-----0
 62
     7
370
    25
100
AcDbLine
 10
894.944472
 20
2524.109756
 30
0.0
 11
894.944472
 21
2524.109756
 31
0.0
  0
LINE
  5
3A6
330
39A
100
AcDbEntity
  8
LC-002-002-----0
 62
     7
370
    25
100
AcDbLine
 10
894.944472
 20
2524.109756
 30
0.0
 11
894.945589
 21
2524.45656
 31
0.0
  0
ENDBLK
  5
39C
330
39A
100
AcDbEntity
  8
0
100
AcDbBlockEnd
  0
BLOCK
  5
3A9
330
3A8
100
AcDbEntity
  8
0
100
AcDbBlockBegin
  2
POLY4
 70
     0
 71
     0
 10
0.0
 20
0.0
 30
0.0
  3
POLY4
  1

  4
POLY4
  0
LINE
  5
3AB
330
3A8
100
AcDbEntity
  8
LC-002-002-----0
 62
     7
370
    25
100
AcDbLine
 10
864.288369
 20
2523.405066
 30
0.0
 11
864.288369
 21
2523.405066
 31
0.0
  0
LINE
  5
3AC
330
3A8
100
AcDbEntity
  8
LC-002-002-----0
 62
     7
370
    25
100
AcDbLine
 10
864.288369
 20
2523.405066
 30
0.0
 11
864.289676
 21
2523.455637
 31
0.0
  0
LINE
  5
3AD
330
3A8
100
AcDbEntity
  8
LC-002-002-----0
 62
     7
370
    25
100
AcDbLine
 10
864.289676
 20
2523.455637
 30
0.0
 11
864.289676
 21
2523.455637
 31
0.0
  0
LINE
  5
3AE
330
3A8
100
AcDbEntity
  8
LC-002-002-----0
 62
     7
370
    25
100
AcDbLine
 10
864.289676
 20
2523.455637
 30
0.0
 11
864.293004
 21
2523.599698
 31
0.0
  0
LINE
  5
3AF
330
3A8
100
AcDbEntity
  8
LC-002-002-----0
 62
     7
370
    25
100
AcDbLine
 10
864.293004
 20
2523.599698
 30
0.0
 11
864.293004
 21
2523.599698
 31
0.0
  0
LINE
  5
3B0
330
3A8
100
AcDbEntity
  8
LC-002-002-----0
 62
     7
370
    25
100
AcDbLine
 10
864.293004
 20
2523.599698
 30
0.0
 11
864.296579
 21
2523.821748
 31
0.0
  0
LINE
  5
3B1
330
3A8
100
AcDbEntity
  8
LC-002-002-----0
 62
     7
370
    25
100
AcDbLine
 10
864.296579
 20
2523.821748
 30
0.0
 11
864.296579
 21
2523.821748
 31
0.0
  0
LINE
  5
3B2
330
3A8
100
AcDbEntity
  8
LC-002-002-----0
 62
     7
370
    25
100
AcDbLine
 10
864.296579
 20
2523.821748
 30
0.0
 11
864.298721
 21
2524.109756
 31
0.0
  0
LINE
  5
3B3
330
3A8
100
AcDbEntity
  8
LC-002-002-----0
 62
     7
370
    25
100
AcDbLine
 10
864.298721
 20
2524.109756
 30
0.0
 11
864.298721
 21
2524.109756
 31
0.0
  0
LINE
  5
3B4
330
3A8
100
AcDbEntity
  8
LC-002-002-----0
 62
     7
370
    25
100
AcDbLine
 10
864.298721
 20
2524.109756
 30
0.0
 11
864.297605
 21
2524.45656
 31
0.0
  0
ENDBLK
  5
3AA
330
3A8
100
AcDbEntity
  8
0
100
AcDbBlockEnd
  0
BLOCK
  5
3E5
330
3E4
100
AcDbEntity
  8
0
100
AcDbBlockBegin
  2
POLY5
 70
     0
 71
     0
 10
0.0
 20
0.0
 30
0.0
  3
POLY5
  1

  4
POLY5
  0
LINE
  5
3E7
330
3E4
100
AcDbEntity
  8
LC-002-002-----0
 62
     7
370
    25
100
AcDbLine
 10
1557.160744
 20
1786.63
 30
0.0
 11
1557.160744
 21
1786.63
 31
0.0
  0
LINE
  5
3E8
330
3E4
100
AcDbEntity
  8
LC-002-002-----0
 62
     7
370
    25
100
AcDbLine
 10
1557.160744
 20
1786.63
 30
0.0
 11
1557.101806
 21
1787.144773
 31
0.0
  0
LINE
  5
3E9
330
3E4
100
AcDbEntity
  8
LC-002-002-----0
 62
     7
370
    25
100
AcDbLine
 10
1557.101806
 20
1787.144773
 30
0.0
 11
1557.101806
 21
1787.144773
 31
0.0
  0
LINE
  5
3EA
330
3E4
100
AcDbEntity
  8
LC-002-002-----0
 62
     7
370
    25
100
AcDbLine
 10
1557.101806
 20
1787.144773
 30
0.0
 11
1556.928261
 21
1787.626131
 31
0.0
  0
LINE
  5
3EB
330
3E4
100
AcDbEntity
  8
LC-002-002-----0
 62
     7
370
    25
100
AcDbLine
 10
1556.928261
 20
1787.626131
 30
0.0
 11
1556.928261
 21
1787.626131
 31
0.0
  0
LINE
  5
3EC
330
3E4
100
AcDbEntity
  8
LC-002-002-----0
 62
     7
370
    25
100
AcDbLine
 10
1556.928261
 20
1787.626131
 30
0.0
 11
1556.652125
 21
1788.039698
 31
0.0
  0
LINE
  5
3ED
330
3E4
100
AcDbEntity
  8
LC-002-002-----0
 62
     7
370
    25
100
AcDbLine
 10
1556.652125
 20
1788.039698
 30
0.0
 11
1556.652125
 21
1788.039698
 31
0.0
  0
LINE
  5
3EE
330
3E4
100
AcDbEntity
  8
LC-002-002-----0
 62
     7
370
    25
100
AcDbLine
 10
1556.652125
 20
1788.039698
 30
0.0
 11
1556.29078
 21
1788.358644
 31
0.0
  0
LINE
  5
3EF
330
3E4
100
AcDbEntity
  8
LC-002-002-----0
 62
     7
370
    25
100
AcDbLine
 10
1556.29078
 20
1788.358644
 30
0.0
 11
1556.29078
 21
1788.358644
 31
0.0
  0
LINE
  5
3F0
330
3E4
100
AcDbEntity
  8
LC-002-002-----0
 62
     7
370
    25
100
AcDbLine
 10
1556.29078
 20
1788.358644
 30
0.0
 11
1555.867393
 21
1788.560607
 31
0.0
  0
LINE
  5
3F1
330
3E4
100
AcDbEntity
  8
LC-002-002-----0
 62
     7
370
    25
100
AcDbLine
 10
1555.867393
 20
1788.560607
 30
0.0
 11
1555.867393
 21
1788.560607
 31
0.0
  0
LINE
  5
3F2
330
3E4
100
AcDbEntity
  8
LC-002-002-----0
 62
     7
370
    25
100
AcDbLine
 10
1555.867393
 20
1788.560607
 30
0.0
 11
1555.40991
 21
1788.63
 31
0.0
  0
ENDBLK
  5
3E6
330
3E4
100
AcDbEntity
  8
0
100
AcDbBlockEnd
  0
BLOCK
  5
3F6
330
3F5
100
AcDbEntity
  8
0
100
AcDbBlockBegin
  2
POLY6
 70
     0
 71
     0
 10
0.0
 20
0.0
 30
0.0
  3
POLY6
  1

  4
POLY6
  0
LINE
  5
3F8
330
3F5
100
AcDbEntity
  8
LC-002-002-----0
 62
     7
370
    25
100
AcDbLine
 10
1533.948263
 20
1786.63
 30
0.0
 11
1533.948263
 21
1786.63
 31
0.0
  0
LINE
  5
3F9
330
3F5
100
AcDbEntity
  8
LC-002-002-----0
 62
     7
370
    25
100
AcDbLine
 10
1533.948263
 20
1786.63
 30
0.0
 11
1533.948297
 21
1787.144788
 31
0.0
  0
LINE
  5
3FA
330
3F5
100
AcDbEntity
  8
LC-002-002-----0
 62
     7
370
    25
100
AcDbLine
 10
1533.948297
 20
1787.144788
 30
0.0
 11
1533.948297
 21
1787.144788
 31
0.0
  0
LINE
  5
3FB
330
3F5
100
AcDbEntity
  8
LC-002-002-----0
 62
     7
370
    25
100
AcDbLine
 10
1533.948297
 20
1787.144788
 30
0.0
 11
1533.94826
 21
1787.626158
 31
0.0
  0
LINE
  5
3FC
330
3F5
100
AcDbEntity
  8
LC-002-002-----0
 62
     7
370
    25
100
AcDbLine
 10
1533.94826
 20
1787.626158
 30
0.0
 11
1533.94826
 21
1787.626158
 31
0.0
  0
LINE
  5
3FD
330
3F5
100
AcDbEntity
  8
LC-002-002-----0
 62
     7
370
    25
100
AcDbLine
 10
1533.94826
 20
1787.626158
 30
0.0
 11
1533.948267
 21
1788.039728
 31
0.0
  0
LINE
  5
3FE
330
3F5
100
AcDbEntity
  8
LC-002-002-----0
 62
     7
370
    25
100
AcDbLine
 10
1533.948267
 20
1788.039728
 30
0.0
 11
1533.948267
 21
1788.039728
 31
0.0
  0
LINE
  5
3FF
330
3F5
100
AcDbEntity
  8
LC-002-002-----0
 62
     7
370
    25
100
AcDbLine
 10
1533.948267
 20
1788.039728
 30
0.0
 11
1533.948241
 21
1788.358665
 31
0.0
  0
LINE
  5
400
330
3F5
100
AcDbEntity
  8
LC-002-002-----0
 62
     7
370
    25
100
AcDbLine
 10
1533.948241
 20
1788.358665
 30
0.0
 11
1533.948241
 21
1788.358665
 31
0.0
  0
LINE
  5
401
330
3F5
100
AcDbEntity
  8
LC-002-002-----0
 62
     7
370
    25
100
AcDbLine
 10
1533.948241
 20
1788.358665
 30
0.0
 11
1533.94829
 21
1788.560621
 31
0.0
  0
LINE
  5
402
330
3F5
100
AcDbEntity
  8
LC-002-002-----0
 62
     7
370
    25
100
AcDbLine
 10
1533.94829
 20
1788.560621
 30
0.0
 11
1533.94829
 21
1788.560621
 31
0.0
  0
LINE
  5
403
330
3F5
100
AcDbEntity
  8
LC-002-002-----0
 62
     7
370
    25
100
AcDbLine
 10
1533.94829
 20
1788.560621
 30
0.0
 11
1533.948272
 21
1788.63
 31
0.0
  0
ENDBLK
  5
3F7
330
3F5
100
AcDbEntity
  8
0
100
AcDbBlockEnd
  0
BLOCK
  5
407
330
406
100
AcDbEntity
  8
0
100
AcDbBlockBegin
  2
POLY7
 70
     0
 71
     0
 10
0.0
 20
0.0
 30
0.0
  3
POLY7
  1

  4
POLY7
  0
LINE
  5
409
330
406
100
AcDbEntity
  8
LC-002-002-----0
 62
     7
370
    25
100
AcDbLine
 10
1510.735782
 20
1786.63
 30
0.0
 11
1510.735782
 21
1786.63
 31
0.0
  0
LINE
  5
40A
330
406
100
AcDbEntity
  8
LC-002-002-----0
 62
     7
370
    25
100
AcDbLine
 10
1510.735782
 20
1786.63
 30
0.0
 11
1510.79472
 21
1787.144773
 31
0.0
  0
LINE
  5
40B
330
406
100
AcDbEntity
  8
LC-002-002-----0
 62
     7
370
    25
100
AcDbLine
 10
1510.79472
 20
1787.144773
 30
0.0
 11
1510.79472
 21
1787.144773
 31
0.0
  0
LINE
  5
40C
330
406
100
AcDbEntity
  8
LC-002-002-----0
 62
     7
370
    25
100
AcDbLine
 10
1510.79472
 20
1787.144773
 30
0.0
 11
1510.968266
 21
1787.626131
 31
0.0
  0
LINE
  5
40D
330
406
100
AcDbEntity
  8
LC-002-002-----0
 62
     7
370
    25
100
AcDbLine
 10
1510.968266
 20
1787.626131
 30
0.0
 11
1510.968266
 21
1787.626131
 31
0.0
  0
LINE
  5
40E
330
406
100
AcDbEntity
  8
LC-002-002-----0
 62
     7
370
    25
100
AcDbLine
 10
1510.968266
 20
1787.626131
 30
0.0
 11
1511.244401
 21
1788.039698
 31
0.0
  0
LINE
  5
40F
330
406
100
AcDbEntity
  8
LC-002-002-----0
 62
     7
370
    25
100
AcDbLine
 10
1511.244401
 20
1788.039698
 30
0.0
 11
1511.244401
 21
1788.039698
 31
0.0
  0
LINE
  5
410
330
406
100
AcDbEntity
  8
LC-002-002-----0
 62
     7
370
    25
100
AcDbLine
 10
1511.244401
 20
1788.039698
 30
0.0
 11
1511.605747
 21
1788.358644
 31
0.0
  0
LINE
  5
411
330
406
100
AcDbEntity
  8
LC-002-002-----0
 62
     7
370
    25
100
AcDbLine
 10
1511.605747
 20
1788.358644
 30
0.0
 11
1511.605747
 21
1788.358644
 31
0.0
  0
LINE
  5
412
330
406
100
AcDbEntity
  8
LC-002-002-----0
 62
     7
370
    25
100
AcDbLine
 10
1511.605747
 20
1788.358644
 30
0.0
 11
1512.029134
 21
1788.560607
 31
0.0
  0
LINE
  5
413
330
406
100
AcDbEntity
  8
LC-002-002-----0
 62
     7
370
    25
100
AcDbLine
 10
1512.029134
 20
1788.560607
 30
0.0
 11
1512.029134
 21
1788.560607
 31
0.0
  0
LINE
  5
414
330
406
100
AcDbEntity
  8
LC-002-002-----0
 62
     7
370
    25
100
AcDbLine
 10
1512.029134
 20
1788.560607
 30
0.0
 11
1512.486616
 21
1788.63
 31
0.0
  0
ENDBLK
  5
408
330
406
100
AcDbEntity
  8
0
100
AcDbBlockEnd
  0
BLOCK
  5
452
330
451
100
AcDbEntity
  8
0
100
AcDbBlockBegin
  2
POLY8
 70
     0
 71
     0
 10
0.0
 20
0.0
 30
0.0
  3
POLY8
  1

  4
POLY8
  0
LINE
  5
454
330
451
100
AcDbEntity
  8
LC-002-002-----0
 62
     7
370
    25
100
AcDbLine
 10
1785.228363
 20
1698.207576
 30
0.0
 11
1785.228363
 21
1698.207576
 31
0.0
  0
LINE
  5
455
330
451
100
AcDbEntity
  8
LC-002-002-----0
 62
     7
370
    25
100
AcDbLine
 10
1785.228363
 20
1698.207576
 30
0.0
 11
1785.299409
 21
1698.037051
 31
0.0
  0
LINE
  5
456
330
451
100
AcDbEntity
  8
LC-002-002-----0
 62
     7
370
    25
100
AcDbLine
 10
1785.299409
 20
1698.037051
 30
0.0
 11
1785.299409
 21
1698.037051
 31
0.0
  0
LINE
  5
457
330
451
100
AcDbEntity
  8
LC-002-002-----0
 62
     7
370
    25
100
AcDbLine
 10
1785.299409
 20
1698.037051
 30
0.0
 11
1785.38352
 21
1697.876904
 31
0.0
  0
LINE
  5
458
330
451
100
AcDbEntity
  8
LC-002-002-----0
 62
     7
370
    25
100
AcDbLine
 10
1785.38352
 20
1697.876904
 30
0.0
 11
1785.38352
 21
1697.876904
 31
0.0
  0
LINE
  5
459
330
451
100
AcDbEntity
  8
LC-002-002-----0
 62
     7
370
    25
100
AcDbLine
 10
1785.38352
 20
1697.876904
 30
0.0
 11
1785.470582
 21
1697.74011
 31
0.0
  0
LINE
  5
45A
330
451
100
AcDbEntity
  8
LC-002-002-----0
 62
     7
370
    25
100
AcDbLine
 10
1785.470582
 20
1697.74011
 30
0.0
 11
1785.470582
 21
1697.74011
 31
0.0
  0
LINE
  5
45B
330
451
100
AcDbEntity
  8
LC-002-002-----0
 62
     7
370
    25
100
AcDbLine
 10
1785.470582
 20
1697.74011
 30
0.0
 11
1785.553338
 21
1697.628921
 31
0.0
  0
LINE
  5
45C
330
451
100
AcDbEntity
  8
LC-002-002-----0
 62
     7
370
    25
100
AcDbLine
 10
1785.553338
 20
1697.628921
 30
0.0
 11
1785.553338
 21
1697.628921
 31
0.0
  0
LINE
  5
45D
330
451
100
AcDbEntity
  8
LC-002-002-----0
 62
     7
370
    25
100
AcDbLine
 10
1785.553338
 20
1697.628921
 30
0.0
 11
1785.632007
 21
1697.536148
 31
0.0
  0
LINE
  5
45E
330
451
100
AcDbEntity
  8
LC-002-002-----0
 62
     7
370
    25
100
AcDbLine
 10
1785.632007
 20
1697.536148
 30
0.0
 11
1785.632007
 21
1697.536148
 31
0.0
  0
LINE
  5
45F
330
451
100
AcDbEntity
  8
LC-002-002-----0
 62
     7
370
    25
100
AcDbLine
 10
1785.632007
 20
1697.536148
 30
0.0
 11
1785.705954
 21
1697.458267
 31
0.0
  0
LINE
  5
460
330
451
100
AcDbEntity
  8
LC-002-002-----0
 62
     7
370
    25
100
AcDbLine
 10
1785.705954
 20
1697.458267
 30
0.0
 11
1785.705954
 21
1697.458267
 31
0.0
  0
LINE
  5
461
330
451
100
AcDbEntity
  8
LC-002-002-----0
 62
     7
370
    25
100
AcDbLine
 10
1785.705954
 20
1697.458267
 30
0.0
 11
1785.774726
 21
1697.392721
 31
0.0
  0
LINE
  5
462
330
451
100
AcDbEntity
  8
LC-002-002-----0
 62
     7
370
    25
100
AcDbLine
 10
1785.774726
 20
1697.392721
 30
0.0
 11
1785.774726
 21
1697.392721
 31
0.0
  0
LINE
  5
463
330
451
100
AcDbEntity
  8
LC-002-002-----0
 62
     7
370
    25
100
AcDbLine
 10
1785.774726
 20
1697.392721
 30
0.0
 11
1785.838352
 21
1697.337267
 31
0.0
  0
LINE
  5
464
330
451
100
AcDbEntity
  8
LC-002-002-----0
 62
     7
370
    25
100
AcDbLine
 10
1785.838352
 20
1697.337267
 30
0.0
 11
1785.838352
 21
1697.337267
 31
0.0
  0
LINE
  5
465
330
451
100
AcDbEntity
  8
LC-002-002-----0
 62
     7
370
    25
100
AcDbLine
 10
1785.838352
 20
1697.337267
 30
0.0
 11
1785.89674
 21
1697.290325
 31
0.0
  0
LINE
  5
466
330
451
100
AcDbEntity
  8
LC-002-002-----0
 62
     7
370
    25
100
AcDbLine
 10
1785.89674
 20
1697.290325
 30
0.0
 11
1785.89674
 21
1697.290325
 31
0.0
  0
LINE
  5
467
330
451
100
AcDbEntity
  8
LC-002-002-----0
 62
     7
370
    25
100
AcDbLine
 10
1785.89674
 20
1697.290325
 30
0.0
 11
1785.949783
 21
1697.250685
 31
0.0
  0
LINE
  5
468
330
451
100
AcDbEntity
  8
LC-002-002-----0
 62
     7
370
    25
100
AcDbLine
 10
1785.949783
 20
1697.250685
 30
0.0
 11
1785.949783
 21
1697.250685
 31
0.0
  0
LINE
  5
469
330
451
100
AcDbEntity
  8
LC-002-002-----0
 62
     7
370
    25
100
AcDbLine
 10
1785.949783
 20
1697.250685
 30
0.0
 11
1785.997289
 21
1697.217444
 31
0.0
  0
LINE
  5
46A
330
451
100
AcDbEntity
  8
LC-002-002-----0
 62
     7
370
    25
100
AcDbLine
 10
1785.997289
 20
1697.217444
 30
0.0
 11
1785.997289
 21
1697.217444
 31
0.0
  0
LINE
  5
46B
330
451
100
AcDbEntity
  8
LC-002-002-----0
 62
     7
370
    25
100
AcDbLine
 10
1785.997289
 20
1697.217444
 30
0.0
 11
1786.038798
 21
1697.19005
 31
0.0
  0
LINE
  5
46C
330
451
100
AcDbEntity
  8
LC-002-002-----0
 62
     7
370
    25
100
AcDbLine
 10
1786.038798
 20
1697.19005
 30
0.0
 11
1786.038798
 21
1697.19005
 31
0.0
  0
LINE
  5
46D
330
451
100
AcDbEntity
  8
LC-002-002-----0
 62
     7
370
    25
100
AcDbLine
 10
1786.038798
 20
1697.19005
 30
0.0
 11
1786.073628
 21
1697.168197
 31
0.0
  0
LINE
  5
46E
330
451
100
AcDbEntity
  8
LC-002-002-----0
 62
     7
370
    25
100
AcDbLine
 10
1786.073628
 20
1697.168197
 30
0.0
 11
1786.073628
 21
1697.168197
 31
0.0
  0
LINE
  5
46F
330
451
100
AcDbEntity
  8
LC-002-002-----0
 62
     7
370
    25
100
AcDbLine
 10
1786.073628
 20
1697.168197
 30
0.0
 11
1786.100199
 21
1697.152196
 31
0.0
  0
LINE
  5
470
330
451
100
AcDbEntity
  8
LC-002-002-----0
 62
     7
370
    25
100
AcDbLine
 10
1786.100199
 20
1697.152196
 30
0.0
 11
1786.100199
 21
1697.152196
 31
0.0
  0
LINE
  5
471
330
451
100
AcDbEntity
  8
LC-002-002-----0
 62
     7
370
    25
100
AcDbLine
 10
1786.100199
 20
1697.152196
 30
0.0
 11
1786.122282
 21
1697.139328
 31
0.0
  0
ENDBLK
  5
453
330
451
100
AcDbEntity
  8
0
100
AcDbBlockEnd
  0
BLOCK
  5
496
330
495
100
AcDbEntity
  8
0
100
AcDbBlockBegin
  2
POLY9
 70
     0
 71
     0
 10
0.0
 20
0.0
 30
0.0
  3
POLY9
  1

  4
POLY9
  0
LINE
  5
498
330
495
100
AcDbEntity
  8
LC-002-002-----0
 62
     7
370
    25
100
AcDbLine
 10
1773.990426
 20
1704.296772
 30
0.0
 11
1773.990426
 21
1704.296772
 31
0.0
  0
LINE
  5
499
330
495
100
AcDbEntity
  8
LC-002-002-----0
 62
     7
370
    25
100
AcDbLine
 10
1773.990426
 20
1704.296772
 30
0.0
 11
1774.040997
 21
1704.29808
 31
0.0
  0
LINE
  5
49A
330
495
100
AcDbEntity
  8
LC-002-002-----0
 62
     7
370
    25
100
AcDbLine
 10
1774.040997
 20
1704.29808
 30
0.0
 11
1774.040997
 21
1704.29808
 31
0.0
  0
LINE
  5
49B
330
495
100
AcDbEntity
  8
LC-002-002-----0
 62
     7
370
    25
100
AcDbLine
 10
1774.040997
 20
1704.29808
 30
0.0
 11
1774.185058
 21
1704.301407
 31
0.0
  0
LINE
  5
49C
330
495
100
AcDbEntity
  8
LC-002-002-----0
 62
     7
370
    25
100
AcDbLine
 10
1774.185058
 20
1704.301407
 30
0.0
 11
1774.185058
 21
1704.301407
 31
0.0
  0
LINE
  5
49D
330
495
100
AcDbEntity
  8
LC-002-002-----0
 62
     7
370
    25
100
AcDbLine
 10
1774.185058
 20
1704.301407
 30
0.0
 11
1774.407109
 21
1704.304983
 31
0.0
  0
LINE
  5
49E
330
495
100
AcDbEntity
  8
LC-002-002-----0
 62
     7
370
    25
100
AcDbLine
 10
1774.407109
 20
1704.304983
 30
0.0
 11
1774.407109
 21
1704.304983
 31
0.0
  0
LINE
  5
49F
330
495
100
AcDbEntity
  8
LC-002-002-----0
 62
     7
370
    25
100
AcDbLine
 10
1774.407109
 20
1704.304983
 30
0.0
 11
1774.695117
 21
1704.307125
 31
0.0
  0
LINE
  5
4A0
330
495
100
AcDbEntity
  8
LC-002-002-----0
 62
     7
370
    25
100
AcDbLine
 10
1774.695117
 20
1704.307125
 30
0.0
 11
1774.695117
 21
1704.307125
 31
0.0
  0
LINE
  5
4A1
330
495
100
AcDbEntity
  8
LC-002-002-----0
 62
     7
370
    25
100
AcDbLine
 10
1774.695117
 20
1704.307125
 30
0.0
 11
1775.041921
 21
1704.306008
 31
0.0
  0
ENDBLK
  5
497
330
495
100
AcDbEntity
  8
0
100
AcDbBlockEnd
  0
BLOCK
  5
4A4
330
4A3
100
AcDbEntity
  8
0
100
AcDbBlockBegin
  2
POLY10
 70
     0
 71
     0
 10
0.0
 20
0.0
 30
0.0
  3
POLY10
  1

  4
POLY10
  0
LINE
  5
4A6
330
4A3
100
AcDbEntity
  8
LC-002-002-----0
 62
     7
370
    25
100
AcDbLine
 10
1773.990426
 20
1734.963228
 30
0.0
 11
1773.990426
 21
1734.963228
 31
0.0
  0
LINE
  5
4A7
330
4A3
100
AcDbEntity
  8
LC-002-002-----0
 62
     7
370
    25
100
AcDbLine
 10
1773.990426
 20
1734.963228
 30
0.0
 11
1774.040997
 21
1734.96192
 31
0.0
  0
LINE
  5
4A8
330
4A3
100
AcDbEntity
  8
LC-002-002-----0
 62
     7
370
    25
100
AcDbLine
 10
1774.040997
 20
1734.96192
 30
0.0
 11
1774.040997
 21
1734.96192
 31
0.0
  0
LINE
  5
4A9
330
4A3
100
AcDbEntity
  8
LC-002-002-----0
 62
     7
370
    25
100
AcDbLine
 10
1774.040997
 20
1734.96192
 30
0.0
 11
1774.185058
 21
1734.958593
 31
0.0
  0
LINE
  5
4AA
330
4A3
100
AcDbEntity
  8
LC-002-002-----0
 62
     7
370
    25
100
AcDbLine
 10
1774.185058
 20
1734.958593
 30
0.0
 11
1774.185058
 21
1734.958593
 31
0.0
  0
LINE
  5
4AB
330
4A3
100
AcDbEntity
  8
LC-002-002-----0
 62
     7
370
    25
100
AcDbLine
 10
1774.185058
 20
1734.958593
 30
0.0
 11
1774.407109
 21
1734.955017
 31
0.0
  0
LINE
  5
4AC
330
4A3
100
AcDbEntity
  8
LC-002-002-----0
 62
     7
370
    25
100
AcDbLine
 10
1774.407109
 20
1734.955017
 30
0.0
 11
1774.407109
 21
1734.955017
 31
0.0
  0
LINE
  5
4AD
330
4A3
100
AcDbEntity
  8
LC-002-002-----0
 62
     7
370
    25
100
AcDbLine
 10
1774.407109
 20
1734.955017
 30
0.0
 11
1774.695117
 21
1734.952875
 31
0.0
  0
LINE
  5
4AE
330
4A3
100
AcDbEntity
  8
LC-002-002-----0
 62
     7
370
    25
100
AcDbLine
 10
1774.695117
 20
1734.952875
 30
0.0
 11
1774.695117
 21
1734.952875
 31
0.0
  0
LINE
  5
4AF
330
4A3
100
AcDbEntity
  8
LC-002-002-----0
 62
     7
370
    25
100
AcDbLine
 10
1774.695117
 20
1734.952875
 30
0.0
 11
1775.041921
 21
1734.953992
 31
0.0
  0
ENDBLK
  5
4A5
330
4A3
100
AcDbEntity
  8
0
100
AcDbBlockEnd
  0
BLOCK
  5
4F9
330
4F8
100
AcDbEntity
  8
0
100
AcDbBlockBegin
  2
POLY11
 70
     0
 71
     0
 10
0.0
 20
0.0
 30
0.0
  3
POLY11
  1

  4
POLY11
  0
LINE
  5
4FB
330
4F8
100
AcDbEntity
  8
LC-002-002-----0
 62
     7
370
    25
100
AcDbLine
 10
1533.948263
 20
1922.63
 30
0.0
 11
1533.948263
 21
1922.63
 31
0.0
  0
LINE
  5
4FC
330
4F8
100
AcDbEntity
  8
LC-002-002-----0
 62
     7
370
    25
100
AcDbLine
 10
1533.948263
 20
1922.63
 30
0.0
 11
1533.948297
 21
1922.115212
 31
0.0
  0
LINE
  5
4FD
330
4F8
100
AcDbEntity
  8
LC-002-002-----0
 62
     7
370
    25
100
AcDbLine
 10
1533.948297
 20
1922.115212
 30
0.0
 11
1533.948297
 21
1922.115212
 31
0.0
  0
LINE
  5
4FE
330
4F8
100
AcDbEntity
  8
LC-002-002-----0
 62
     7
370
    25
100
AcDbLine
 10
1533.948297
 20
1922.115212
 30
0.0
 11
1533.94826
 21
1921.633842
 31
0.0
  0
LINE
  5
4FF
330
4F8
100
AcDbEntity
  8
LC-002-002-----0
 62
     7
370
    25
100
AcDbLine
 10
1533.94826
 20
1921.633842
 30
0.0
 11
1533.94826
 21
1921.633842
 31
0.0
  0
LINE
  5
500
330
4F8
100
AcDbEntity
  8
LC-002-002-----0
 62
     7
370
    25
100
AcDbLine
 10
1533.94826
 20
1921.633842
 30
0.0
 11
1533.948267
 21
1921.220272
 31
0.0
  0
LINE
  5
501
330
4F8
100
AcDbEntity
  8
LC-002-002-----0
 62
     7
370
    25
100
AcDbLine
 10
1533.948267
 20
1921.220272
 30
0.0
 11
1533.948267
 21
1921.220272
 31
0.0
  0
LINE
  5
502
330
4F8
100
AcDbEntity
  8
LC-002-002-----0
 62
     7
370
    25
100
AcDbLine
 10
1533.948267
 20
1921.220272
 30
0.0
 11
1533.948241
 21
1920.901335
 31
0.0
  0
LINE
  5
503
330
4F8
100
AcDbEntity
  8
LC-002-002-----0
 62
     7
370
    25
100
AcDbLine
 10
1533.948241
 20
1920.901335
 30
0.0
 11
1533.948241
 21
1920.901335
 31
0.0
  0
LINE
  5
504
330
4F8
100
AcDbEntity
  8
LC-002-002-----0
 62
     7
370
    25
100
AcDbLine
 10
1533.948241
 20
1920.901335
 30
0.0
 11
1533.94829
 21
1920.699379
 31
0.0
  0
LINE
  5
505
330
4F8
100
AcDbEntity
  8
LC-002-002-----0
 62
     7
370
    25
100
AcDbLine
 10
1533.94829
 20
1920.699379
 30
0.0
 11
1533.94829
 21
1920.699379
 31
0.0
  0
LINE
  5
506
330
4F8
100
AcDbEntity
  8
LC-002-002-----0
 62
     7
370
    25
100
AcDbLine
 10
1533.94829
 20
1920.699379
 30
0.0
 11
1533.948272
 21
1920.63
 31
0.0
  0
ENDBLK
  5
4FA
330
4F8
100
AcDbEntity
  8
0
100
AcDbBlockEnd
  0
BLOCK
  5
50D
330
50C
100
AcDbEntity
  8
0
100
AcDbBlockBegin
  2
LCDIM5
 70
     0
 71
     0
 10
0.0
 20
0.0
 30
0.0
  3
LCDIM5
  1

  4
LCDIM5
  0
LINE
  5
50F
330
50C
100
AcDbEntity
  8
LC-008-003-MTH-0
 62
     7
370
    25
100
AcDbLine
 10
1819.023475
 20
1575.506471
 30
0.0
 11
1909.176828
 21
1575.506471
 31
0.0
  0
LINE
  5
510
330
50C
100
AcDbEntity
  8
LC-008-003-MTH-0
 62
     7
370
    25
100
AcDbLine
 10
1819.023475
 20
1863.753529
 30
0.0
 11
1909.176828
 21
1863.753529
 31
0.0
  0
LINE
  5
511
330
50C
100
AcDbEntity
  8
LC-009-003-MTG-0
 62
     7
370
    25
100
AcDbLine
 10
1894.176828
 20
1575.506471
 30
0.0
 11
1894.176828
 21
1863.753529
 31
0.0
  0
LINE
  5
512
330
50C
100
AcDbEntity
  8
LC-010-003-----0
 62
     7
370
    25
100
AcDbLine
 10
1890.913673
 20
1600.292593
 30
0.0
 11
1894.176828
 21
1575.506471
 31
0.0
  0
LINE
  5
513
330
50C
100
AcDbEntity
  8
LC-010-003-----0
 62
     7
370
    25
100
AcDbLine
 10
1894.176828
 20
1575.506471
 30
0.0
 11
1897.439983
 21
1600.292593
 31
0.0
  0
LINE
  5
514
330
50C
100
AcDbEntity
  8
LC-010-003-----0
 62
     7
370
    25
100
AcDbLine
 10
1897.439983
 20
1600.292593
 30
0.0
 11
1890.913673
 21
1600.292593
 31
0.0
  0
LINE
  5
515
330
50C
100
AcDbEntity
  8
LC-010-003-----0
 62
     7
370
    25
100
AcDbLine
 10
1891.762093
 20
1600.348202
 30
0.0
 11
1894.176828
 21
1582.006472
 31
0.0
  0
LINE
  5
516
330
50C
100
AcDbEntity
  8
LC-010-003-----0
 62
     7
370
    25
100
AcDbLine
 10
1894.176828
 20
1582.006472
 30
0.0
 11
1896.591563
 21
1600.348202
 31
0.0
  0
LINE
  5
517
330
50C
100
AcDbEntity
  8
LC-010-003-----0
 62
     7
370
    25
100
AcDbLine
 10
1892.610514
 20
1600.40381
 30
0.0
 11
1894.176828
 21
1588.506472
 31
0.0
  0
LINE
  5
518
330
50C
100
AcDbEntity
  8
LC-010-003-----0
 62
     7
370
    25
100
AcDbLine
 10
1894.176828
 20
1588.506472
 30
0.0
 11
1895.743142
 21
1600.40381
 31
0.0
  0
LINE
  5
519
330
50C
100
AcDbEntity
  8
LC-010-003-----0
 62
     7
370
    25
100
AcDbLine
 10
1893.458934
 20
1600.459419
 30
0.0
 11
1894.176828
 21
1595.006472
 31
0.0
  0
LINE
  5
51A
330
50C
100
AcDbEntity
  8
LC-010-003-----0
 62
     7
370
    25
100
AcDbLine
 10
1894.176828
 20
1595.006472
 30
0.0
 11
1894.894722
 21
1600.459419
 31
0.0
  0
LINE
  5
51B
330
50C
100
AcDbEntity
  8
LC-010-003-----0
 62
     7
370
    25
100
AcDbLine
 10
1897.439983
 20
1838.967407
 30
0.0
 11
1894.176828
 21
1863.753529
 31
0.0
  0
LINE
  5
51C
330
50C
100
AcDbEntity
  8
LC-010-003-----0
 62
     7
370
    25
100
AcDbLine
 10
1894.176828
 20
1863.753529
 30
0.0
 11
1890.913673
 21
1838.967407
 31
0.0
  0
LINE
  5
51D
330
50C
100
AcDbEntity
  8
LC-010-003-----0
 62
     7
370
    25
100
AcDbLine
 10
1890.913673
 20
1838.967407
 30
0.0
 11
1897.439983
 21
1838.967407
 31
0.0
  0
LINE
  5
51E
330
50C
100
AcDbEntity
  8
LC-010-003-----0
 62
     7
370
    25
100
AcDbLine
 10
1896.591563
 20
1838.911798
 30
0.0
 11
1894.176828
 21
1857.253528
 31
0.0
  0
LINE
  5
51F
330
50C
100
AcDbEntity
  8
LC-010-003-----0
 62
     7
370
    25
100
AcDbLine
 10
1894.176828
 20
1857.253528
 30
0.0
 11
1891.762093
 21
1838.911798
 31
0.0
  0
LINE
  5
520
330
50C
100
AcDbEntity
  8
LC-010-003-----0
 62
     7
370
    25
100
AcDbLine
 10
1895.743142
 20
1838.85619
 30
0.0
 11
1894.176828
 21
1850.753528
 31
0.0
  0
LINE
  5
521
330
50C
100
AcDbEntity
  8
LC-010-003-----0
 62
     7
370
    25
100
AcDbLine
 10
1894.176828
 20
1850.753528
 30
0.0
 11
1892.610514
 21
1838.85619
 31
0.0
  0
LINE
  5
522
330
50C
100
AcDbEntity
  8
LC-010-003-----0
 62
     7
370
    25
100
AcDbLine
 10
1894.894722
 20
1838.800581
 30
0.0
 11
1894.176828
 21
1844.253528
 31
0.0
  0
LINE
  5
523
330
50C
100
AcDbEntity
  8
LC-010-003-----0
 62
     7
370
    25
100
AcDbLine
 10
1894.176828
 20
1844.253528
 30
0.0
 11
1893.458934
 21
1838.800581
 31
0.0
  0
TEXT
  5
524
330
50C
100
AcDbEntity
  8
LC-010-003-----0
 62
     7
370
    25
100
AcDbText
 10
1879.176828
 20
1702.210715
 30
0.0
 40
25.0
  1
288
 50
90.0
 41
0.7
  7
LCTX0-400-0-0pDIN-Schrift
 72
     1
 11
1879.176828
 21
1727.210715
 31
0.0
100
AcDbText
  0
ENDBLK
  5
50E
330
50C
100
AcDbEntity
  8
0
100
AcDbBlockEnd
  0
BLOCK
  5
527
330
526
100
AcDbEntity
  8
0
100
AcDbBlockBegin
  2
LCDIM6
 70
     0
 71
     0
 10
0.0
 20
0.0
 30
0.0
  3
LCDIM6
  1

  4
LCDIM6
  0
LINE
  5
529
330
526
100
AcDbEntity
  8
LC-008-003-MTH-0
 62
     7
370
    25
100
AcDbLine
 10
1819.023475
 20
1537.506471
 30
0.0
 11
1959.820961
 21
1537.506471
 31
0.0
  0
LINE
  5
52A
330
526
100
AcDbEntity
  8
LC-008-003-MTH-0
 62
     7
370
    25
100
AcDbLine
 10
1819.023475
 20
1901.753529
 30
0.0
 11
1959.820961
 21
1901.753529
 31
0.0
  0
LINE
  5
52B
330
526
100
AcDbEntity
  8
LC-009-003-MTG-0
 62
     7
370
    25
100
AcDbLine
 10
1944.820961
 20
1537.506471
 30
0.0
 11
1944.820961
 21
1901.753529
 31
0.0
  0
LINE
  5
52C
330
526
100
AcDbEntity
  8
LC-010-003-----0
 62
     7
370
    25
100
AcDbLine
 10
1941.557806
 20
1562.292593
 30
0.0
 11
1944.820961
 21
1537.506471
 31
0.0
  0
LINE
  5
52D
330
526
100
AcDbEntity
  8
LC-010-003-----0
 62
     7
370
    25
100
AcDbLine
 10
1944.820961
 20
1537.506471
 30
0.0
 11
1948.084116
 21
1562.292593
 31
0.0
  0
LINE
  5
52E
330
526
100
AcDbEntity
  8
LC-010-003-----0
 62
     7
370
    25
100
AcDbLine
 10
1948.084116
 20
1562.292593
 30
0.0
 11
1941.557806
 21
1562.292593
 31
0.0
  0
LINE
  5
52F
330
526
100
AcDbEntity
  8
LC-010-003-----0
 62
     7
370
    25
100
AcDbLine
 10
1942.406227
 20
1562.348202
 30
0.0
 11
1944.820961
 21
1544.006472
 31
0.0
  0
LINE
  5
530
330
526
100
AcDbEntity
  8
LC-010-003-----0
 62
     7
370
    25
100
AcDbLine
 10
1944.820961
 20
1544.006472
 30
0.0
 11
1947.235696
 21
1562.348202
 31
0.0
  0
LINE
  5
531
330
526
100
AcDbEntity
  8
LC-010-003-----0
 62
     7
370
    25
100
AcDbLine
 10
1943.254647
 20
1562.40381
 30
0.0
 11
1944.820961
 21
1550.506472
 31
0.0
  0
LINE
  5
532
330
526
100
AcDbEntity
  8
LC-010-003-----0
 62
     7
370
    25
100
AcDbLine
 10
1944.820961
 20
1550.506472
 30
0.0
 11
1946.387276
 21
1562.40381
 31
0.0
  0
LINE
  5
533
330
526
100
AcDbEntity
  8
LC-010-003-----0
 62
     7
370
    25
100
AcDbLine
 10
1944.103067
 20
1562.459419
 30
0.0
 11
1944.820961
 21
1557.006472
 31
0.0
  0
LINE
  5
534
330
526
100
AcDbEntity
  8
LC-010-003-----0
 62
     7
370
    25
100
AcDbLine
 10
1944.820961
 20
1557.006472
 30
0.0
 11
1945.538855
 21
1562.459419
 31
0.0
  0
LINE
  5
535
330
526
100
AcDbEntity
  8
LC-010-003-----0
 62
     7
370
    25
100
AcDbLine
 10
1948.084116
 20
1876.967407
 30
0.0
 11
1944.820961
 21
1901.753529
 31
0.0
  0
LINE
  5
536
330
526
100
AcDbEntity
  8
LC-010-003-----0
 62
     7
370
    25
100
AcDbLine
 10
1944.820961
 20
1901.753529
 30
0.0
 11
1941.557806
 21
1876.967407
 31
0.0
  0
LINE
  5
537
330
526
100
AcDbEntity
  8
LC-010-003-----0
 62
     7
370
    25
100
AcDbLine
 10
1941.557806
 20
1876.967407
 30
0.0
 11
1948.084116
 21
1876.967407
 31
0.0
  0
LINE
  5
538
330
526
100
AcDbEntity
  8
LC-010-003-----0
 62
     7
370
    25
100
AcDbLine
 10
1947.235696
 20
1876.911798
 30
0.0
 11
1944.820961
 21
1895.253528
 31
0.0
  0
LINE
  5
539
330
526
100
AcDbEntity
  8
LC-010-003-----0
 62
     7
370
    25
100
AcDbLine
 10
1944.820961
 20
1895.253528
 30
0.0
 11
1942.406227
 21
1876.911798
 31
0.0
  0
LINE
  5
53A
330
526
100
AcDbEntity
  8
LC-010-003-----0
 62
     7
370
    25
100
AcDbLine
 10
1946.387276
 20
1876.85619
 30
0.0
 11
1944.820961
 21
1888.753528
 31
0.0
  0
LINE
  5
53B
330
526
100
AcDbEntity
  8
LC-010-003-----0
 62
     7
370
    25
100
AcDbLine
 10
1944.820961
 20
1888.753528
 30
0.0
 11
1943.254647
 21
1876.85619
 31
0.0
  0
LINE
  5
53C
330
526
100
AcDbEntity
  8
LC-010-003-----0
 62
     7
370
    25
100
AcDbLine
 10
1945.538855
 20
1876.800581
 30
0.0
 11
1944.820961
 21
1882.253528
 31
0.0
  0
LINE
  5
53D
330
526
100
AcDbEntity
  8
LC-010-003-----0
 62
     7
370
    25
100
AcDbLine
 10
1944.820961
 20
1882.253528
 30
0.0
 11
1944.103067
 21
1876.800581
 31
0.0
  0
TEXT
  5
53E
330
526
100
AcDbEntity
  8
LC-010-003-----0
 62
     7
370
    25
100
AcDbText
 10
1929.820961
 20
1702.414678
 30
0.0
 40
25.0
  1
364
 50
90.0
 41
0.7
  7
LCTX0-400-0-0pDIN-Schrift
 72
     1
 11
1929.820961
 21
1727.831345
 31
0.0
100
AcDbText
  0
ENDBLK
  5
528
330
526
100
AcDbEntity
  8
0
100
AcDbBlockEnd
  0
BLOCK
  5
541
330
540
100
AcDbEntity
  8
0
100
AcDbBlockBegin
  2
LCDIM7
 70
     0
 71
     0
 10
0.0
 20
0.0
 30
0.0
  3
LCDIM7
  1

  4
LCDIM7
  0
LINE
  5
543
330
540
100
AcDbEntity
  8
LC-008-003-MTH-0
 62
     7
370
    25
100
AcDbLine
 10
1270.621597
 20
1502.13
 30
0.0
 11
1389.514991
 21
1502.13
 31
0.0
  0
LINE
  5
544
330
540
100
AcDbEntity
  8
LC-008-003-MTH-0
 62
     7
370
    25
100
AcDbLine
 10
1270.621597
 20
1937.13
 30
0.0
 11
1389.514991
 21
1937.13
 31
0.0
  0
LINE
  5
545
330
540
100
AcDbEntity
  8
LC-009-003-MTG-0
 62
     7
370
    25
100
AcDbLine
 10
1374.514991
 20
1502.13
 30
0.0
 11
1374.514991
 21
1937.13
 31
0.0
  0
LINE
  5
546
330
540
100
AcDbEntity
  8
LC-010-003-----0
 62
     7
370
    25
100
AcDbLine
 10
1371.251836
 20
1526.916122
 30
0.0
 11
1374.514991
 21
1502.13
 31
0.0
  0
LINE
  5
547
330
540
100
AcDbEntity
  8
LC-010-003-----0
 62
     7
370
    25
100
AcDbLine
 10
1374.514991
 20
1502.13
 30
0.0
 11
1377.778146
 21
1526.916122
 31
0.0
  0
LINE
  5
548
330
540
100
AcDbEntity
  8
LC-010-003-----0
 62
     7
370
    25
100
AcDbLine
 10
1377.778146
 20
1526.916122
 30
0.0
 11
1371.251836
 21
1526.916122
 31
0.0
  0
LINE
  5
549
330
540
100
AcDbEntity
  8
LC-010-003-----0
 62
     7
370
    25
100
AcDbLine
 10
1372.100256
 20
1526.97173
 30
0.0
 11
1374.514991
 21
1508.63
 31
0.0
  0
LINE
  5
54A
330
540
100
AcDbEntity
  8
LC-010-003-----0
 62
     7
370
    25
100
AcDbLine
 10
1374.514991
 20
1508.63
 30
0.0
 11
1376.929725
 21
1526.97173
 31
0.0
  0
LINE
  5
54B
330
540
100
AcDbEntity
  8
LC-010-003-----0
 62
     7
370
    25
100
AcDbLine
 10
1372.948676
 20
1527.027339
 30
0.0
 11
1374.514991
 21
1515.13
 31
0.0
  0
LINE
  5
54C
330
540
100
AcDbEntity
  8
LC-010-003-----0
 62
     7
370
    25
100
AcDbLine
 10
1374.514991
 20
1515.13
 30
0.0
 11
1376.081305
 21
1527.027339
 31
0.0
  0
LINE
  5
54D
330
540
100
AcDbEntity
  8
LC-010-003-----0
 62
     7
370
    25
100
AcDbLine
 10
1373.797097
 20
1527.082947
 30
0.0
 11
1374.514991
 21
1521.63
 31
0.0
  0
LINE
  5
54E
330
540
100
AcDbEntity
  8
LC-010-003-----0
 62
     7
370
    25
100
AcDbLine
 10
1374.514991
 20
1521.63
 30
0.0
 11
1375.232885
 21
1527.082947
 31
0.0
  0
LINE
  5
54F
330
540
100
AcDbEntity
  8
LC-010-003-----0
 62
     7
370
    25
100
AcDbLine
 10
1377.778146
 20
1912.343878
 30
0.0
 11
1374.514991
 21
1937.13
 31
0.0
  0
LINE
  5
550
330
540
100
AcDbEntity
  8
LC-010-003-----0
 62
     7
370
    25
100
AcDbLine
 10
1374.514991
 20
1937.13
 30
0.0
 11
1371.251836
 21
1912.343878
 31
0.0
  0
LINE
  5
551
330
540
100
AcDbEntity
  8
LC-010-003-----0
 62
     7
370
    25
100
AcDbLine
 10
1371.251836
 20
1912.343878
 30
0.0
 11
1377.778146
 21
1912.343878
 31
0.0
  0
LINE
  5
552
330
540
100
AcDbEntity
  8
LC-010-003-----0
 62
     7
370
    25
100
AcDbLine
 10
1376.929725
 20
1912.28827
 30
0.0
 11
1374.514991
 21
1930.63
 31
0.0
  0
LINE
  5
553
330
540
100
AcDbEntity
  8
LC-010-003-----0
 62
     7
370
    25
100
AcDbLine
 10
1374.514991
 20
1930.63
 30
0.0
 11
1372.100256
 21
1912.28827
 31
0.0
  0
LINE
  5
554
330
540
100
AcDbEntity
  8
LC-010-003-----0
 62
     7
370
    25
100
AcDbLine
 10
1376.081305
 20
1912.232661
 30
0.0
 11
1374.514991
 21
1924.13
 31
0.0
  0
LINE
  5
555
330
540
100
AcDbEntity
  8
LC-010-003-----0
 62
     7
370
    25
100
AcDbLine
 10
1374.514991
 20
1924.13
 30
0.0
 11
1372.948676
 21
1912.232661
 31
0.0
  0
LINE
  5
556
330
540
100
AcDbEntity
  8
LC-010-003-----0
 62
     7
370
    25
100
AcDbLine
 10
1375.232885
 20
1912.177053
 30
0.0
 11
1374.514991
 21
1917.63
 31
0.0
  0
LINE
  5
557
330
540
100
AcDbEntity
  8
LC-010-003-----0
 62
     7
370
    25
100
AcDbLine
 10
1374.514991
 20
1917.63
 30
0.0
 11
1373.797097
 21
1912.177053
 31
0.0
  0
TEXT
  5
558
330
540
100
AcDbEntity
  8
LC-010-003-----0
 62
     7
370
    25
100
AcDbText
 10
1359.514991
 20
1694.531624
 30
0.0
 40
25.0
  1
435
 50
90.0
 41
0.7
  7
LCTX0-400-0-0pDIN-Schrift
 72
     1
 11
1359.514991
 21
1719.531624
 31
0.0
100
AcDbText
  0
ENDBLK
  5
542
330
540
100
AcDbEntity
  8
0
100
AcDbBlockEnd
  0
BLOCK
  5
55B
330
55A
100
AcDbEntity
  8
0
100
AcDbBlockBegin
  2
LCDIM8
 70
     0
 71
     0
 10
0.0
 20
0.0
 30
0.0
  3
LCDIM8
  1

  4
LCDIM8
  0
LINE
  5
55D
330
55A
100
AcDbEntity
  8
LC-008-003-MTH-0
 62
     7
370
    25
100
AcDbLine
 10
430.621597
 20
1522.13
 30
0.0
 11
430.621597
 21
1393.912315
 31
0.0
  0
LINE
  5
55E
330
55A
100
AcDbEntity
  8
LC-008-003-MTH-0
 62
     7
370
    25
100
AcDbLine
 10
1290.621597
 20
1522.13
 30
0.0
 11
1290.621597
 21
1393.912315
 31
0.0
  0
LINE
  5
55F
330
55A
100
AcDbEntity
  8
LC-009-003-MTG-0
 62
     7
370
    25
100
AcDbLine
 10
430.621597
 20
1408.912315
 30
0.0
 11
1290.621597
 21
1408.912315
 31
0.0
  0
LINE
  5
560
330
55A
100
AcDbEntity
  8
LC-010-003-----0
 62
     7
370
    25
100
AcDbLine
 10
455.407719
 20
1412.17547
 30
0.0
 11
430.621597
 21
1408.912315
 31
0.0
  0
LINE
  5
561
330
55A
100
AcDbEntity
  8
LC-010-003-----0
 62
     7
370
    25
100
AcDbLine
 10
430.621597
 20
1408.912315
 30
0.0
 11
455.407719
 21
1405.64916
 31
0.0
  0
LINE
  5
562
330
55A
100
AcDbEntity
  8
LC-010-003-----0
 62
     7
370
    25
100
AcDbLine
 10
455.407719
 20
1405.64916
 30
0.0
 11
455.407719
 21
1412.17547
 31
0.0
  0
LINE
  5
563
330
55A
100
AcDbEntity
  8
LC-010-003-----0
 62
     7
370
    25
100
AcDbLine
 10
455.463327
 20
1411.327049
 30
0.0
 11
437.121597
 21
1408.912315
 31
0.0
  0
LINE
  5
564
330
55A
100
AcDbEntity
  8
LC-010-003-----0
 62
     7
370
    25
100
AcDbLine
 10
437.121597
 20
1408.912315
 30
0.0
 11
455.463327
 21
1406.49758
 31
0.0
  0
LINE
  5
565
330
55A
100
AcDbEntity
  8
LC-010-003-----0
 62
     7
370
    25
100
AcDbLine
 10
455.518935
 20
1410.478629
 30
0.0
 11
443.621597
 21
1408.912315
 31
0.0
  0
LINE
  5
566
330
55A
100
AcDbEntity
  8
LC-010-003-----0
 62
     7
370
    25
100
AcDbLine
 10
443.621597
 20
1408.912315
 30
0.0
 11
455.518935
 21
1407.346
 31
0.0
  0
LINE
  5
567
330
55A
100
AcDbEntity
  8
LC-010-003-----0
 62
     7
370
    25
100
AcDbLine
 10
455.574544
 20
1409.630209
 30
0.0
 11
450.121597
 21
1408.912315
 31
0.0
  0
LINE
  5
568
330
55A
100
AcDbEntity
  8
LC-010-003-----0
 62
     7
370
    25
100
AcDbLine
 10
450.121597
 20
1408.912315
 30
0.0
 11
455.574544
 21
1408.194421
 31
0.0
  0
LINE
  5
569
330
55A
100
AcDbEntity
  8
LC-010-003-----0
 62
     7
370
    25
100
AcDbLine
 10
1265.835475
 20
1405.64916
 30
0.0
 11
1290.621597
 21
1408.912315
 31
0.0
  0
LINE
  5
56A
330
55A
100
AcDbEntity
  8
LC-010-003-----0
 62
     7
370
    25
100
AcDbLine
 10
1290.621597
 20
1408.912315
 30
0.0
 11
1265.835475
 21
1412.17547
 31
0.0
  0
LINE
  5
56B
330
55A
100
AcDbEntity
  8
LC-010-003-----0
 62
     7
370
    25
100
AcDbLine
 10
1265.835475
 20
1412.17547
 30
0.0
 11
1265.835475
 21
1405.64916
 31
0.0
  0
LINE
  5
56C
330
55A
100
AcDbEntity
  8
LC-010-003-----0
 62
     7
370
    25
100
AcDbLine
 10
1265.779866
 20
1406.49758
 30
0.0
 11
1284.121597
 21
1408.912315
 31
0.0
  0
LINE
  5
56D
330
55A
100
AcDbEntity
  8
LC-010-003-----0
 62
     7
370
    25
100
AcDbLine
 10
1284.121597
 20
1408.912315
 30
0.0
 11
1265.779866
 21
1411.327049
 31
0.0
  0
LINE
  5
56E
330
55A
100
AcDbEntity
  8
LC-010-003-----0
 62
     7
370
    25
100
AcDbLine
 10
1265.724258
 20
1407.346
 30
0.0
 11
1277.621597
 21
1408.912315
 31
0.0
  0
LINE
  5
56F
330
55A
100
AcDbEntity
  8
LC-010-003-----0
 62
     7
370
    25
100
AcDbLine
 10
1277.621597
 20
1408.912315
 30
0.0
 11
1265.724258
 21
1410.478629
 31
0.0
  0
LINE
  5
570
330
55A
100
AcDbEntity
  8
LC-010-003-----0
 62
     7
370
    25
100
AcDbLine
 10
1265.66865
 20
1408.194421
 30
0.0
 11
1271.121596
 21
1408.912315
 31
0.0
  0
LINE
  5
571
330
55A
100
AcDbEntity
  8
LC-010-003-----0
 62
     7
370
    25
100
AcDbLine
 10
1271.121596
 20
1408.912315
 30
0.0
 11
1265.66865
 21
1409.630209
 31
0.0
  0
TEXT
  5
572
330
55A
100
AcDbEntity
  8
LC-010-003-----0
 62
     7
370
    25
100
AcDbText
 10
834.206756
 20
1423.912315
 30
0.0
 40
25.0
  1
860
 41
0.7
  7
LCTX0-400-0-0pDIN-Schrift
 72
     1
 11
859.206756
 21
1423.912315
 31
0.0
100
AcDbText
  0
ENDBLK
  5
55C
330
55A
100
AcDbEntity
  8
0
100
AcDbBlockEnd
  0
BLOCK
  5
57C
330
57B
100
AcDbEntity
  8
0
100
AcDbBlockBegin
  2
LCDIM9
 70
     0
 71
     0
 10
0.0
 20
0.0
 30
0.0
  3
LCDIM9
  1

  4
LCDIM9
  0
LINE
  5
57E
330
57B
100
AcDbEntity
  8
LC-008-003-MTH-0
 62
     7
370
    25
100
AcDbLine
 10
441.496208
 20
803.842023
 30
0.0
 11
441.496208
 21
702.947191
 31
0.0
  0
LINE
  5
57F
330
57B
100
AcDbEntity
  8
LC-008-003-MTH-0
 62
     7
370
    25
100
AcDbLine
 10
861.496208
 20
803.842023
 30
0.0
 11
861.496208
 21
702.947191
 31
0.0
  0
LINE
  5
580
330
57B
100
AcDbEntity
  8
LC-009-003-MTG-0
 62
     7
370
    25
100
AcDbLine
 10
441.496208
 20
717.947191
 30
0.0
 11
861.496208
 21
717.947191
 31
0.0
  0
LINE
  5
581
330
57B
100
AcDbEntity
  8
LC-010-003-----0
 62
     7
370
    25
100
AcDbLine
 10
466.28233
 20
721.210346
 30
0.0
 11
441.496208
 21
717.947191
 31
0.0
  0
LINE
  5
582
330
57B
100
AcDbEntity
  8
LC-010-003-----0
 62
     7
370
    25
100
AcDbLine
 10
441.496208
 20
717.947191
 30
0.0
 11
466.28233
 21
714.684036
 31
0.0
  0
LINE
  5
583
330
57B
100
AcDbEntity
  8
LC-010-003-----0
 62
     7
370
    25
100
AcDbLine
 10
466.28233
 20
714.684036
 30
0.0
 11
466.28233
 21
721.210346
 31
0.0
  0
LINE
  5
584
330
57B
100
AcDbEntity
  8
LC-010-003-----0
 62
     7
370
    25
100
AcDbLine
 10
466.337938
 20
720.361926
 30
0.0
 11
447.996208
 21
717.947191
 31
0.0
  0
LINE
  5
585
330
57B
100
AcDbEntity
  8
LC-010-003-----0
 62
     7
370
    25
100
AcDbLine
 10
447.996208
 20
717.947191
 30
0.0
 11
466.337938
 21
715.532457
 31
0.0
  0
LINE
  5
586
330
57B
100
AcDbEntity
  8
LC-010-003-----0
 62
     7
370
    25
100
AcDbLine
 10
466.393547
 20
719.513506
 30
0.0
 11
454.496208
 21
717.947191
 31
0.0
  0
LINE
  5
587
330
57B
100
AcDbEntity
  8
LC-010-003-----0
 62
     7
370
    25
100
AcDbLine
 10
454.496208
 20
717.947191
 30
0.0
 11
466.393547
 21
716.380877
 31
0.0
  0
LINE
  5
588
330
57B
100
AcDbEntity
  8
LC-010-003-----0
 62
     7
370
    25
100
AcDbLine
 10
466.449155
 20
718.665085
 30
0.0
 11
460.996208
 21
717.947191
 31
0.0
  0
LINE
  5
589
330
57B
100
AcDbEntity
  8
LC-010-003-----0
 62
     7
370
    25
100
AcDbLine
 10
460.996208
 20
717.947191
 30
0.0
 11
466.449155
 21
717.229297
 31
0.0
  0
LINE
  5
58A
330
57B
100
AcDbEntity
  8
LC-010-003-----0
 62
     7
370
    25
100
AcDbLine
 10
836.710086
 20
714.684036
 30
0.0
 11
861.496208
 21
717.947191
 31
0.0
  0
LINE
  5
58B
330
57B
100
AcDbEntity
  8
LC-010-003-----0
 62
     7
370
    25
100
AcDbLine
 10
861.496208
 20
717.947191
 30
0.0
 11
836.710086
 21
721.210346
 31
0.0
  0
LINE
  5
58C
330
57B
100
AcDbEntity
  8
LC-010-003-----0
 62
     7
370
    25
100
AcDbLine
 10
836.710086
 20
721.210346
 30
0.0
 11
836.710086
 21
714.684036
 31
0.0
  0
LINE
  5
58D
330
57B
100
AcDbEntity
  8
LC-010-003-----0
 62
     7
370
    25
100
AcDbLine
 10
836.654478
 20
715.532457
 30
0.0
 11
854.996208
 21
717.947191
 31
0.0
  0
LINE
  5
58E
330
57B
100
AcDbEntity
  8
LC-010-003-----0
 62
     7
370
    25
100
AcDbLine
 10
854.996208
 20
717.947191
 30
0.0
 11
836.654478
 21
720.361926
 31
0.0
  0
LINE
  5
58F
330
57B
100
AcDbEntity
  8
LC-010-003-----0
 62
     7
370
    25
100
AcDbLine
 10
836.598869
 20
716.380877
 30
0.0
 11
848.496208
 21
717.947191
 31
0.0
  0
LINE
  5
590
330
57B
100
AcDbEntity
  8
LC-010-003-----0
 62
     7
370
    25
100
AcDbLine
 10
848.496208
 20
717.947191
 30
0.0
 11
836.598869
 21
719.513506
 31
0.0
  0
LINE
  5
591
330
57B
100
AcDbEntity
  8
LC-010-003-----0
 62
     7
370
    25
100
AcDbLine
 10
836.543261
 20
717.229297
 30
0.0
 11
841.996208
 21
717.947191
 31
0.0
  0
LINE
  5
592
330
57B
100
AcDbEntity
  8
LC-010-003-----0
 62
     7
370
    25
100
AcDbLine
 10
841.996208
 20
717.947191
 30
0.0
 11
836.543261
 21
718.665085
 31
0.0
  0
TEXT
  5
593
330
57B
100
AcDbEntity
  8
LC-010-003-----0
 62
     7
370
    25
100
AcDbText
 10
624.196634
 20
732.947191
 30
0.0
 40
25.0
  1
840
 41
0.7
  7
LCTX0-400-0-0pDIN-Schrift
 72
     1
 11
649.196634
 21
732.947191
 31
0.0
100
AcDbText
  0
ENDBLK
  5
57D
330
57B
100
AcDbEntity
  8
0
100
AcDbBlockEnd
  0
BLOCK
  5
596
330
595
100
AcDbEntity
  8
0
100
AcDbBlockBegin
  2
LCDIM10
 70
     0
 71
     0
 10
0.0
 20
0.0
 30
0.0
  3
LCDIM10
  1

  4
LCDIM10
  0
LINE
  5
598
330
595
100
AcDbEntity
  8
LC-008-003-MTH-0
 62
     7
370
    25
100
AcDbLine
 10
638.996208
 20
1034.813956
 30
0.0
 11
638.996208
 21
1070.686815
 31
0.0
  0
LINE
  5
599
330
595
100
AcDbEntity
  8
LC-008-003-MTH-0
 62
     7
370
    25
100
AcDbLine
 10
863.996208
 20
1034.813956
 30
0.0
 11
863.996208
 21
1070.686815
 31
0.0
  0
LINE
  5
59A
330
595
100
AcDbEntity
  8
LC-009-003-MTG-0
 62
     7
370
    25
100
AcDbLine
 10
638.996208
 20
1055.686815
 30
0.0
 11
863.996208
 21
1055.686815
 31
0.0
  0
LINE
  5
59B
330
595
100
AcDbEntity
  8
LC-010-003-----0
 62
     7
370
    25
100
AcDbLine
 10
663.78233
 20
1058.94997
 30
0.0
 11
638.996208
 21
1055.686815
 31
0.0
  0
LINE
  5
59C
330
595
100
AcDbEntity
  8
LC-010-003-----0
 62
     7
370
    25
100
AcDbLine
 10
638.996208
 20
1055.686815
 30
0.0
 11
663.78233
 21
1052.42366
 31
0.0
  0
LINE
  5
59D
330
595
100
AcDbEntity
  8
LC-010-003-----0
 62
     7
370
    25
100
AcDbLine
 10
663.78233
 20
1052.42366
 30
0.0
 11
663.78233
 21
1058.94997
 31
0.0
  0
LINE
  5
59E
330
595
100
AcDbEntity
  8
LC-010-003-----0
 62
     7
370
    25
100
AcDbLine
 10
663.837938
 20
1058.10155
 30
0.0
 11
645.496208
 21
1055.686815
 31
0.0
  0
LINE
  5
59F
330
595
100
AcDbEntity
  8
LC-010-003-----0
 62
     7
370
    25
100
AcDbLine
 10
645.496208
 20
1055.686815
 30
0.0
 11
663.837938
 21
1053.27208
 31
0.0
  0
LINE
  5
5A0
330
595
100
AcDbEntity
  8
LC-010-003-----0
 62
     7
370
    25
100
AcDbLine
 10
663.893547
 20
1057.253129
 30
0.0
 11
651.996208
 21
1055.686815
 31
0.0
  0
LINE
  5
5A1
330
595
100
AcDbEntity
  8
LC-010-003-----0
 62
     7
370
    25
100
AcDbLine
 10
651.996208
 20
1055.686815
 30
0.0
 11
663.893547
 21
1054.120501
 31
0.0
  0
LINE
  5
5A2
330
595
100
AcDbEntity
  8
LC-010-003-----0
 62
     7
370
    25
100
AcDbLine
 10
663.949155
 20
1056.404709
 30
0.0
 11
658.496208
 21
1055.686815
 31
0.0
  0
LINE
  5
5A3
330
595
100
AcDbEntity
  8
LC-010-003-----0
 62
     7
370
    25
100
AcDbLine
 10
658.496208
 20
1055.686815
 30
0.0
 11
663.949155
 21
1054.968921
 31
0.0
  0
LINE
  5
5A4
330
595
100
AcDbEntity
  8
LC-010-003-----0
 62
     7
370
    25
100
AcDbLine
 10
839.210086
 20
1052.42366
 30
0.0
 11
863.996208
 21
1055.686815
 31
0.0
  0
LINE
  5
5A5
330
595
100
AcDbEntity
  8
LC-010-003-----0
 62
     7
370
    25
100
AcDbLine
 10
863.996208
 20
1055.686815
 30
0.0
 11
839.210086
 21
1058.94997
 31
0.0
  0
LINE
  5
5A6
330
595
100
AcDbEntity
  8
LC-010-003-----0
 62
     7
370
    25
100
AcDbLine
 10
839.210086
 20
1058.94997
 30
0.0
 11
839.210086
 21
1052.42366
 31
0.0
  0
LINE
  5
5A7
330
595
100
AcDbEntity
  8
LC-010-003-----0
 62
     7
370
    25
100
AcDbLine
 10
839.154478
 20
1053.27208
 30
0.0
 11
857.496208
 21
1055.686815
 31
0.0
  0
LINE
  5
5A8
330
595
100
AcDbEntity
  8
LC-010-003-----0
 62
     7
370
    25
100
AcDbLine
 10
857.496208
 20
1055.686815
 30
0.0
 11
839.154478
 21
1058.10155
 31
0.0
  0
LINE
  5
5A9
330
595
100
AcDbEntity
  8
LC-010-003-----0
 62
     7
370
    25
100
AcDbLine
 10
839.098869
 20
1054.120501
 30
0.0
 11
850.996208
 21
1055.686815
 31
0.0
  0
LINE
  5
5AA
330
595
100
AcDbEntity
  8
LC-010-003-----0
 62
     7
370
    25
100
AcDbLine
 10
850.996208
 20
1055.686815
 30
0.0
 11
839.098869
 21
1057.253129
 31
0.0
  0
LINE
  5
5AB
330
595
100
AcDbEntity
  8
LC-010-003-----0
 62
     7
370
    25
100
AcDbLine
 10
839.043261
 20
1054.968921
 30
0.0
 11
844.496208
 21
1055.686815
 31
0.0
  0
LINE
  5
5AC
330
595
100
AcDbEntity
  8
LC-010-003-----0
 62
     7
370
    25
100
AcDbLine
 10
844.496208
 20
1055.686815
 30
0.0
 11
839.043261
 21
1056.404709
 31
0.0
  0
TEXT
  5
5AD
330
595
100
AcDbEntity
  8
LC-010-003-----0
 62
     7
370
    25
100
AcDbText
 10
722.902551
 20
1070.686815
 30
0.0
 40
25.0
  1
450
 41
0.7
  7
LCTX0-400-0-0pDIN-Schrift
 72
     1
 11
747.902551
 21
1070.686815
 31
0.0
100
AcDbText
  0
ENDBLK
  5
597
330
595
100
AcDbEntity
  8
0
100
AcDbBlockEnd
  0
BLOCK
  5
5B0
330
5AF
100
AcDbEntity
  8
0
100
AcDbBlockBegin
  2
LCDIM11
 70
     0
 71
     0
 10
0.0
 20
0.0
 30
0.0
  3
LCDIM11
  1

  4
LCDIM11
  0
LINE
  5
5B2
330
5AF
100
AcDbEntity
  8
LC-008-003-MTH-0
 62
     7
370
    25
100
AcDbLine
 10
861.496208
 20
1001.342023
 30
0.0
 11
861.496208
 21
1045.542072
 31
0.0
  0
LINE
  5
5B3
330
5AF
100
AcDbEntity
  8
LC-008-003-MTH-0
 62
     7
370
    25
100
AcDbLine
 10
863.996208
 20
1034.813956
 30
0.0
 11
863.996208
 21
1015.542071
 31
0.0
  0
LINE
  5
5B4
330
5AF
100
AcDbEntity
  8
LC-010-003-----0
 62
     7
370
    25
100
AcDbLine
 10
836.710086
 20
1027.278917
 30
0.0
 11
861.496208
 21
1030.542071
 31
0.0
  0
LINE
  5
5B5
330
5AF
100
AcDbEntity
  8
LC-010-003-----0
 62
     7
370
    25
100
AcDbLine
 10
861.496208
 20
1030.542071
 30
0.0
 11
836.710086
 21
1033.805226
 31
0.0
  0
LINE
  5
5B6
330
5AF
100
AcDbEntity
  8
LC-010-003-----0
 62
     7
370
    25
100
AcDbLine
 10
836.710086
 20
1033.805226
 30
0.0
 11
836.710086
 21
1027.278917
 31
0.0
  0
LINE
  5
5B7
330
5AF
100
AcDbEntity
  8
LC-010-003-----0
 62
     7
370
    25
100
AcDbLine
 10
836.654478
 20
1028.127337
 30
0.0
 11
854.996208
 21
1030.542071
 31
0.0
  0
LINE
  5
5B8
330
5AF
100
AcDbEntity
  8
LC-010-003-----0
 62
     7
370
    25
100
AcDbLine
 10
854.996208
 20
1030.542071
 30
0.0
 11
836.654478
 21
1032.956806
 31
0.0
  0
LINE
  5
5B9
330
5AF
100
AcDbEntity
  8
LC-010-003-----0
 62
     7
370
    25
100
AcDbLine
 10
836.598869
 20
1028.975757
 30
0.0
 11
848.496208
 21
1030.542071
 31
0.0
  0
LINE
  5
5BA
330
5AF
100
AcDbEntity
  8
LC-010-003-----0
 62
     7
370
    25
100
AcDbLine
 10
848.496208
 20
1030.542071
 30
0.0
 11
836.598869
 21
1032.108386
 31
0.0
  0
LINE
  5
5BB
330
5AF
100
AcDbEntity
  8
LC-010-003-----0
 62
     7
370
    25
100
AcDbLine
 10
836.543261
 20
1029.824177
 30
0.0
 11
841.996208
 21
1030.542071
 31
0.0
  0
LINE
  5
5BC
330
5AF
100
AcDbEntity
  8
LC-010-003-----0
 62
     7
370
    25
100
AcDbLine
 10
841.996208
 20
1030.542071
 30
0.0
 11
836.543261
 21
1031.259966
 31
0.0
  0
LINE
  5
5BD
330
5AF
100
AcDbEntity
  8
LC-010-003-----0
 62
     7
370
    25
100
AcDbLine
 10
888.78233
 20
1033.805226
 30
0.0
 11
863.996208
 21
1030.542071
 31
0.0
  0
LINE
  5
5BE
330
5AF
100
AcDbEntity
  8
LC-010-003-----0
 62
     7
370
    25
100
AcDbLine
 10
863.996208
 20
1030.542071
 30
0.0
 11
888.78233
 21
1027.278917
 31
0.0
  0
LINE
  5
5BF
330
5AF
100
AcDbEntity
  8
LC-010-003-----0
 62
     7
370
    25
100
AcDbLine
 10
888.78233
 20
1027.278917
 30
0.0
 11
888.78233
 21
1033.805226
 31
0.0
  0
LINE
  5
5C0
330
5AF
100
AcDbEntity
  8
LC-010-003-----0
 62
     7
370
    25
100
AcDbLine
 10
888.837938
 20
1032.956806
 30
0.0
 11
870.496208
 21
1030.542071
 31
0.0
  0
LINE
  5
5C1
330
5AF
100
AcDbEntity
  8
LC-010-003-----0
 62
     7
370
    25
100
AcDbLine
 10
870.496208
 20
1030.542071
 30
0.0
 11
888.837938
 21
1028.127337
 31
0.0
  0
LINE
  5
5C2
330
5AF
100
AcDbEntity
  8
LC-010-003-----0
 62
     7
370
    25
100
AcDbLine
 10
888.893547
 20
1032.108386
 30
0.0
 11
876.996208
 21
1030.542071
 31
0.0
  0
LINE
  5
5C3
330
5AF
100
AcDbEntity
  8
LC-010-003-----0
 62
     7
370
    25
100
AcDbLine
 10
876.996208
 20
1030.542071
 30
0.0
 11
888.893547
 21
1028.975757
 31
0.0
  0
LINE
  5
5C4
330
5AF
100
AcDbEntity
  8
LC-010-003-----0
 62
     7
370
    25
100
AcDbLine
 10
888.949155
 20
1031.259966
 30
0.0
 11
883.496208
 21
1030.542071
 31
0.0
  0
LINE
  5
5C5
330
5AF
100
AcDbEntity
  8
LC-010-003-----0
 62
     7
370
    25
100
AcDbLine
 10
883.496208
 20
1030.542071
 30
0.0
 11
888.949155
 21
1029.824177
 31
0.0
  0
LINE
  5
5C6
330
5AF
100
AcDbEntity
  8
LC-009-003-MTG-0
 62
     7
370
    25
100
AcDbLine
 10
826.496207
 20
1030.542071
 30
0.0
 11
908.973979
 21
1030.542071
 31
0.0
  0
TEXT
  5
5C7
330
5AF
100
AcDbEntity
  8
LC-010-003-----0
 62
     7
370
    25
100
AcDbText
 10
907.652053
 20
1045.542072
 30
0.0
 40
25.0
  1
5
 41
0.7
  7
LCTX0-400-0-0pDIN-Schrift
100
AcDbText
  0
ENDBLK
  5
5B1
330
5AF
100
AcDbEntity
  8
0
100
AcDbBlockEnd
  0
BLOCK
  5
5CA
330
5C9
100
AcDbEntity
  8
0
100
AcDbBlockBegin
  2
LCDIM12
 70
     0
 71
     0
 10
0.0
 20
0.0
 30
0.0
  3
LCDIM12
  1

  4
LCDIM12
  0
LINE
  5
5CC
330
5C9
100
AcDbEntity
  8
LC-008-003-MTH-0
 62
     7
370
    25
100
AcDbLine
 10
854.496208
 20
798.842023
 30
0.0
 11
947.878994
 21
798.842023
 31
0.0
  0
LINE
  5
5CD
330
5C9
100
AcDbEntity
  8
LC-008-003-MTH-0
 62
     7
370
    25
100
AcDbLine
 10
854.496208
 20
1006.342023
 30
0.0
 11
947.878994
 21
1006.342023
 31
0.0
  0
LINE
  5
5CE
330
5C9
100
AcDbEntity
  8
LC-009-003-MTG-0
 62
     7
370
    25
100
AcDbLine
 10
932.878994
 20
798.842023
 30
0.0
 11
932.878994
 21
1006.342023
 31
0.0
  0
LINE
  5
5CF
330
5C9
100
AcDbEntity
  8
LC-010-003-----0
 62
     7
370
    25
100
AcDbLine
 10
929.615839
 20
823.628145
 30
0.0
 11
932.878994
 21
798.842023
 31
0.0
  0
LINE
  5
5D0
330
5C9
100
AcDbEntity
  8
LC-010-003-----0
 62
     7
370
    25
100
AcDbLine
 10
932.878994
 20
798.842023
 30
0.0
 11
936.142149
 21
823.628145
 31
0.0
  0
LINE
  5
5D1
330
5C9
100
AcDbEntity
  8
LC-010-003-----0
 62
     7
370
    25
100
AcDbLine
 10
936.142149
 20
823.628145
 30
0.0
 11
929.615839
 21
823.628145
 31
0.0
  0
LINE
  5
5D2
330
5C9
100
AcDbEntity
  8
LC-010-003-----0
 62
     7
370
    25
100
AcDbLine
 10
930.46426
 20
823.683754
 30
0.0
 11
932.878994
 21
805.342023
 31
0.0
  0
LINE
  5
5D3
330
5C9
100
AcDbEntity
  8
LC-010-003-----0
 62
     7
370
    25
100
AcDbLine
 10
932.878994
 20
805.342023
 30
0.0
 11
935.293729
 21
823.683754
 31
0.0
  0
LINE
  5
5D4
330
5C9
100
AcDbEntity
  8
LC-010-003-----0
 62
     7
370
    25
100
AcDbLine
 10
931.31268
 20
823.739362
 30
0.0
 11
932.878994
 21
811.842023
 31
0.0
  0
LINE
  5
5D5
330
5C9
100
AcDbEntity
  8
LC-010-003-----0
 62
     7
370
    25
100
AcDbLine
 10
932.878994
 20
811.842023
 30
0.0
 11
934.445309
 21
823.739362
 31
0.0
  0
LINE
  5
5D6
330
5C9
100
AcDbEntity
  8
LC-010-003-----0
 62
     7
370
    25
100
AcDbLine
 10
932.1611
 20
823.79497
 30
0.0
 11
932.878994
 21
818.342024
 31
0.0
  0
LINE
  5
5D7
330
5C9
100
AcDbEntity
  8
LC-010-003-----0
 62
     7
370
    25
100
AcDbLine
 10
932.878994
 20
818.342024
 30
0.0
 11
933.596888
 21
823.79497
 31
0.0
  0
LINE
  5
5D8
330
5C9
100
AcDbEntity
  8
LC-010-003-----0
 62
     7
370
    25
100
AcDbLine
 10
936.142149
 20
981.555901
 30
0.0
 11
932.878994
 21
1006.342023
 31
0.0
  0
LINE
  5
5D9
330
5C9
100
AcDbEntity
  8
LC-010-003-----0
 62
     7
370
    25
100
AcDbLine
 10
932.878994
 20
1006.342023
 30
0.0
 11
929.615839
 21
981.555901
 31
0.0
  0
LINE
  5
5DA
330
5C9
100
AcDbEntity
  8
LC-010-003-----0
 62
     7
370
    25
100
AcDbLine
 10
929.615839
 20
981.555901
 30
0.0
 11
936.142149
 21
981.555901
 31
0.0
  0
LINE
  5
5DB
330
5C9
100
AcDbEntity
  8
LC-010-003-----0
 62
     7
370
    25
100
AcDbLine
 10
935.293729
 20
981.500293
 30
0.0
 11
932.878994
 21
999.842023
 31
0.0
  0
LINE
  5
5DC
330
5C9
100
AcDbEntity
  8
LC-010-003-----0
 62
     7
370
    25
100
AcDbLine
 10
932.878994
 20
999.842023
 30
0.0
 11
930.46426
 21
981.500293
 31
0.0
  0
LINE
  5
5DD
330
5C9
100
AcDbEntity
  8
LC-010-003-----0
 62
     7
370
    25
100
AcDbLine
 10
934.445309
 20
981.444685
 30
0.0
 11
932.878994
 21
993.342023
 31
0.0
  0
LINE
  5
5DE
330
5C9
100
AcDbEntity
  8
LC-010-003-----0
 62
     7
370
    25
100
AcDbLine
 10
932.878994
 20
993.342023
 30
0.0
 11
931.31268
 21
981.444685
 31
0.0
  0
LINE
  5
5DF
330
5C9
100
AcDbEntity
  8
LC-010-003-----0
 62
     7
370
    25
100
AcDbLine
 10
933.596888
 20
981.389076
 30
0.0
 11
932.878994
 21
986.842023
 31
0.0
  0
LINE
  5
5E0
330
5C9
100
AcDbEntity
  8
LC-010-003-----0
 62
     7
370
    25
100
AcDbLine
 10
932.878994
 20
986.842023
 30
0.0
 11
932.1611
 21
981.389076
 31
0.0
  0
TEXT
  5
5E1
330
5C9
100
AcDbEntity
  8
LC-010-003-----0
 62
     7
370
    25
100
AcDbText
 10
917.878994
 20
871.246282
 30
0.0
 40
25.0
  1
415
 50
90.0
 41
0.7
  7
LCTX0-400-0-0pDIN-Schrift
 72
     1
 11
917.878994
 21
896.246282
 31
0.0
100
AcDbText
  0
ENDBLK
  5
5CB
330
5C9
100
AcDbEntity
  8
0
100
AcDbBlockEnd
  0
BLOCK
  5
5E4
330
5E3
100
AcDbEntity
  8
0
100
AcDbBlockBegin
  2
LCDIM13
 70
     0
 71
     0
 10
0.0
 20
0.0
 30
0.0
  3
LCDIM13
  1

  4
LCDIM13
  0
TEXT
  5
5E6
330
5E3
100
AcDbEntity
  8
LC-010-003-----0
 62
     7
370
    25
100
AcDbText
 10
487.511184
 20
972.582365
 30
0.0
 40
25.0
  1
R10
 50
307.537872
 41
0.7
  7
LCTX0-400-0-0pDIN-Schrift
100
AcDbText
  0
LINE
  5
5E7
330
5E3
100
AcDbEntity
  8
LC-009-003-MTG-0
 62
     7
370
    25
100
AcDbLine
 10
495.367964
 20
937.738218
 30
0.0
 11
443.449778
 21
1005.306776
 31
0.0
  0
LINE
  5
5E8
330
5E3
100
AcDbEntity
  8
LC-010-003-----0
 62
     7
370
    25
100
AcDbLine
 10
461.139131
 20
987.640798
 30
0.0
 11
443.449778
 21
1005.306776
 31
0.0
  0
LINE
  5
5E9
330
5E3
100
AcDbEntity
  8
LC-010-003-----0
 62
     7
370
    25
100
AcDbLine
 10
443.449778
 20
1005.306776
 30
0.0
 11
455.964089
 21
983.66441
 31
0.0
  0
LINE
  5
5EA
330
5E3
100
AcDbEntity
  8
LC-010-003-----0
 62
     7
370
    25
100
AcDbLine
 10
455.964089
 20
983.66441
 30
0.0
 11
461.139131
 21
987.640798
 31
0.0
  0
LINE
  5
5EB
330
5E3
100
AcDbEntity
  8
LC-010-003-----0
 62
     7
370
    25
100
AcDbLine
 10
460.500257
 20
987.079772
 30
0.0
 11
447.410136
 21
1000.152597
 31
0.0
  0
LINE
  5
5EC
330
5E3
100
AcDbEntity
  8
LC-010-003-----0
 62
     7
370
    25
100
AcDbLine
 10
447.410136
 20
1000.152597
 30
0.0
 11
456.670726
 21
984.137246
 31
0.0
  0
LINE
  5
5ED
330
5E3
100
AcDbEntity
  8
LC-010-003-----0
 62
     7
370
    25
100
AcDbLine
 10
459.861383
 20
986.518747
 30
0.0
 11
451.370494
 21
994.998417
 31
0.0
  0
LINE
  5
5EE
330
5E3
100
AcDbEntity
  8
LC-010-003-----0
 62
     7
370
    25
100
AcDbLine
 10
451.370494
 20
994.998417
 30
0.0
 11
457.377363
 21
984.610081
 31
0.0
  0
LINE
  5
5EF
330
5E3
100
AcDbEntity
  8
LC-010-003-----0
 62
     7
370
    25
100
AcDbLine
 10
459.222509
 20
985.957722
 30
0.0
 11
455.330851
 21
989.844238
 31
0.0
  0
LINE
  5
5F0
330
5E3
100
AcDbEntity
  8
LC-010-003-----0
 62
     7
370
    25
100
AcDbLine
 10
455.330851
 20
989.844238
 30
0.0
 11
458.084
 21
985.082917
 31
0.0
  0
ENDBLK
  5
5E5
330
5E3
100
AcDbEntity
  8
0
100
AcDbBlockEnd
  0
BLOCK
  5
5FA
330
5F9
100
AcDbEntity
  8
0
100
AcDbBlockBegin
  2
LCDIM14
 70
     0
 71
     0
 10
0.0
 20
0.0
 30
0.0
  3
LCDIM14
  1

  4
LCDIM14
  0
LINE
  5
5FC
330
5F9
100
AcDbEntity
  8
LC-008-003-MTH-0
 62
     7
370
    25
100
AcDbLine
 10
1685.215574
 20
814.147707
 30
0.0
 11
1786.541936
 21
814.147707
 31
0.0
  0
LINE
  5
5FD
330
5F9
100
AcDbEntity
  8
LC-008-003-MTH-0
 62
     7
370
    25
100
AcDbLine
 10
1685.215574
 20
1024.647707
 30
0.0
 11
1786.541936
 21
1024.647707
 31
0.0
  0
LINE
  5
5FE
330
5F9
100
AcDbEntity
  8
LC-009-003-MTG-0
 62
     7
370
    25
100
AcDbLine
 10
1771.541936
 20
814.147707
 30
0.0
 11
1771.541936
 21
1024.647707
 31
0.0
  0
LINE
  5
5FF
330
5F9
100
AcDbEntity
  8
LC-010-003-----0
 62
     7
370
    25
100
AcDbLine
 10
1768.278781
 20
838.933829
 30
0.0
 11
1771.541936
 21
814.147707
 31
0.0
  0
LINE
  5
600
330
5F9
100
AcDbEntity
  8
LC-010-003-----0
 62
     7
370
    25
100
AcDbLine
 10
1771.541936
 20
814.147707
 30
0.0
 11
1774.805091
 21
838.933829
 31
0.0
  0
LINE
  5
601
330
5F9
100
AcDbEntity
  8
LC-010-003-----0
 62
     7
370
    25
100
AcDbLine
 10
1774.805091
 20
838.933829
 30
0.0
 11
1768.278781
 21
838.933829
 31
0.0
  0
LINE
  5
602
330
5F9
100
AcDbEntity
  8
LC-010-003-----0
 62
     7
370
    25
100
AcDbLine
 10
1769.127201
 20
838.989438
 30
0.0
 11
1771.541936
 21
820.647708
 31
0.0
  0
LINE
  5
603
330
5F9
100
AcDbEntity
  8
LC-010-003-----0
 62
     7
370
    25
100
AcDbLine
 10
1771.541936
 20
820.647708
 30
0.0
 11
1773.95667
 21
838.989438
 31
0.0
  0
LINE
  5
604
330
5F9
100
AcDbEntity
  8
LC-010-003-----0
 62
     7
370
    25
100
AcDbLine
 10
1769.975622
 20
839.045046
 30
0.0
 11
1771.541936
 21
827.147708
 31
0.0
  0
LINE
  5
605
330
5F9
100
AcDbEntity
  8
LC-010-003-----0
 62
     7
370
    25
100
AcDbLine
 10
1771.541936
 20
827.147708
 30
0.0
 11
1773.10825
 21
839.045046
 31
0.0
  0
LINE
  5
606
330
5F9
100
AcDbEntity
  8
LC-010-003-----0
 62
     7
370
    25
100
AcDbLine
 10
1770.824042
 20
839.100655
 30
0.0
 11
1771.541936
 21
833.647708
 31
0.0
  0
LINE
  5
607
330
5F9
100
AcDbEntity
  8
LC-010-003-----0
 62
     7
370
    25
100
AcDbLine
 10
1771.541936
 20
833.647708
 30
0.0
 11
1772.25983
 21
839.100655
 31
0.0
  0
LINE
  5
608
330
5F9
100
AcDbEntity
  8
LC-010-003-----0
 62
     7
370
    25
100
AcDbLine
 10
1774.805091
 20
999.861586
 30
0.0
 11
1771.541936
 21
1024.647707
 31
0.0
  0
LINE
  5
609
330
5F9
100
AcDbEntity
  8
LC-010-003-----0
 62
     7
370
    25
100
AcDbLine
 10
1771.541936
 20
1024.647707
 30
0.0
 11
1768.278781
 21
999.861586
 31
0.0
  0
LINE
  5
60A
330
5F9
100
AcDbEntity
  8
LC-010-003-----0
 62
     7
370
    25
100
AcDbLine
 10
1768.278781
 20
999.861586
 30
0.0
 11
1774.805091
 21
999.861586
 31
0.0
  0
LINE
  5
60B
330
5F9
100
AcDbEntity
  8
LC-010-003-----0
 62
     7
370
    25
100
AcDbLine
 10
1773.95667
 20
999.805977
 30
0.0
 11
1771.541936
 21
1018.147707
 31
0.0
  0
LINE
  5
60C
330
5F9
100
AcDbEntity
  8
LC-010-003-----0
 62
     7
370
    25
100
AcDbLine
 10
1771.541936
 20
1018.147707
 30
0.0
 11
1769.127201
 21
999.805977
 31
0.0
  0
LINE
  5
60D
330
5F9
100
AcDbEntity
  8
LC-010-003-----0
 62
     7
370
    25
100
AcDbLine
 10
1773.10825
 20
999.750369
 30
0.0
 11
1771.541936
 21
1011.647707
 31
0.0
  0
LINE
  5
60E
330
5F9
100
AcDbEntity
  8
LC-010-003-----0
 62
     7
370
    25
100
AcDbLine
 10
1771.541936
 20
1011.647707
 30
0.0
 11
1769.975622
 21
999.750369
 31
0.0
  0
LINE
  5
60F
330
5F9
100
AcDbEntity
  8
LC-010-003-----0
 62
     7
370
    25
100
AcDbLine
 10
1772.25983
 20
999.69476
 30
0.0
 11
1771.541936
 21
1005.147707
 31
0.0
  0
LINE
  5
610
330
5F9
100
AcDbEntity
  8
LC-010-003-----0
 62
     7
370
    25
100
AcDbLine
 10
1771.541936
 20
1005.147707
 30
0.0
 11
1770.824042
 21
999.69476
 31
0.0
  0
TEXT
  5
611
330
5F9
100
AcDbEntity
  8
LC-010-003-----0
 62
     7
370
    25
100
AcDbText
 10
1756.541936
 20
893.319785
 30
0.0
 40
25.0
  1
421
 50
90.0
 41
0.7
  7
LCTX0-400-0-0pDIN-Schrift
 72
     1
 11
1756.541936
 21
915.819785
 31
0.0
100
AcDbText
  0
ENDBLK
  5
5FB
330
5F9
100
AcDbEntity
  8
0
100
AcDbBlockEnd
  0
BLOCK
  5
614
330
613
100
AcDbEntity
  8
0
100
AcDbBlockBegin
  2
LCDIM15
 70
     0
 71
     0
 10
0.0
 20
0.0
 30
0.0
  3
LCDIM15
  1

  4
LCDIM15
  0
LINE
  5
616
330
613
100
AcDbEntity
  8
LC-008-003-MTH-0
 62
     7
370
    25
100
AcDbLine
 10
1268.715574
 20
820.647707
 30
0.0
 11
1268.715574
 21
727.949673
 31
0.0
  0
LINE
  5
617
330
613
100
AcDbEntity
  8
LC-008-003-MTH-0
 62
     7
370
    25
100
AcDbLine
 10
1691.715574
 20
820.647707
 30
0.0
 11
1691.715574
 21
727.949673
 31
0.0
  0
LINE
  5
618
330
613
100
AcDbEntity
  8
LC-009-003-MTG-0
 62
     7
370
    25
100
AcDbLine
 10
1268.715574
 20
742.949673
 30
0.0
 11
1691.715574
 21
742.949673
 31
0.0
  0
LINE
  5
619
330
613
100
AcDbEntity
  8
LC-010-003-----0
 62
     7
370
    25
100
AcDbLine
 10
1293.501696
 20
746.212828
 30
0.0
 11
1268.715574
 21
742.949673
 31
0.0
  0
LINE
  5
61A
330
613
100
AcDbEntity
  8
LC-010-003-----0
 62
     7
370
    25
100
AcDbLine
 10
1268.715574
 20
742.949673
 30
0.0
 11
1293.501696
 21
739.686518
 31
0.0
  0
LINE
  5
61B
330
613
100
AcDbEntity
  8
LC-010-003-----0
 62
     7
370
    25
100
AcDbLine
 10
1293.501696
 20
739.686518
 30
0.0
 11
1293.501696
 21
746.212828
 31
0.0
  0
LINE
  5
61C
330
613
100
AcDbEntity
  8
LC-010-003-----0
 62
     7
370
    25
100
AcDbLine
 10
1293.557305
 20
745.364408
 30
0.0
 11
1275.215574
 21
742.949673
 31
0.0
  0
LINE
  5
61D
330
613
100
AcDbEntity
  8
LC-010-003-----0
 62
     7
370
    25
100
AcDbLine
 10
1275.215574
 20
742.949673
 30
0.0
 11
1293.557305
 21
740.534939
 31
0.0
  0
LINE
  5
61E
330
613
100
AcDbEntity
  8
LC-010-003-----0
 62
     7
370
    25
100
AcDbLine
 10
1293.612913
 20
744.515987
 30
0.0
 11
1281.715575
 21
742.949673
 31
0.0
  0
LINE
  5
61F
330
613
100
AcDbEntity
  8
LC-010-003-----0
 62
     7
370
    25
100
AcDbLine
 10
1281.715575
 20
742.949673
 30
0.0
 11
1293.612913
 21
741.383359
 31
0.0
  0
LINE
  5
620
330
613
100
AcDbEntity
  8
LC-010-003-----0
 62
     7
370
    25
100
AcDbLine
 10
1293.668521
 20
743.667567
 30
0.0
 11
1288.215575
 21
742.949673
 31
0.0
  0
LINE
  5
621
330
613
100
AcDbEntity
  8
LC-010-003-----0
 62
     7
370
    25
100
AcDbLine
 10
1288.215575
 20
742.949673
 30
0.0
 11
1293.668521
 21
742.231779
 31
0.0
  0
LINE
  5
622
330
613
100
AcDbEntity
  8
LC-010-003-----0
 62
     7
370
    25
100
AcDbLine
 10
1666.929452
 20
739.686518
 30
0.0
 11
1691.715574
 21
742.949673
 31
0.0
  0
LINE
  5
623
330
613
100
AcDbEntity
  8
LC-010-003-----0
 62
     7
370
    25
100
AcDbLine
 10
1691.715574
 20
742.949673
 30
0.0
 11
1666.929452
 21
746.212828
 31
0.0
  0
LINE
  5
624
330
613
100
AcDbEntity
  8
LC-010-003-----0
 62
     7
370
    25
100
AcDbLine
 10
1666.929452
 20
746.212828
 30
0.0
 11
1666.929452
 21
739.686518
 31
0.0
  0
LINE
  5
625
330
613
100
AcDbEntity
  8
LC-010-003-----0
 62
     7
370
    25
100
AcDbLine
 10
1666.873844
 20
740.534939
 30
0.0
 11
1685.215574
 21
742.949673
 31
0.0
  0
LINE
  5
626
330
613
100
AcDbEntity
  8
LC-010-003-----0
 62
     7
370
    25
100
AcDbLine
 10
1685.215574
 20
742.949673
 30
0.0
 11
1666.873844
 21
745.364408
 31
0.0
  0
LINE
  5
627
330
613
100
AcDbEntity
  8
LC-010-003-----0
 62
     7
370
    25
100
AcDbLine
 10
1666.818236
 20
741.383359
 30
0.0
 11
1678.715574
 21
742.949673
 31
0.0
  0
LINE
  5
628
330
613
100
AcDbEntity
  8
LC-010-003-----0
 62
     7
370
    25
100
AcDbLine
 10
1678.715574
 20
742.949673
 30
0.0
 11
1666.818236
 21
744.515987
 31
0.0
  0
LINE
  5
629
330
613
100
AcDbEntity
  8
LC-010-003-----0
 62
     7
370
    25
100
AcDbLine
 10
1666.762627
 20
742.231779
 30
0.0
 11
1672.215574
 21
742.949673
 31
0.0
  0
LINE
  5
62A
330
613
100
AcDbEntity
  8
LC-010-003-----0
 62
     7
370
    25
100
AcDbLine
 10
1672.215574
 20
742.949673
 30
0.0
 11
1666.762627
 21
743.667567
 31
0.0
  0
TEXT
  5
62B
330
613
100
AcDbEntity
  8
LC-010-003-----0
 62
     7
370
    25
100
AcDbText
 10
1461.564222
 20
757.949673
 30
0.0
 40
25.0
  1
846
 41
0.7
  7
LCTX0-400-0-0pDIN-Schrift
 72
     1
 11
1486.564222
 21
757.949673
 31
0.0
100
AcDbText
  0
ENDBLK
  5
615
330
613
100
AcDbEntity
  8
0
100
AcDbBlockEnd
  0
BLOCK
  5
62E
330
62D
100
AcDbEntity
  8
0
100
AcDbBlockBegin
  2
LCDIM16
 70
     0
 71
     0
 10
0.0
 20
0.0
 30
0.0
  3
LCDIM16
  1

  4
LCDIM16
  0
TEXT
  5
630
330
62D
100
AcDbEntity
  8
LC-010-003-----0
 62
     7
370
    25
100
AcDbText
 10
1316.038652
 20
991.839143
 30
0.0
 40
25.0
  1
R13
 50
309.209717
 41
0.7
  7
LCTX0-400-0-0pDIN-Schrift
100
AcDbText
  0
LINE
  5
631
330
62D
100
AcDbEntity
  8
LC-009-003-MTG-0
 62
     7
370
    25
100
AcDbLine
 10
1324.908668
 20
957.239051
 30
0.0
 11
1271.106529
 21
1023.18415
 31
0.0
  0
LINE
  5
632
330
62D
100
AcDbEntity
  8
LC-010-003-----0
 62
     7
370
    25
100
AcDbLine
 10
1289.303756
 20
1006.041777
 30
0.0
 11
1271.106529
 21
1023.18415
 31
0.0
  0
LINE
  5
633
330
62D
100
AcDbEntity
  8
LC-010-003-----0
 62
     7
370
    25
100
AcDbLine
 10
1271.106529
 20
1023.18415
 30
0.0
 11
1284.246928
 21
1001.9161
 31
0.0
  0
LINE
  5
634
330
62D
100
AcDbEntity
  8
LC-010-003-----0
 62
     7
370
    25
100
AcDbLine
 10
1284.246928
 20
1001.9161
 30
0.0
 11
1289.303756
 21
1006.041777
 31
0.0
  0
LINE
  5
635
330
62D
100
AcDbEntity
  8
LC-010-003-----0
 62
     7
370
    25
100
AcDbLine
 10
1288.681522
 20
1005.462352
 30
0.0
 11
1275.215574
 21
1018.147707
 31
0.0
  0
LINE
  5
636
330
62D
100
AcDbEntity
  8
LC-010-003-----0
 62
     7
370
    25
100
AcDbLine
 10
1275.215574
 20
1018.147707
 30
0.0
 11
1284.939469
 21
1002.409351
 31
0.0
  0
LINE
  5
637
330
62D
100
AcDbEntity
  8
LC-010-003-----0
 62
     7
370
    25
100
AcDbLine
 10
1288.059288
 20
1004.882926
 30
0.0
 11
1279.324619
 21
1013.111265
 31
0.0
  0
LINE
  5
638
330
62D
100
AcDbEntity
  8
LC-010-003-----0
 62
     7
370
    25
100
AcDbLine
 10
1279.324619
 20
1013.111265
 30
0.0
 11
1285.63201
 21
1002.902601
 31
0.0
  0
LINE
  5
639
330
62D
100
AcDbEntity
  8
LC-010-003-----0
 62
     7
370
    25
100
AcDbLine
 10
1287.437054
 20
1004.303501
 30
0.0
 11
1283.433664
 21
1008.074823
 31
0.0
  0
LINE
  5
63A
330
62D
100
AcDbEntity
  8
LC-010-003-----0
 62
     7
370
    25
100
AcDbLine
 10
1283.433664
 20
1008.074823
 30
0.0
 11
1286.324551
 21
1003.395852
 31
0.0
  0
ENDBLK
  5
62F
330
62D
100
AcDbEntity
  8
0
100
AcDbBlockEnd
  0
BLOCK
  5
63E
330
63D
100
AcDbEntity
  8
0
100
AcDbBlockBegin
  2
LCDIM17
 70
     0
 71
     0
 10
0.0
 20
0.0
 30
0.0
  3
LCDIM17
  1

  4
LCDIM17
  0
LINE
  5
640
330
63D
100
AcDbEntity
  8
LC-008-003-MTH-0
 62
     7
370
    25
100
AcDbLine
 10
890.621597
 20
1937.13
 30
0.0
 11
890.621597
 21
2015.0
 31
0.0
  0
LINE
  5
641
330
63D
100
AcDbEntity
  8
LC-008-003-MTH-0
 62
     7
370
    25
100
AcDbLine
 10
1290.621597
 20
1917.13
 30
0.0
 11
1290.621597
 21
2015.0
 31
0.0
  0
LINE
  5
642
330
63D
100
AcDbEntity
  8
LC-009-003-MTG-0
 62
     7
370
    25
100
AcDbLine
 10
890.621597
 20
2000.0
 30
0.0
 11
1290.621597
 21
2000.0
 31
0.0
  0
LINE
  5
643
330
63D
100
AcDbEntity
  8
LC-010-003-----0
 62
     7
370
    25
100
AcDbLine
 10
915.407719
 20
2003.263155
 30
0.0
 11
890.621597
 21
2000.0
 31
0.0
  0
LINE
  5
644
330
63D
100
AcDbEntity
  8
LC-010-003-----0
 62
     7
370
    25
100
AcDbLine
 10
890.621597
 20
2000.0
 30
0.0
 11
915.407719
 21
1996.736845
 31
0.0
  0
LINE
  5
645
330
63D
100
AcDbEntity
  8
LC-010-003-----0
 62
     7
370
    25
100
AcDbLine
 10
915.407719
 20
1996.736845
 30
0.0
 11
915.407719
 21
2003.263155
 31
0.0
  0
LINE
  5
646
330
63D
100
AcDbEntity
  8
LC-010-003-----0
 62
     7
370
    25
100
AcDbLine
 10
915.463327
 20
2002.414735
 30
0.0
 11
897.121597
 21
2000.0
 31
0.0
  0
LINE
  5
647
330
63D
100
AcDbEntity
  8
LC-010-003-----0
 62
     7
370
    25
100
AcDbLine
 10
897.121597
 20
2000.0
 30
0.0
 11
915.463327
 21
1997.585265
 31
0.0
  0
LINE
  5
648
330
63D
100
AcDbEntity
  8
LC-010-003-----0
 62
     7
370
    25
100
AcDbLine
 10
915.518935
 20
2001.566314
 30
0.0
 11
903.621597
 21
2000.0
 31
0.0
  0
LINE
  5
649
330
63D
100
AcDbEntity
  8
LC-010-003-----0
 62
     7
370
    25
100
AcDbLine
 10
903.621597
 20
2000.0
 30
0.0
 11
915.518935
 21
1998.433686
 31
0.0
  0
LINE
  5
64A
330
63D
100
AcDbEntity
  8
LC-010-003-----0
 62
     7
370
    25
100
AcDbLine
 10
915.574544
 20
2000.717894
 30
0.0
 11
910.121597
 21
2000.0
 31
0.0
  0
LINE
  5
64B
330
63D
100
AcDbEntity
  8
LC-010-003-----0
 62
     7
370
    25
100
AcDbLine
 10
910.121597
 20
2000.0
 30
0.0
 11
915.574544
 21
1999.282106
 31
0.0
  0
LINE
  5
64C
330
63D
100
AcDbEntity
  8
LC-010-003-----0
 62
     7
370
    25
100
AcDbLine
 10
1265.835475
 20
1996.736845
 30
0.0
 11
1290.621597
 21
2000.0
 31
0.0
  0
LINE
  5
64D
330
63D
100
AcDbEntity
  8
LC-010-003-----0
 62
     7
370
    25
100
AcDbLine
 10
1290.621597
 20
2000.0
 30
0.0
 11
1265.835475
 21
2003.263155
 31
0.0
  0
LINE
  5
64E
330
63D
100
AcDbEntity
  8
LC-010-003-----0
 62
     7
370
    25
100
AcDbLine
 10
1265.835475
 20
2003.263155
 30
0.0
 11
1265.835475
 21
1996.736845
 31
0.0
  0
LINE
  5
64F
330
63D
100
AcDbEntity
  8
LC-010-003-----0
 62
     7
370
    25
100
AcDbLine
 10
1265.779866
 20
1997.585265
 30
0.0
 11
1284.121597
 21
2000.0
 31
0.0
  0
LINE
  5
650
330
63D
100
AcDbEntity
  8
LC-010-003-----0
 62
     7
370
    25
100
AcDbLine
 10
1284.121597
 20
2000.0
 30
0.0
 11
1265.779866
 21
2002.414735
 31
0.0
  0
LINE
  5
651
330
63D
100
AcDbEntity
  8
LC-010-003-----0
 62
     7
370
    25
100
AcDbLine
 10
1265.724258
 20
1998.433686
 30
0.0
 11
1277.621597
 21
2000.0
 31
0.0
  0
LINE
  5
652
330
63D
100
AcDbEntity
  8
LC-010-003-----0
 62
     7
370
    25
100
AcDbLine
 10
1277.621597
 20
2000.0
 30
0.0
 11
1265.724258
 21
2001.566314
 31
0.0
  0
LINE
  5
653
330
63D
100
AcDbEntity
  8
LC-010-003-----0
 62
     7
370
    25
100
AcDbLine
 10
1265.66865
 20
1999.282106
 30
0.0
 11
1271.121596
 21
2000.0
 31
0.0
  0
LINE
  5
654
330
63D
100
AcDbEntity
  8
LC-010-003-----0
 62
     7
370
    25
100
AcDbLine
 10
1271.121596
 20
2000.0
 30
0.0
 11
1265.66865
 21
2000.717894
 31
0.0
  0
TEXT
  5
655
330
63D
100
AcDbEntity
  8
LC-010-003-----0
 62
     7
370
    25
100
AcDbText
 10
1054.587105
 20
2015.0
 30
0.0
 40
25.0
  1
400
 41
0.7
  7
LCTX0-400-0-0pDIN-Schrift
 72
     1
 11
1079.587105
 21
2015.0
 31
0.0
100
AcDbText
  0
ENDBLK
  5
63F
330
63D
100
AcDbEntity
  8
0
100
AcDbBlockEnd
  0
BLOCK
  5
658
330
657
100
AcDbEntity
  8
0
100
AcDbBlockBegin
  2
LCDIM18
 70
     0
 71
     0
 10
0.0
 20
0.0
 30
0.0
  3
LCDIM18
  1

  4
LCDIM18
  0
LINE
  5
65A
330
657
100
AcDbEntity
  8
LC-008-003-MTH-0
 62
     7
370
    25
100
AcDbLine
 10
873.121597
 20
1901.13
 30
0.0
 11
785.0
 21
1901.13
 31
0.0
  0
LINE
  5
65B
330
657
100
AcDbEntity
  8
LC-008-003-MTH-0
 62
     7
370
    25
100
AcDbLine
 10
890.621597
 20
1937.13
 30
0.0
 11
785.0
 21
1937.13
 31
0.0
  0
LINE
  5
65C
330
657
100
AcDbEntity
  8
LC-010-003-----0
 62
     7
370
    25
100
AcDbLine
 10
803.263155
 20
1876.343878
 30
0.0
 11
800.0
 21
1901.13
 31
0.0
  0
LINE
  5
65D
330
657
100
AcDbEntity
  8
LC-010-003-----0
 62
     7
370
    25
100
AcDbLine
 10
800.0
 20
1901.13
 30
0.0
 11
796.736845
 21
1876.343878
 31
0.0
  0
LINE
  5
65E
330
657
100
AcDbEntity
  8
LC-010-003-----0
 62
     7
370
    25
100
AcDbLine
 10
796.736845
 20
1876.343878
 30
0.0
 11
803.263155
 21
1876.343878
 31
0.0
  0
LINE
  5
65F
330
657
100
AcDbEntity
  8
LC-010-003-----0
 62
     7
370
    25
100
AcDbLine
 10
802.414735
 20
1876.28827
 30
0.0
 11
800.0
 21
1894.63
 31
0.0
  0
LINE
  5
660
330
657
100
AcDbEntity
  8
LC-010-003-----0
 62
     7
370
    25
100
AcDbLine
 10
800.0
 20
1894.63
 30
0.0
 11
797.585265
 21
1876.28827
 31
0.0
  0
LINE
  5
661
330
657
100
AcDbEntity
  8
LC-010-003-----0
 62
     7
370
    25
100
AcDbLine
 10
801.566314
 20
1876.232661
 30
0.0
 11
800.0
 21
1888.13
 31
0.0
  0
LINE
  5
662
330
657
100
AcDbEntity
  8
LC-010-003-----0
 62
     7
370
    25
100
AcDbLine
 10
800.0
 20
1888.13
 30
0.0
 11
798.433686
 21
1876.232661
 31
0.0
  0
LINE
  5
663
330
657
100
AcDbEntity
  8
LC-010-003-----0
 62
     7
370
    25
100
AcDbLine
 10
800.717894
 20
1876.177053
 30
0.0
 11
800.0
 21
1881.63
 31
0.0
  0
LINE
  5
664
330
657
100
AcDbEntity
  8
LC-010-003-----0
 62
     7
370
    25
100
AcDbLine
 10
800.0
 20
1881.63
 30
0.0
 11
799.282106
 21
1876.177053
 31
0.0
  0
LINE
  5
665
330
657
100
AcDbEntity
  8
LC-010-003-----0
 62
     7
370
    25
100
AcDbLine
 10
796.736845
 20
1961.916122
 30
0.0
 11
800.0
 21
1937.13
 31
0.0
  0
LINE
  5
666
330
657
100
AcDbEntity
  8
LC-010-003-----0
 62
     7
370
    25
100
AcDbLine
 10
800.0
 20
1937.13
 30
0.0
 11
803.263155
 21
1961.916122
 31
0.0
  0
LINE
  5
667
330
657
100
AcDbEntity
  8
LC-010-003-----0
 62
     7
370
    25
100
AcDbLine
 10
803.263155
 20
1961.916122
 30
0.0
 11
796.736845
 21
1961.916122
 31
0.0
  0
LINE
  5
668
330
657
100
AcDbEntity
  8
LC-010-003-----0
 62
     7
370
    25
100
AcDbLine
 10
797.585265
 20
1961.97173
 30
0.0
 11
800.0
 21
1943.63
 31
0.0
  0
LINE
  5
669
330
657
100
AcDbEntity
  8
LC-010-003-----0
 62
     7
370
    25
100
AcDbLine
 10
800.0
 20
1943.63
 30
0.0
 11
802.414735
 21
1961.97173
 31
0.0
  0
LINE
  5
66A
330
657
100
AcDbEntity
  8
LC-010-003-----0
 62
     7
370
    25
100
AcDbLine
 10
798.433686
 20
1962.027339
 30
0.0
 11
800.0
 21
1950.13
 31
0.0
  0
LINE
  5
66B
330
657
100
AcDbEntity
  8
LC-010-003-----0
 62
     7
370
    25
100
AcDbLine
 10
800.0
 20
1950.13
 30
0.0
 11
801.566314
 21
1962.027339
 31
0.0
  0
LINE
  5
66C
330
657
100
AcDbEntity
  8
LC-010-003-----0
 62
     7
370
    25
100
AcDbLine
 10
799.282106
 20
1962.082947
 30
0.0
 11
800.0
 21
1956.63
 31
0.0
  0
LINE
  5
66D
330
657
100
AcDbEntity
  8
LC-010-003-----0
 62
     7
370
    25
100
AcDbLine
 10
800.0
 20
1956.63
 30
0.0
 11
800.717894
 21
1962.082947
 31
0.0
  0
LINE
  5
66E
330
657
100
AcDbEntity
  8
LC-009-003-MTG-0
 62
     7
370
    25
100
AcDbLine
 10
800.0
 20
1866.129999
 30
0.0
 11
800.0
 21
2018.314938
 31
0.0
  0
TEXT
  5
66F
330
657
100
AcDbEntity
  8
LC-010-003-----0
 62
     7
370
    25
100
AcDbText
 10
785.0
 20
2002.111122
 30
0.0
 40
25.0
  1
36
 50
90.0
 41
0.7
  7
LCTX0-400-0-0pDIN-Schrift
100
AcDbText
  0
ENDBLK
  5
659
330
657
100
AcDbEntity
  8
0
100
AcDbBlockEnd
  0
BLOCK
  5
673
330
672
100
AcDbEntity
  8
0
100
AcDbBlockBegin
  2
LCDIM19
 70
     0
 71
     0
 10
0.0
 20
0.0
 30
0.0
  3
LCDIM19
  1

  4
LCDIM19
  0
LINE
  5
675
330
672
100
AcDbEntity
  8
LC-008-003-MTH-0
 62
     7
370
    25
100
AcDbLine
 10
1506.24347
 20
1769.63
 30
0.0
 11
1506.24347
 21
1455.181159
 31
0.0
  0
LINE
  5
676
330
672
100
AcDbEntity
  8
LC-008-003-MTH-0
 62
     7
370
    25
100
AcDbLine
 10
1815.605361
 20
1502.13
 30
0.0
 11
1815.605361
 21
1455.181159
 31
0.0
  0
LINE
  5
677
330
672
100
AcDbEntity
  8
LC-009-003-MTG-0
 62
     7
370
    25
100
AcDbLine
 10
1506.24347
 20
1470.181159
 30
0.0
 11
1815.605361
 21
1470.181159
 31
0.0
  0
LINE
  5
678
330
672
100
AcDbEntity
  8
LC-010-003-----0
 62
     7
370
    25
100
AcDbLine
 10
1531.029592
 20
1473.444314
 30
0.0
 11
1506.24347
 21
1470.181159
 31
0.0
  0
LINE
  5
679
330
672
100
AcDbEntity
  8
LC-010-003-----0
 62
     7
370
    25
100
AcDbLine
 10
1506.24347
 20
1470.181159
 30
0.0
 11
1531.029592
 21
1466.918004
 31
0.0
  0
LINE
  5
67A
330
672
100
AcDbEntity
  8
LC-010-003-----0
 62
     7
370
    25
100
AcDbLine
 10
1531.029592
 20
1466.918004
 30
0.0
 11
1531.029592
 21
1473.444314
 31
0.0
  0
LINE
  5
67B
330
672
100
AcDbEntity
  8
LC-010-003-----0
 62
     7
370
    25
100
AcDbLine
 10
1531.0852
 20
1472.595893
 30
0.0
 11
1512.74347
 21
1470.181159
 31
0.0
  0
LINE
  5
67C
330
672
100
AcDbEntity
  8
LC-010-003-----0
 62
     7
370
    25
100
AcDbLine
 10
1512.74347
 20
1470.181159
 30
0.0
 11
1531.0852
 21
1467.766424
 31
0.0
  0
LINE
  5
67D
330
672
100
AcDbEntity
  8
LC-010-003-----0
 62
     7
370
    25
100
AcDbLine
 10
1531.140809
 20
1471.747473
 30
0.0
 11
1519.24347
 21
1470.181159
 31
0.0
  0
LINE
  5
67E
330
672
100
AcDbEntity
  8
LC-010-003-----0
 62
     7
370
    25
100
AcDbLine
 10
1519.24347
 20
1470.181159
 30
0.0
 11
1531.140809
 21
1468.614844
 31
0.0
  0
LINE
  5
67F
330
672
100
AcDbEntity
  8
LC-010-003-----0
 62
     7
370
    25
100
AcDbLine
 10
1531.196417
 20
1470.899053
 30
0.0
 11
1525.74347
 21
1470.181159
 31
0.0
  0
LINE
  5
680
330
672
100
AcDbEntity
  8
LC-010-003-----0
 62
     7
370
    25
100
AcDbLine
 10
1525.74347
 20
1470.181159
 30
0.0
 11
1531.196417
 21
1469.463265
 31
0.0
  0
LINE
  5
681
330
672
100
AcDbEntity
  8
LC-010-003-----0
 62
     7
370
    25
100
AcDbLine
 10
1790.819239
 20
1466.918004
 30
0.0
 11
1815.605361
 21
1470.181159
 31
0.0
  0
LINE
  5
682
330
672
100
AcDbEntity
  8
LC-010-003-----0
 62
     7
370
    25
100
AcDbLine
 10
1815.605361
 20
1470.181159
 30
0.0
 11
1790.819239
 21
1473.444314
 31
0.0
  0
LINE
  5
683
330
672
100
AcDbEntity
  8
LC-010-003-----0
 62
     7
370
    25
100
AcDbLine
 10
1790.819239
 20
1473.444314
 30
0.0
 11
1790.819239
 21
1466.918004
 31
0.0
  0
LINE
  5
684
330
672
100
AcDbEntity
  8
LC-010-003-----0
 62
     7
370
    25
100
AcDbLine
 10
1790.76363
 20
1467.766424
 30
0.0
 11
1809.105361
 21
1470.181159
 31
0.0
  0
LINE
  5
685
330
672
100
AcDbEntity
  8
LC-010-003-----0
 62
     7
370
    25
100
AcDbLine
 10
1809.105361
 20
1470.181159
 30
0.0
 11
1790.76363
 21
1472.595893
 31
0.0
  0
LINE
  5
686
330
672
100
AcDbEntity
  8
LC-010-003-----0
 62
     7
370
    25
100
AcDbLine
 10
1790.708022
 20
1468.614844
 30
0.0
 11
1802.60536
 21
1470.181159
 31
0.0
  0
LINE
  5
687
330
672
100
AcDbEntity
  8
LC-010-003-----0
 62
     7
370
    25
100
AcDbLine
 10
1802.60536
 20
1470.181159
 30
0.0
 11
1790.708022
 21
1471.747473
 31
0.0
  0
LINE
  5
688
330
672
100
AcDbEntity
  8
LC-010-003-----0
 62
     7
370
    25
100
AcDbLine
 10
1790.652414
 20
1469.463265
 30
0.0
 11
1796.10536
 21
1470.181159
 31
0.0
  0
LINE
  5
689
330
672
100
AcDbEntity
  8
LC-010-003-----0
 62
     7
370
    25
100
AcDbLine
 10
1796.10536
 20
1470.181159
 30
0.0
 11
1790.652414
 21
1470.899053
 31
0.0
  0
TEXT
  5
68A
330
672
100
AcDbEntity
  8
LC-010-003-----0
 62
     7
370
    25
100
AcDbText
 10
1616.687256
 20
1485.181159
 30
0.0
 40
25.0
  1
309
 41
0.7
  7
LCTX0-400-0-0pDIN-Schrift
 72
     1
 11
1641.270589
 21
1485.181159
 31
0.0
100
AcDbText
  0
ENDBLK
  5
674
330
672
100
AcDbEntity
  8
0
100
AcDbBlockEnd
  0
ENDSEC
  0
SECTION
  2
ENTITIES
  0
INSERT
  5
104
330
1F
100
AcDbEntity
  8
LC-003-230-ZVN-0
 62
     7
370
    25
100
AcDbBlockReference
  2
SYM1
 10
0.0
 20
0.0
 30
0.0
  0
LINE
  5
107
102
{ACAD_REACTORS
330
68C
102
}
330
1F
100
AcDbEntity
  8
LC-004-006-MLN-0
 62
     7
370
    25
100
AcDbLine
 10
879.621597
 20
1741.63
 30
0.0
 11
879.621597
 21
1697.63
 31
0.0
  0
CIRCLE
  5
108
102
{ACAD_REACTORS
330
68C
102
}
330
1F
100
AcDbEntity
  8
LC-002-002-----0
 62
     7
370
    50
100
AcDbCircle
 10
1030.621597
 20
1719.63
 30
0.0
 40
45.0
  0
CIRCLE
  5
109
102
{ACAD_REACTORS
330
68C
102
}
330
1F
100
AcDbEntity
  8
LC-002-002-----0
 62
     7
370
    50
100
AcDbCircle
 10
1030.621597
 20
1719.63
 30
0.0
 40
57.5
  0
CIRCLE
  5
10A
102
{ACAD_REACTORS
330
68C
102
}
330
1F
100
AcDbEntity
  8
LC-002-002-----0
 62
     7
370
    50
100
AcDbCircle
 10
879.621597
 20
1719.63
 30
0.0
 40
16.0
  0
CIRCLE
  5
10B
102
{ACAD_REACTORS
330
68C
102
}
330
1F
100
AcDbEntity
  8
LC-002-002-----0
 62
     7
370
    25
100
AcDbCircle
 10
879.621597
 20
1719.63
 30
0.0
 40
19.0
  0
LINE
  5
10C
102
{ACAD_REACTORS
330
68C
102
}
330
1F
100
AcDbEntity
  8
LC-002-002-----0
 62
     7
370
    50
100
AcDbLine
 10
450.621597
 20
1502.13
 30
0.0
 11
1270.621597
 21
1502.13
 31
0.0
  0
LINE
  5
10D
102
{ACAD_REACTORS
330
68C
102
}
330
1F
100
AcDbEntity
  8
LC-002-002-----0
 62
     7
370
    50
100
AcDbLine
 10
430.621597
 20
1917.13
 30
0.0
 11
430.621597
 21
1522.13
 31
0.0
  0
LINE
  5
10E
102
{ACAD_REACTORS
330
68C
102
}
330
1F
100
AcDbEntity
  8
LC-002-002-----0
 62
     7
370
    50
100
AcDbLine
 10
1270.621597
 20
1937.13
 30
0.0
 11
450.621597
 21
1937.13
 31
0.0
  0
LINE
  5
10F
102
{ACAD_REACTORS
330
68C
102
}
330
1F
100
AcDbEntity
  8
LC-002-002-----0
 62
     7
370
    50
100
AcDbLine
 10
1290.621597
 20
1522.13
 30
0.0
 11
1290.621597
 21
1917.13
 31
0.0
  0
ARC
  5
110
102
{ACAD_REACTORS
330
68C
102
}
330
1F
100
AcDbEntity
  8
LC-002-002-----0
 62
     7
370
    50
100
AcDbCircle
 10
1270.621597
 20
1522.13
 30
0.0
 40
20.0
100
AcDbArc
 50
270.0
 51
0.0
  0
ARC
  5
111
102
{ACAD_REACTORS
330
68C
102
}
330
1F
100
AcDbEntity
  8
LC-002-002-----0
 62
     7
370
    50
100
AcDbCircle
 10
450.621597
 20
1522.13
 30
0.0
 40
20.0
100
AcDbArc
 50
180.0
 51
270.0
  0
ARC
  5
112
102
{ACAD_REACTORS
330
68C
102
}
330
1F
100
AcDbEntity
  8
LC-002-002-----0
 62
     7
370
    50
100
AcDbCircle
 10
450.621597
 20
1917.13
 30
0.0
 40
20.0
100
AcDbArc
 50
90.0
 51
180.0
  0
ARC
  5
113
102
{ACAD_REACTORS
330
68C
102
}
330
1F
100
AcDbEntity
  8
LC-002-002-----0
 62
     7
370
    50
100
AcDbCircle
 10
1270.621597
 20
1917.13
 30
0.0
 40
20.0
100
AcDbArc
 50
0.0
 51
90.0
  0
LINE
  5
114
102
{ACAD_REACTORS
330
68C
102
}
330
1F
100
AcDbEntity
  8
LC-002-002-----0
 62
     7
370
    25
100
AcDbLine
 10
860.422037
 20
1857.925777
 30
0.0
 11
860.422037
 21
1581.334223
 31
0.0
  0
LINE
  5
115
102
{ACAD_REACTORS
330
68C
102
}
330
1F
100
AcDbEntity
  8
LC-002-002-----0
 62
     7
370
    25
100
AcDbLine
 10
860.422037
 20
1857.925777
 30
0.0
 11
898.821156
 21
1857.925777
 31
0.0
  0
LINE
  5
116
102
{ACAD_REACTORS
330
68C
102
}
330
1F
100
AcDbEntity
  8
LC-002-002-----0
 62
     7
370
    25
100
AcDbLine
 10
860.422037
 20
1581.334223
 30
0.0
 11
898.821156
 21
1581.334223
 31
0.0
  0
LINE
  5
117
102
{ACAD_REACTORS
330
68C
102
}
330
1F
100
AcDbEntity
  8
LC-002-002-----0
 62
     7
370
    25
100
AcDbLine
 10
976.651339
 20
1884.062111
 30
0.0
 11
1204.911306
 21
1884.47122
 31
0.0
  0
LINE
  5
118
102
{ACAD_REACTORS
330
68C
102
}
330
1F
100
AcDbEntity
  8
LC-002-002-----0
 62
     7
370
    25
100
AcDbLine
 10
975.99484
 20
1859.472886
 30
0.0
 11
1206.214151
 21
1859.461982
 31
0.0
  0
LINE
  5
119
102
{ACAD_REACTORS
330
68C
102
}
330
1F
100
AcDbEntity
  8
LC-002-002-----0
 62
     7
370
    25
100
AcDbLine
 10
1237.970452
 20
1851.471273
 30
0.0
 11
1237.970452
 21
1587.788727
 31
0.0
  0
LINE
  5
11A
102
{ACAD_REACTORS
330
68C
102
}
330
1F
100
AcDbEntity
  8
LC-002-002-----0
 62
     7
370
    25
100
AcDbLine
 10
1213.21382
 20
1852.461982
 30
0.0
 11
1213.21382
 21
1586.798018
 31
0.0
  0
LINE
  5
11B
102
{ACAD_REACTORS
330
68C
102
}
330
1F
100
AcDbEntity
  8
LC-002-002-----0
 62
     7
370
    25
100
AcDbLine
 10
943.710485
 20
1851.062164
 30
0.0
 11
943.710485
 21
1588.197836
 31
0.0
  0
LINE
  5
11C
102
{ACAD_REACTORS
330
68C
102
}
330
1F
100
AcDbEntity
  8
LC-002-002-----0
 62
     7
370
    25
100
AcDbLine
 10
968.994509
 20
1852.472886
 30
0.0
 11
968.994509
 21
1586.787114
 31
0.0
  0
LINE
  5
11D
102
{ACAD_REACTORS
330
68C
102
}
330
1F
100
AcDbEntity
  8
LC-002-002-----0
 62
     7
370
    25
100
AcDbLine
 10
975.99484
 20
1579.787114
 30
0.0
 11
1206.214151
 21
1579.798018
 31
0.0
  0
LINE
  5
11E
102
{ACAD_REACTORS
330
68C
102
}
330
1F
100
AcDbEntity
  8
LC-002-002-----0
 62
     7
370
    25
100
AcDbLine
 10
976.651339
 20
1555.197889
 30
0.0
 11
1204.911306
 21
1554.78878
 31
0.0
  0
ARC
  5
120
102
{ACAD_REACTORS
330
68C
102
}
330
1F
100
AcDbEntity
  8
LC-005-002-RND-0
 62
     7
370
    25
100
AcDbCircle
 10
976.710485
 20
1851.062164
 30
0.0
 40
33.00000000000005
100
AcDbArc
 50
90.102691
 51
180.0
  0
LINE
  5
121
330
1F
100
AcDbEntity
  8
LC-004-006-MLN-0
 62
     7
370
    25
100
AcDbLine
 10
890.621597
 20
1880.63
 30
0.0
 11
890.621597
 21
1940.13
 31
0.0
  0
ARC
  5
122
102
{ACAD_REACTORS
330
68C
102
}
330
1F
100
AcDbEntity
  8
LC-005-002-RND-0
 62
     7
370
    25
100
AcDbCircle
 10
975.994509
 20
1852.472886
 30
0.0
 40
6.999999999999966
100
AcDbArc
 50
89.997286
 51
180.0
  0
ARC
  5
123
102
{ACAD_REACTORS
330
68C
102
}
330
1F
100
AcDbEntity
  8
LC-005-002-RND-0
 62
     7
370
    25
100
AcDbCircle
 10
975.994509
 20
1586.787114
 30
0.0
 40
7.0
100
AcDbArc
 50
180.0
 51
270.002714
  0
LINE
  5
124
330
1F
100
AcDbEntity
  8
LC-004-006-MLN-0
 62
     7
370
    25
100
AcDbLine
 10
870.121597
 20
1901.13
 30
0.0
 11
911.121597
 21
1901.13
 31
0.0
  0
ARC
  5
125
102
{ACAD_REACTORS
330
68C
102
}
330
1F
100
AcDbEntity
  8
LC-005-002-RND-0
 62
     7
370
    25
100
AcDbCircle
 10
1206.21382
 20
1586.798018
 30
0.0
 40
6.999999999999967
100
AcDbArc
 50
270.002714
 51
0.0
  0
ARC
  5
126
102
{ACAD_REACTORS
330
68C
102
}
330
1F
100
AcDbEntity
  8
LC-005-002-RND-0
 62
     7
370
    25
100
AcDbCircle
 10
1206.21382
 20
1852.461982
 30
0.0
 40
7.0
100
AcDbArc
 50
0.0
 51
89.997286
  0
ARC
  5
127
102
{ACAD_REACTORS
330
68C
102
}
330
1F
100
AcDbEntity
  8
LC-005-002-RND-0
 62
     7
370
    25
100
AcDbCircle
 10
1204.970452
 20
1851.471273
 30
0.0
 40
33.0
100
AcDbArc
 50
0.0
 51
90.102691
  0
ARC
  5
128
102
{ACAD_REACTORS
330
68C
102
}
330
1F
100
AcDbEntity
  8
LC-005-002-RND-0
 62
     7
370
    25
100
AcDbCircle
 10
1204.970452
 20
1587.788727
 30
0.0
 40
33.00000000000005
100
AcDbArc
 50
269.897309
 51
0.0
  0
ARC
  5
129
102
{ACAD_REACTORS
330
68C
102
}
330
1F
100
AcDbEntity
  8
LC-005-002-RND-0
 62
     7
370
    25
100
AcDbCircle
 10
976.710485
 20
1588.197836
 30
0.0
 40
33.0
100
AcDbArc
 50
180.0
 51
269.897309
  0
LINE
  5
12A
102
{ACAD_REACTORS
330
68D
102
}
330
1F
100
AcDbEntity
  8
LC-002-002-----0
 62
     7
370
    25
100
AcDbLine
 10
1345.741086
 20
2565.02
 30
0.0
 11
1350.188483
 21
2545.905252
 31
0.0
  0
LINE
  5
12B
102
{ACAD_REACTORS
330
68D
102
}
330
1F
100
AcDbEntity
  8
LC-002-002-----0
 62
     7
370
    25
100
AcDbLine
 10
1350.188483
 20
2545.905252
 30
0.0
 11
1345.741086
 21
2527.02
 31
0.0
  0
LINE
  5
12C
102
{ACAD_REACTORS
330
68D
102
}
330
1F
100
AcDbEntity
  8
LC-002-002-----0
 62
     7
370
    50
100
AcDbLine
 10
1280.621597
 20
2565.02
 30
0.0
 11
1280.621597
 21
2527.02
 31
0.0
  0
LINE
  5
12D
102
{ACAD_REACTORS
330
68D
102
}
330
1F
100
AcDbEntity
  8
LC-002-002-----0
 62
     7
370
    50
100
AcDbLine
 10
1280.621597
 20
2565.02
 30
0.0
 11
1345.741086
 21
2565.02
 31
0.0
  0
CIRCLE
  5
12F
330
1F
100
AcDbEntity
  8
LC-004-006-MLN-0
  6
DASHDOT
 62
     7
370
    25
100
AcDbCircle
 10
890.621597
 20
1901.13
 30
0.0
 40
17.5
  0
LINE
  5
130
102
{ACAD_REACTORS
330
68D
102
}
330
1F
100
AcDbEntity
  8
LC-002-002-----0
 62
     7
370
    50
100
AcDbLine
 10
1280.621597
 20
2527.02
 30
0.0
 11
1345.741086
 21
2527.02
 31
0.0
  0
LINE
  5
131
102
{ACAD_REACTORS
330
69B
102
}
330
1F
100
AcDbEntity
  8
LC-002-002-----0
 62
     7
370
    50
100
AcDbLine
 10
922.019981
 20
2572.02
 30
0.0
 11
964.751378
 21
2572.02
 31
0.0
  0
LINE
  5
132
102
{ACAD_REACTORS
330
69B
102
}
330
1F
100
AcDbEntity
  8
LC-002-002-----0
 62
     7
370
    50
100
AcDbLine
 10
964.751378
 20
2572.02
 30
0.0
 11
1030.621597
 21
2572.02
 31
0.0
  0
LINE
  5
133
102
{ACAD_REACTORS
330
68C
102
}
330
1F
100
AcDbEntity
  8
LC-002-002-----0
 62
     7
370
    25
100
AcDbLine
 10
492.621597
 20
1627.63
 30
0.0
 11
532.621597
 21
1627.63
 31
0.0
  0
LINE
  5
134
102
{ACAD_REACTORS
330
68C
102
}
330
1F
100
AcDbEntity
  8
LC-002-002-----0
 62
     7
370
    25
100
AcDbLine
 10
532.621597
 20
1627.63
 30
0.0
 11
851.170103
 21
1627.63
 31
0.0
  0
LINE
  5
135
102
{ACAD_REACTORS
330
68C
102
}
330
1F
100
AcDbEntity
  8
LC-002-002-----0
 62
     7
370
    25
100
AcDbLine
 10
532.621597
 20
1811.63
 30
0.0
 11
851.170103
 21
1811.63
 31
0.0
  0
LINE
  5
136
102
{ACAD_REACTORS
330
68C
102
}
330
1F
100
AcDbEntity
  8
LC-002-002-----0
 62
     7
370
    25
100
AcDbLine
 10
492.621597
 20
1811.63
 30
0.0
 11
532.621597
 21
1811.63
 31
0.0
  0
ARC
  5
137
102
{ACAD_REACTORS
330
68E
102
}
330
1F
100
AcDbEntity
  8
LC-005-002-RND-0
 62
     7
370
    50
100
AcDbCircle
 10
446.496208
 20
1001.342023
 30
0.0
 40
5.0
100
AcDbArc
 50
90.0
 51
180.0
  0
ARC
  5
138
102
{ACAD_REACTORS
330
68E
102
}
330
1F
100
AcDbEntity
  8
LC-005-002-RND-0
 62
     7
370
    50
100
AcDbCircle
 10
446.496208
 20
803.842023
 30
0.0
 40
5.0
100
AcDbArc
 50
180.0
 51
270.0
  0
LINE
  5
139
102
{ACAD_REACTORS
330
68C
102
}
330
1F
100
AcDbEntity
  8
LC-002-002-----0
 62
     7
370
    25
100
AcDbLine
 10
851.170103
 20
1801.63
 30
0.0
 11
532.621597
 21
1801.63
 31
0.0
  0
LINE
  5
13A
102
{ACAD_REACTORS
330
68C
102
}
330
1F
100
AcDbEntity
  8
LC-002-002-----0
 62
     7
370
    25
100
AcDbLine
 10
532.621597
 20
1753.63
 30
0.0
 11
851.170103
 21
1753.63
 31
0.0
  0
LINE
  5
13B
102
{ACAD_REACTORS
330
68C
102
}
330
1F
100
AcDbEntity
  8
LC-002-002-----0
 62
     7
370
    25
100
AcDbLine
 10
492.621597
 20
1753.63
 30
0.0
 11
532.621597
 21
1753.63
 31
0.0
  0
ARC
  5
13C
102
{ACAD_REACTORS
330
68E
102
}
330
1F
100
AcDbEntity
  8
LC-005-002-RND-0
 62
     7
370
    50
100
AcDbCircle
 10
856.496208
 20
1001.342023
 30
0.0
 40
5.0
100
AcDbArc
 50
0.0
 51
90.0
  0
ARC
  5
13D
102
{ACAD_REACTORS
330
68E
102
}
330
1F
100
AcDbEntity
  8
LC-005-002-RND-0
 62
     7
370
    50
100
AcDbCircle
 10
856.496208
 20
803.842023
 30
0.0
 40
5.0
100
AcDbArc
 50
270.0
 51
0.0
  0
LINE
  5
13E
102
{ACAD_REACTORS
330
68C
102
}
330
1F
100
AcDbEntity
  8
LC-002-002-----0
 62
     7
370
    25
100
AcDbLine
 10
532.621597
 20
1743.63
 30
0.0
 11
492.621597
 21
1743.63
 31
0.0
  0
LINE
  5
13F
102
{ACAD_REACTORS
330
68C
102
}
330
1F
100
AcDbEntity
  8
LC-002-002-----0
 62
     7
370
    25
100
AcDbLine
 10
851.170103
 20
1743.63
 30
0.0
 11
532.621597
 21
1743.63
 31
0.0
  0
LINE
  5
140
102
{ACAD_REACTORS
330
68C
102
}
330
1F
100
AcDbEntity
  8
LC-002-002-----0
 62
     7
370
    25
100
AcDbLine
 10
851.170103
 20
1695.63
 30
0.0
 11
532.621597
 21
1695.63
 31
0.0
  0
LINE
  5
141
102
{ACAD_REACTORS
330
68C
102
}
330
1F
100
AcDbEntity
  8
LC-002-002-----0
 62
     7
370
    25
100
AcDbLine
 10
532.621597
 20
1695.63
 30
0.0
 11
492.621597
 21
1695.63
 31
0.0
  0
LINE
  5
142
102
{ACAD_REACTORS
330
691
102
}
330
1F
100
AcDbEntity
  8
LC-002-002-----0
  6
DASHDOT
 62
     7
370
    25
100
AcDbLine
 10
863.996208
 20
775.608642
 30
0.0
 11
863.996208
 21
1034.813956
 31
0.0
  0
LINE
  5
143
102
{ACAD_REACTORS
330
68C
102
}
330
1F
100
AcDbEntity
  8
LC-002-002-----0
 62
     7
370
    25
100
AcDbLine
 10
492.621597
 20
1685.63
 30
0.0
 11
532.621597
 21
1685.63
 31
0.0
  0
LINE
  5
144
102
{ACAD_REACTORS
330
68C
102
}
330
1F
100
AcDbEntity
  8
LC-002-002-----0
 62
     7
370
    25
100
AcDbLine
 10
532.621597
 20
1685.63
 30
0.0
 11
851.170103
 21
1685.63
 31
0.0
  0
LINE
  5
145
102
{ACAD_REACTORS
330
68C
102
}
330
1F
100
AcDbEntity
  8
LC-002-002-----0
 62
     7
370
    25
100
AcDbLine
 10
851.170103
 20
1637.63
 30
0.0
 11
532.621597
 21
1637.63
 31
0.0
  0
LINE
  5
146
102
{ACAD_REACTORS
330
68C
102
}
330
1F
100
AcDbEntity
  8
LC-002-002-----0
 62
     7
370
    25
100
AcDbLine
 10
532.621597
 20
1637.63
 30
0.0
 11
492.621597
 21
1637.63
 31
0.0
  0
ARC
  5
147
102
{ACAD_REACTORS
330
690
102
}
330
1F
100
AcDbEntity
  8
LC-005-002-RND-0
 62
     7
370
    50
100
AcDbCircle
 10
1275.215574
 20
1018.147707
 30
0.0
 40
6.5
100
AcDbArc
 50
90.0
 51
180.0
  0
ARC
  5
148
102
{ACAD_REACTORS
330
690
102
}
330
1F
100
AcDbEntity
  8
LC-005-002-RND-0
 62
     7
370
    50
100
AcDbCircle
 10
1275.215574
 20
820.647707
 30
0.0
 40
6.5
100
AcDbArc
 50
180.0
 51
270.0
  0
ARC
  5
149
102
{ACAD_REACTORS
330
690
102
}
330
1F
100
AcDbEntity
  8
LC-005-002-RND-0
 62
     7
370
    50
100
AcDbCircle
 10
1685.215574
 20
820.647707
 30
0.0
 40
6.5
100
AcDbArc
 50
270.0
 51
0.0
  0
ARC
  5
14A
102
{ACAD_REACTORS
330
690
102
}
330
1F
100
AcDbEntity
  8
LC-005-002-RND-0
 62
     7
370
    50
100
AcDbCircle
 10
1685.215574
 20
1018.147707
 30
0.0
 40
6.5
100
AcDbArc
 50
0.0
 51
90.0
  0
LINE
  5
14B
102
{ACAD_REACTORS
330
68C
102
}
330
1F
100
AcDbEntity
  8
LC-002-002-----0
 62
     7
370
    25
100
AcDbLine
 10
492.621597
 20
1801.63
 30
0.0
 11
532.621597
 21
1801.63
 31
0.0
  0
LINE
  5
14C
102
{ACAD_REACTORS
330
68C
102
}
330
1F
100
AcDbEntity
  8
LC-002-002-----0
 62
     7
370
    50
100
AcDbLine
 10
925.621597
 20
1557.13
 30
0.0
 11
925.621597
 21
1553.13
 31
0.0
  0
LINE
  5
14D
102
{ACAD_REACTORS
330
68C
102
}
330
1F
100
AcDbEntity
  8
LC-002-002-----0
 62
     7
370
    50
100
AcDbLine
 10
482.621597
 20
1575.13
 30
0.0
 11
907.621597
 21
1575.13
 31
0.0
  0
ARC
  5
14E
102
{ACAD_REACTORS
330
68C
102
}
330
1F
100
AcDbEntity
  8
LC-002-002-----0
 62
     7
370
    50
100
AcDbCircle
 10
907.621597
 20
1557.13
 30
0.0
 40
18.00000000000023
100
AcDbArc
 50
0.0
 51
90.0
  0
LINE
  5
14F
102
{ACAD_REACTORS
330
68C
102
}
330
1F
100
AcDbEntity
  8
LC-002-002-----0
 62
     7
370
    50
100
AcDbLine
 10
482.621597
 20
1864.13
 30
0.0
 11
907.621597
 21
1864.13
 31
0.0
  0
LINE
  5
150
102
{ACAD_REACTORS
330
68C
102
}
330
1F
100
AcDbEntity
  8
LC-002-002-----0
 62
     7
370
    50
100
AcDbLine
 10
925.621597
 20
1886.13
 30
0.0
 11
925.621597
 21
1882.13
 31
0.0
  0
ARC
  5
151
102
{ACAD_REACTORS
330
68C
102
}
330
1F
100
AcDbEntity
  8
LC-002-002-----0
 62
     7
370
    50
100
AcDbCircle
 10
907.621597
 20
1882.13
 30
0.0
 40
18.0
100
AcDbArc
 50
270.0
 51
0.0
  0
LINE
  5
152
102
{ACAD_REACTORS
330
68C
102
}
330
1F
100
AcDbEntity
  8
LC-002-002-----0
 62
     7
370
    50
100
AcDbLine
 10
925.621597
 20
1864.13
 30
0.0
 11
925.621597
 21
1575.13
 31
0.0
  0
LINE
  5
153
102
{ACAD_REACTORS
330
68C
102
}
330
1F
100
AcDbEntity
  8
LC-002-002-----0
 62
     7
370
    50
100
AcDbLine
 10
465.621597
 20
1847.13
 30
0.0
 11
465.621597
 21
1592.13
 31
0.0
  0
ARC
  5
154
102
{ACAD_REACTORS
330
68C
102
}
330
1F
100
AcDbEntity
  8
LC-002-002-----0
 62
     7
370
    50
100
AcDbCircle
 10
482.621597
 20
1592.13
 30
0.0
 40
16.99999999999977
100
AcDbArc
 50
180.0
 51
270.0
  0
ARC
  5
155
102
{ACAD_REACTORS
330
68C
102
}
330
1F
100
AcDbEntity
  8
LC-002-002-----0
 62
     7
370
    50
100
AcDbCircle
 10
482.621597
 20
1847.13
 30
0.0
 40
17.0
100
AcDbArc
 50
90.0
 51
180.0
  0
LINE
  5
156
102
{ACAD_REACTORS
330
68C
102
}
330
1F
100
AcDbEntity
  8
LC-002-002-----0
 62
     7
370
    50
100
AcDbLine
 10
941.621597
 20
1537.13
 30
0.0
 11
1239.621597
 21
1537.13
 31
0.0
  0
LINE
  5
157
102
{ACAD_REACTORS
330
68C
102
}
330
1F
100
AcDbEntity
  8
LC-002-002-----0
 62
     7
370
    50
100
AcDbLine
 10
1255.621597
 20
1553.13
 30
0.0
 11
1255.621597
 21
1886.13
 31
0.0
  0
LINE
  5
158
102
{ACAD_REACTORS
330
68C
102
}
330
1F
100
AcDbEntity
  8
LC-002-002-----0
 62
     7
370
    50
100
AcDbLine
 10
1239.621597
 20
1902.13
 30
0.0
 11
941.621597
 21
1902.13
 31
0.0
  0
ARC
  5
159
102
{ACAD_REACTORS
330
68C
102
}
330
1F
100
AcDbEntity
  8
LC-002-002-----0
 62
     7
370
    50
100
AcDbCircle
 10
941.621597
 20
1553.13
 30
0.0
 40
16.0
100
AcDbArc
 50
180.0
 51
270.0
  0
ARC
  5
15A
102
{ACAD_REACTORS
330
68C
102
}
330
1F
100
AcDbEntity
  8
LC-002-002-----0
 62
     7
370
    50
100
AcDbCircle
 10
1239.621597
 20
1553.13
 30
0.0
 40
16.0
100
AcDbArc
 50
270.0
 51
0.0
  0
ARC
  5
15B
102
{ACAD_REACTORS
330
68C
102
}
330
1F
100
AcDbEntity
  8
LC-002-002-----0
 62
     7
370
    50
100
AcDbCircle
 10
1239.621597
 20
1886.13
 30
0.0
 40
15.99999999999955
100
AcDbArc
 50
0.0
 51
90.0
  0
ARC
  5
15C
102
{ACAD_REACTORS
330
68C
102
}
330
1F
100
AcDbEntity
  8
LC-002-002-----0
 62
     7
370
    50
100
AcDbCircle
 10
941.621597
 20
1886.13
 30
0.0
 40
15.99999999999977
100
AcDbArc
 50
90.0
 51
180.0
  0
LINE
  5
15D
102
{ACAD_REACTORS
330
68C
102
}
330
1F
100
AcDbEntity
  8
LC-002-002-----0
 62
     7
370
    50
100
AcDbLine
 10
854.121597
 20
1864.13
 30
0.0
 11
854.121597
 21
1575.13
 31
0.0
  0
LINE
  5
15E
102
{ACAD_REACTORS
330
68C
102
}
330
1F
100
AcDbEntity
  8
LC-002-002-----0
 62
     7
370
    50
100
AcDbLine
 10
905.121597
 20
1864.13
 30
0.0
 11
905.121597
 21
1575.13
 31
0.0
  0
ARC
  5
15F
102
{ACAD_REACTORS
330
69B
102
}
330
1F
100
AcDbEntity
  8
LC-005-002-RND-0
 62
     7
370
    50
100
AcDbCircle
 10
851.673093
 20
2536.690876
 30
0.0
 40
5.000000000000248
100
AcDbArc
 50
41.746838
 51
61.195879
  0
LINE
  5
160
102
{ACAD_REACTORS
330
69B
102
}
330
1F
100
AcDbEntity
  8
LC-002-002-----0
 62
     7
370
    25
100
AcDbLine
 10
860.433816
 20
2551.642163
 30
0.0
 11
899.179939
 21
2551.643021
 31
0.0
  0
ARC
  5
161
102
{ACAD_REACTORS
330
69B
102
}
330
1F
100
AcDbEntity
  8
LC-002-002-----0
 62
     7
370
    25
100
AcDbCircle
 10
899.179829
 20
2556.643021
 30
0.0
 40
4.999999999999919
100
AcDbArc
 50
270.001268
 51
332.464243
  0
ARC
  5
162
102
{ACAD_REACTORS
330
69B
102
}
330
1F
100
AcDbEntity
  8
LC-002-002-----0
 62
     7
370
    25
100
AcDbCircle
 10
860.433705
 20
2556.642163
 30
0.0
 40
4.999999999999975
100
AcDbArc
 50
200.757895
 51
270.001268
  0
ARC
  5
163
102
{ACAD_REACTORS
330
69B
102
}
330
1F
100
AcDbEntity
  8
LC-005-002-RND-0
 62
     7
370
    50
100
AcDbCircle
 10
922.019981
 20
2568.02
 30
0.0
 40
3.999999999999919
100
AcDbArc
 50
6.0
 51
90.0
  0
ARC
  5
164
102
{ACAD_REACTORS
330
69B
102
}
330
1F
100
AcDbEntity
  8
LC-005-002-RND-0
 62
     7
370
    50
100
AcDbCircle
 10
961.33283
 20
2359.620427
 30
0.0
 40
4.999999999999967
100
AcDbArc
 50
25.0
 51
87.305399
  0
ARC
  5
165
102
{ACAD_REACTORS
330
69B
102
}
330
1F
100
AcDbEntity
  8
LC-005-002-RND-0
 62
     7
370
    50
100
AcDbCircle
 10
1099.910151
 20
2359.619971
 30
0.0
 40
5.000000000000235
100
AcDbArc
 50
93.0
 51
155.0
  0
ARC
  5
166
102
{ACAD_REACTORS
330
69B
102
}
330
1F
100
AcDbEntity
  8
LC-005-002-RND-0
 62
     7
370
    50
100
AcDbCircle
 10
1091.710386
 20
2360.965131
 30
0.0
 40
3.0
100
AcDbArc
 50
270.0
 51
335.0
  0
LINE
  5
167
102
{ACAD_REACTORS
330
69B
102
}
330
1F
100
AcDbEntity
  8
LC-002-002-----0
 62
     7
370
    50
100
AcDbLine
 10
1075.621597
 20
2367.846766
 30
0.0
 11
985.621597
 21
2367.846766
 31
0.0
  0
LINE
  5
168
102
{ACAD_REACTORS
330
69B
102
}
330
1F
100
AcDbEntity
  8
LC-002-002-----0
 62
     7
370
    25
100
AcDbLine
 10
973.121597
 20
2372.02
 30
0.0
 11
1088.121597
 21
2372.02
 31
0.0
  0
LINE
  5
169
102
{ACAD_REACTORS
330
69B
102
}
330
1F
100
AcDbEntity
  8
LC-004-006-MLN-0
 62
     7
370
    25
100
AcDbLine
 10
1030.621597
 20
2375.02
 30
0.0
 11
1030.621597
 21
2354.965131
 31
0.0
  0
LINE
  5
16A
102
{ACAD_REACTORS
330
69B
102
}
330
1F
100
AcDbEntity
  8
LC-002-002-----0
 62
     7
370
    50
100
AcDbLine
 10
430.621597
 20
2565.02
 30
0.0
 11
430.850889
 21
2568.299026
 31
0.0
  0
LINE
  5
16B
102
{ACAD_REACTORS
330
69B
102
}
330
1F
100
AcDbEntity
  8
LC-002-002-----0
 62
     7
370
    50
100
AcDbLine
 10
895.380056
 20
2540.02
 30
0.0
 11
863.863137
 21
2540.02
 31
0.0
  0
LINE
  5
16C
102
{ACAD_REACTORS
330
69B
102
}
330
1F
100
AcDbEntity
  8
LC-002-002-----0
 62
     7
370
    50
100
AcDbLine
 10
1290.621597
 20
2565.02
 30
0.0
 11
1290.392305
 21
2568.299026
 31
0.0
  0
LINE
  5
16D
102
{ACAD_REACTORS
330
69B
102
}
330
1F
100
AcDbEntity
  8
LC-002-002-----0
 62
     7
370
    50
100
AcDbLine
 10
434.841145
 20
2572.02
 30
0.0
 11
462.019981
 21
2572.02
 31
0.0
  0
LINE
  5
16E
102
{ACAD_REACTORS
330
69B
102
}
330
1F
100
AcDbEntity
  8
LC-002-002-----0
 62
     7
370
    50
100
AcDbLine
 10
1259.223213
 20
2572.02
 30
0.0
 11
1286.402049
 21
2572.02
 31
0.0
  0
LINE
  5
16F
102
{ACAD_REACTORS
330
69B
102
}
330
1F
100
AcDbEntity
  8
LC-002-002-----0
 62
     7
370
    50
100
AcDbLine
 10
925.998068
 20
2568.438114
 30
0.0
 11
944.174612
 21
2395.49985
 31
0.0
  0
LINE
  5
170
102
{ACAD_REACTORS
330
69B
102
}
330
1F
100
AcDbEntity
  8
LC-002-002-----0
 62
     7
370
    50
100
AcDbLine
 10
1255.245125
 20
2568.438114
 30
0.0
 11
1237.733236
 21
2401.82362
 31
0.0
  0
LINE
  5
171
102
{ACAD_REACTORS
330
69B
102
}
330
1F
100
AcDbEntity
  8
LC-002-002-----0
 62
     7
370
    50
100
AcDbLine
 10
851.170103
 20
2558.097203
 30
0.0
 11
470.437449
 21
2564.742916
 31
0.0
  0
LINE
  5
172
102
{ACAD_REACTORS
330
69B
102
}
330
1F
100
AcDbEntity
  8
LC-002-002-----0
 62
     7
370
    50
100
AcDbLine
 10
1075.621597
 20
2357.965131
 30
0.0
 11
985.621597
 21
2357.965131
 31
0.0
  0
LINE
  5
173
102
{ACAD_REACTORS
330
69B
102
}
330
1F
100
AcDbEntity
  8
LC-002-002-----0
 62
     7
370
    50
100
AcDbLine
 10
1094.429309
 20
2359.697276
 30
0.0
 11
1095.378612
 21
2361.733063
 31
0.0
  0
LINE
  5
174
102
{ACAD_REACTORS
330
69B
102
}
330
1F
100
AcDbEntity
  8
LC-002-002-----0
 62
     7
370
    50
100
AcDbLine
 10
908.047053
 20
2557.02
 30
0.0
 11
922.69614
 21
2557.02
 31
0.0
  0
LINE
  5
176
102
{ACAD_REACTORS
330
69B
102
}
330
1F
100
AcDbEntity
  8
LC-006-100-D00-0
 62
     7
370
    13
100
AcDbLine
 10
910.462866
 20
2545.668848
 30
0.0
 11
910.464552
 21
2545.674795
 31
0.0
  0
LINE
  5
177
102
{ACAD_REACTORS
330
69B
102
}
330
1F
100
AcDbEntity
  8
LC-006-100-D00-0
 62
     7
370
    13
100
AcDbLine
 10
482.90494
 20
2572.02
 30
0.0
 11
482.64041
 21
2572.02
 31
0.0
  0
LINE
  5
178
102
{ACAD_REACTORS
330
69B
102
}
330
1F
100
AcDbEntity
  8
LC-002-002-----0
 62
     7
370
    50
100
AcDbLine
 10
482.64041
 20
2572.02
 30
0.0
 11
480.603748
 21
2572.019999
 31
0.0
  0
LINE
  5
179
102
{ACAD_REACTORS
330
69B
102
}
330
1F
100
AcDbEntity
  8
LC-002-002-----0
 62
     7
370
    50
100
AcDbLine
 10
480.603748
 20
2572.02
 30
0.0
 11
467.05799
 21
2572.02
 31
0.0
  0
LINE
  5
17A
102
{ACAD_REACTORS
330
69B
102
}
330
1F
100
AcDbEntity
  8
LC-002-002-----0
 62
     7
370
    50
100
AcDbLine
 10
467.05799
 20
2572.02
 30
0.0
 11
462.019981
 21
2572.02
 31
0.0
  0
ARC
  5
17B
102
{ACAD_REACTORS
330
69B
102
}
330
1F
100
AcDbEntity
  8
LC-002-002-----0
 62
     7
370
    50
100
AcDbCircle
 10
1211.875667
 20
2404.54136
 30
0.0
 40
25.99999999999995
100
AcDbArc
 50
273.062327
 51
353.938865
  0
ARC
  5
17C
102
{ACAD_REACTORS
330
69B
102
}
330
1F
100
AcDbEntity
  8
LC-002-002-----0
 62
     7
370
    50
100
AcDbCircle
 10
970.032181
 20
2398.21759
 30
0.0
 40
26.00000000000004
100
AcDbArc
 50
186.06323
 51
266.931307
  0
LINE
  5
17D
102
{ACAD_REACTORS
330
69B
102
}
330
1F
100
AcDbEntity
  8
LC-006-100-D00-0
 62
     7
370
    13
100
AcDbLine
 10
482.90494
 20
2572.02
 30
0.0
 11
462.019981
 21
2572.02
 31
0.0
  0
ARC
  5
17E
102
{ACAD_REACTORS
330
69B
102
}
330
1F
100
AcDbEntity
  8
LC-002-002-----0
 62
     7
370
    50
100
AcDbCircle
 10
860.979615
 20
2554.531097
 30
0.0
 40
5.000000036500053
100
AcDbArc
 50
188.210081
 51
266.154888
  0
ARC
  5
17F
102
{ACAD_REACTORS
330
69B
102
}
330
1F
100
AcDbEntity
  8
LC-002-002-----0
 62
     7
370
    50
100
AcDbCircle
 10
898.367939
 20
2554.532917
 30
0.0
 40
5.000000018499971
100
AcDbArc
 50
272.918959
 51
328.036349
  0
ARC
  5
180
102
{ACAD_REACTORS
330
69B
102
}
330
1F
100
AcDbEntity
  8
LC-002-002-----0
 62
     7
370
    50
100
AcDbCircle
 10
898.367939
 20
2554.532917
 30
0.0
 40
5.00000001850033
100
AcDbArc
 50
328.036349
 51
345.421192
  0
ARC
  5
181
102
{ACAD_REACTORS
330
69B
102
}
330
1F
100
AcDbEntity
  8
LC-002-002-----0
 62
     7
370
    50
100
AcDbCircle
 10
860.566865
 20
2548.443867
 30
0.0
 40
1.100001510499688
100
AcDbArc
 50
9.126767
 51
86.257082
  0
ARC
  5
182
102
{ACAD_REACTORS
330
69B
102
}
330
1F
100
AcDbEntity
  8
LC-002-002-----0
 62
     7
370
    50
100
AcDbCircle
 10
898.676002
 20
2548.440699
 30
0.0
 40
1.100000019999612
100
AcDbArc
 50
118.727091
 51
170.805389
  0
ARC
  5
183
102
{ACAD_REACTORS
330
69B
102
}
330
1F
100
AcDbEntity
  8
LC-002-002-----0
 62
     7
370
    50
100
AcDbCircle
 10
898.676002
 20
2548.440699
 30
0.0
 40
1.100000019999777
100
AcDbArc
 50
92.769856
 51
118.727091
  0
ARC
  5
184
102
{ACAD_REACTORS
330
69B
102
}
330
1F
100
AcDbEntity
  8
LC-002-002-----0
 62
     7
370
    50
100
AcDbCircle
 10
470.51773
 20
2569.342216
 30
0.0
 40
4.600000000000047
100
AcDbArc
 50
188.844075
 51
269.0
  0
ARC
  5
185
102
{ACAD_REACTORS
330
69B
102
}
330
1F
100
AcDbEntity
  8
LC-002-002-----0
 62
     7
370
    50
100
AcDbCircle
 10
462.019981
 20
2568.02
 30
0.0
 40
3.999999999999862
100
AcDbArc
 50
8.844075
 51
90.0
  0
ARC
  5
186
102
{ACAD_REACTORS
330
69B
102
}
330
1F
100
AcDbEntity
  8
LC-002-002-----0
 62
     7
370
    50
100
AcDbCircle
 10
434.841145
 20
2568.02
 30
0.0
 40
4.0
100
AcDbArc
 50
90.0
 51
176.0
  0
ARC
  5
187
102
{ACAD_REACTORS
330
69B
102
}
330
1F
100
AcDbEntity
  8
LC-002-002-----0
 62
     7
370
    50
100
AcDbCircle
 10
453.916344
 20
2559.02
 30
0.0
 40
4.999999999999806
100
AcDbArc
 50
31.277825
 51
90.0
  0
ARC
  5
188
102
{ACAD_REACTORS
330
69B
102
}
330
1F
100
AcDbEntity
  8
LC-002-002-----0
 62
     7
370
    50
100
AcDbCircle
 10
466.736242
 20
2566.807826
 30
0.0
 40
9.999999999999808
100
AcDbArc
 50
211.277825
 51
269.0
  0
ARC
  5
189
102
{ACAD_REACTORS
330
69B
102
}
330
1F
100
AcDbEntity
  8
LC-002-002-----0
 62
     7
370
    50
100
AcDbCircle
 10
843.866498
 20
2545.222708
 30
0.0
 40
4.999999999999885
100
AcDbArc
 50
23.720438
 51
89.0
  0
LINE
  5
18A
102
{ACAD_REACTORS
330
69B
102
}
330
1F
100
AcDbEntity
  8
LC-002-002-----0
 62
     7
370
    50
100
AcDbLine
 10
863.863137
 20
2540.02
 30
0.0
 11
863.863137
 21
2546.517017
 31
0.0
  0
ARC
  5
18B
102
{ACAD_REACTORS
330
69B
102
}
330
1F
100
AcDbEntity
  8
LC-002-002-----0
 62
     7
370
    50
100
AcDbCircle
 10
862.368845
 20
2546.386283
 30
0.0
 40
1.500000000000074
100
AcDbArc
 50
28.33333
 51
74.999995
  0
ARC
  5
18C
102
{ACAD_REACTORS
330
69B
102
}
330
1F
100
AcDbEntity
  8
LC-002-002-----0
 62
     7
370
    50
100
AcDbCircle
 10
862.368845
 20
2546.386283
 30
0.0
 40
1.499999999999858
100
AcDbArc
 50
4.999994
 51
28.33333
  0
LINE
  5
18D
102
{ACAD_REACTORS
330
69B
102
}
330
1F
100
AcDbEntity
  8
LC-002-002-----0
 62
     7
370
    50
100
AcDbLine
 10
862.757074
 20
2547.835172
 30
0.0
 11
862.23516
 21
2547.975018
 31
0.0
  0
LINE
  5
18E
102
{ACAD_REACTORS
330
69B
102
}
330
1F
100
AcDbEntity
  8
LC-002-002-----0
 62
     7
370
    50
100
AcDbLine
 10
442.851597
 20
2564.02
 30
0.0
 11
453.916344
 21
2564.02
 31
0.0
  0
LINE
  5
18F
102
{ACAD_REACTORS
330
69B
102
}
330
1F
100
AcDbEntity
  8
LC-002-002-----0
 62
     7
370
    50
100
AcDbLine
 10
1267.326849
 20
2564.02
 30
0.0
 11
1278.391597
 21
2564.02
 31
0.0
  0
ARC
  5
190
102
{ACAD_REACTORS
330
69B
102
}
330
1F
100
AcDbEntity
  8
LC-002-002-----0
 62
     7
370
    50
100
AcDbCircle
 10
851.082841
 20
2553.097964
 30
0.0
 40
4.999999999999763
100
AcDbArc
 50
8.239615
 51
89.0
  0
ARC
  5
191
102
{ACAD_REACTORS
330
69B
102
}
330
1F
100
AcDbEntity
  8
LC-002-002-----0
 62
     7
370
    50
100
AcDbCircle
 10
922.69614
 20
2552.02
 30
0.0
 40
4.999999999999965
100
AcDbArc
 50
6.0
 51
90.0
  0
ARC
  5
192
102
{ACAD_REACTORS
330
69B
102
}
330
1F
100
AcDbEntity
  8
LC-002-002-----0
 62
     7
370
    50
100
AcDbCircle
 10
908.047053
 20
2552.02
 30
0.0
 40
5.0
100
AcDbArc
 50
90.0
 51
165.446029
  0
LINE
  5
193
102
{ACAD_REACTORS
330
69B
102
}
330
1F
100
AcDbEntity
  8
LC-002-002-----0
 62
     7
370
    50
100
AcDbLine
 10
920.465517
 20
2544.542642
 30
0.0
 11
936.932642
 21
2387.868411
 31
0.0
  0
LINE
  5
194
102
{ACAD_REACTORS
330
69B
102
}
330
1F
100
AcDbEntity
  8
LC-002-002-----0
 62
     7
370
    50
100
AcDbLine
 10
1262.35424
 20
2559.542642
 30
0.0
 11
1244.975206
 21
2394.192179
 31
0.0
  0
LINE
  5
195
102
{ACAD_REACTORS
330
69B
102
}
330
1F
100
AcDbEntity
  8
LC-002-002-----0
 62
     7
370
    50
100
AcDbLine
 10
843.95376
 20
2550.221946
 30
0.0
 11
466.561718
 21
2556.809349
 31
0.0
  0
LINE
  5
196
102
{ACAD_REACTORS
330
69B
102
}
330
1F
100
AcDbEntity
  8
LC-002-002-----0
 62
     7
370
    50
100
AcDbLine
 10
914.890124
 20
2549.02
 30
0.0
 11
915.492908
 21
2549.02
 31
0.0
  0
LINE
  5
197
102
{ACAD_REACTORS
330
69B
102
}
330
1F
100
AcDbEntity
  8
LC-002-002-----0
 62
     7
370
    50
100
AcDbLine
 10
895.380056
 20
2540.02
 30
0.0
 11
895.380056
 21
2546.517017
 31
0.0
  0
ARC
  5
198
102
{ACAD_REACTORS
330
69B
102
}
330
1F
100
AcDbEntity
  8
LC-002-002-----0
 62
     7
370
    50
100
AcDbCircle
 10
907.570031
 20
2536.690798
 30
0.0
 40
5.000000000000103
100
AcDbArc
 50
105.192652
 51
138.253162
  0
ARC
  5
199
102
{ACAD_REACTORS
330
69B
102
}
330
1F
100
AcDbEntity
  8
LC-002-002-----0
 62
     7
370
    50
100
AcDbCircle
 10
1219.117636
 20
2396.909917
 30
0.0
 40
26.00000000000037
100
AcDbArc
 50
273.062038
 51
353.938939
  0
ARC
  5
19A
102
{ACAD_REACTORS
330
69B
102
}
330
1F
100
AcDbEntity
  8
LC-002-002-----0
 62
     7
370
    50
100
AcDbCircle
 10
914.890124
 20
2544.42
 30
0.0
 40
4.600000000000364
100
AcDbArc
 50
90.0
 51
164.176698
  0
ARC
  5
19B
102
{ACAD_REACTORS
330
69B
102
}
330
1F
100
AcDbEntity
  8
LC-002-002-----0
 62
     7
370
    50
100
AcDbCircle
 10
915.492908
 20
2544.02
 30
0.0
 40
5.000000000000012
100
AcDbArc
 50
6.0
 51
90.0
  0
LINE
  5
19C
102
{ACAD_REACTORS
330
69B
102
}
330
1F
100
AcDbEntity
  8
LC-002-002-----0
 62
     7
370
    50
100
AcDbLine
 10
966.813884
 20
2359.697276
 30
0.0
 11
965.864369
 21
2361.733518
 31
0.0
  0
ARC
  5
19D
102
{ACAD_REACTORS
330
69B
102
}
330
1F
100
AcDbEntity
  8
LC-002-002-----0
 62
     7
370
    50
100
AcDbCircle
 10
969.532808
 20
2360.965131
 30
0.0
 40
3.000000000000243
100
AcDbArc
 50
205.000024
 51
269.999923
  0
LINE
  5
19E
102
{ACAD_REACTORS
330
69B
102
}
330
1F
100
AcDbEntity
  8
LC-002-002-----0
 62
     7
370
    50
100
AcDbLine
 10
985.621597
 20
2357.965131
 30
0.0
 11
985.621597
 21
2367.846766
 31
0.0
  0
LINE
  5
19F
102
{ACAD_REACTORS
330
69B
102
}
330
1F
100
AcDbEntity
  8
LC-002-002-----0
 62
     7
370
    50
100
AcDbLine
 10
985.621597
 20
2367.846766
 30
0.0
 11
974.052244
 21
2369.886755
 31
0.0
  0
LINE
  5
1A0
102
{ACAD_REACTORS
330
69B
102
}
330
1F
100
AcDbEntity
  8
LC-002-002-----0
 62
     7
370
    50
100
AcDbLine
 10
973.229697
 20
2370.784407
 30
0.0
 11
973.212513
 21
2370.980825
 31
0.0
  0
ARC
  5
1A1
102
{ACAD_REACTORS
330
69B
102
}
330
1F
100
AcDbEntity
  8
LC-002-002-----0
 62
     7
370
    50
100
AcDbCircle
 10
962.790212
 20
2390.586151
 30
0.0
 40
26.00000000000006
100
AcDbArc
 50
186.062999
 51
267.305399
  0
LINE
  5
1A2
102
{ACAD_REACTORS
330
69B
102
}
330
1F
100
AcDbEntity
  8
LC-002-002-----0
 62
     7
370
    50
100
AcDbLine
 10
972.079882
 20
2372.074594
 30
0.0
 11
968.671447
 21
2372.253222
 31
0.0
  0
LINE
  5
1A3
102
{ACAD_REACTORS
330
69B
102
}
330
1F
100
AcDbEntity
  8
LC-002-002-----0
 62
     7
370
    50
100
AcDbLine
 10
1089.163311
 20
2372.074594
 30
0.0
 11
1213.236402
 21
2378.576989
 31
0.0
  0
ARC
  5
1A4
102
{ACAD_REACTORS
330
69B
102
}
330
1F
100
AcDbEntity
  8
LC-002-002-----0
 62
     7
370
    50
100
AcDbCircle
 10
1089.226114
 20
2370.876239
 30
0.0
 40
1.200000000000226
100
AcDbArc
 50
93.000002
 51
174.999996
  0
LINE
  5
1A5
102
{ACAD_REACTORS
330
69B
102
}
330
1F
100
AcDbEntity
  8
LC-002-002-----0
 62
     7
370
    50
100
AcDbLine
 10
1075.621597
 20
2357.965131
 30
0.0
 11
1075.621597
 21
2367.846766
 31
0.0
  0
LINE
  5
1A6
102
{ACAD_REACTORS
330
69B
102
}
330
1F
100
AcDbEntity
  8
LC-002-002-----0
 62
     7
370
    50
100
AcDbLine
 10
1099.648471
 20
2364.613119
 30
0.0
 11
1220.478371
 21
2370.945546
 31
0.0
  0
ARC
  5
1A7
102
{ACAD_REACTORS
330
69B
102
}
330
1F
100
AcDbEntity
  8
LC-002-002-----0
 62
     7
370
    50
100
AcDbCircle
 10
1267.326849
 20
2559.02
 30
0.0
 40
5.0
100
AcDbArc
 50
90.0
 51
174.0
  0
ARC
  5
1A8
102
{ACAD_REACTORS
330
69B
102
}
330
1F
100
AcDbEntity
  8
LC-002-002-----0
 62
     7
370
    50
100
AcDbCircle
 10
1286.402049
 20
2568.02
 30
0.0
 40
3.999999999999987
100
AcDbArc
 50
4.0
 51
90.0
  0
ARC
  5
1A9
102
{ACAD_REACTORS
330
69B
102
}
330
1F
100
AcDbEntity
  8
LC-002-002-----0
 62
     7
370
    50
100
AcDbCircle
 10
1259.223213
 20
2568.02
 30
0.0
 40
4.0
100
AcDbArc
 50
90.0
 51
174.0
  0
LINE
  5
1AA
102
{ACAD_REACTORS
330
69B
102
}
330
1F
100
AcDbEntity
  8
LC-002-002-----0
 62
     7
370
    50
100
AcDbLine
 10
442.851597
 20
2564.02
 30
0.0
 11
442.851597
 21
2565.02
 31
0.0
  0
LINE
  5
1AB
102
{ACAD_REACTORS
330
69B
102
}
330
1F
100
AcDbEntity
  8
LC-002-002-----0
 62
     7
370
    50
100
AcDbLine
 10
1278.391597
 20
2565.02
 30
0.0
 11
1290.621597
 21
2565.02
 31
0.0
  0
LINE
  5
1AC
102
{ACAD_REACTORS
330
69B
102
}
330
1F
100
AcDbEntity
  8
LC-002-002-----0
 62
     7
370
    50
100
AcDbLine
 10
430.621597
 20
2565.02
 30
0.0
 11
442.851597
 21
2565.02
 31
0.0
  0
LINE
  5
1AD
102
{ACAD_REACTORS
330
69B
102
}
330
1F
100
AcDbEntity
  8
LC-002-002-----0
 62
     7
370
    50
100
AcDbLine
 10
1278.391597
 20
2564.02
 30
0.0
 11
1278.391597
 21
2565.02
 31
0.0
  0
LINE
  5
1AE
102
{ACAD_REACTORS
330
69B
102
}
330
1F
100
AcDbEntity
  8
LC-002-002-----0
 62
     7
370
    50
100
AcDbLine
 10
895.380056
 20
2540.02
 30
0.0
 11
903.839561
 21
2540.02
 31
0.0
  0
LINE
  5
1AF
102
{ACAD_REACTORS
330
69B
102
}
330
1F
100
AcDbEntity
  8
LC-002-002-----0
 62
     7
370
    50
100
AcDbLine
 10
855.403633
 20
2540.02
 30
0.0
 11
863.863137
 21
2540.02
 31
0.0
  0
LINE
  5
1B0
102
{ACAD_REACTORS
330
69B
102
}
330
1F
100
AcDbEntity
  8
LC-002-002-----0
 62
     7
370
    50
100
AcDbLine
 10
1075.621597
 20
2357.965131
 30
0.0
 11
1091.710386
 21
2357.965131
 31
0.0
  0
LINE
  5
1B1
102
{ACAD_REACTORS
330
69B
102
}
330
1F
100
AcDbEntity
  8
LC-002-002-----0
 62
     7
370
    50
100
AcDbLine
 10
969.532808
 20
2357.965131
 30
0.0
 11
985.621597
 21
2357.965131
 31
0.0
  0
ARC
  5
1B2
102
{ACAD_REACTORS
330
69B
102
}
330
1F
100
AcDbEntity
  8
LC-002-002-----0
 62
     7
370
    50
100
AcDbCircle
 10
860.345796
 20
2552.463776
 30
0.0
 40
13.00000489200003
100
AcDbArc
 50
203.777973
 51
241.195879
  0
ARC
  5
1B3
102
{ACAD_REACTORS
330
69B
102
}
330
1F
100
AcDbEntity
  8
LC-002-002-----0
 62
     7
370
    50
100
AcDbCircle
 10
904.691358
 20
2547.309046
 30
0.0
 40
6.000038019499857
100
AcDbArc
 50
285.130997
 51
344.117645
  0
ARC
  5
1B4
102
{ACAD_REACTORS
330
69B
102
}
330
1F
100
AcDbEntity
  8
LC-002-002-----0
 62
     7
370
    50
100
AcDbCircle
 10
862.442215
 20
2548.747759
 30
0.0
 40
0.8000000000000406
100
AcDbArc
 50
189.165825
 51
254.999551
  0
ARC
  5
1B5
102
{ACAD_REACTORS
330
69B
102
}
330
1F
100
AcDbEntity
  8
LC-002-002-----0
 62
     7
370
    50
100
AcDbCircle
 10
896.800979
 20
2548.747759
 30
0.0
 40
0.8000000000001449
100
AcDbArc
 50
285.00045
 51
350.693487
  0
LINE
  5
1B6
102
{ACAD_REACTORS
330
69B
102
}
330
1F
100
AcDbEntity
  8
LC-002-002-----0
 62
     7
370
    50
100
AcDbLine
 10
896.48612
 20
2547.835172
 30
0.0
 11
897.008034
 21
2547.975018
 31
0.0
  0
ARC
  5
1B7
102
{ACAD_REACTORS
330
69B
102
}
330
1F
100
AcDbEntity
  8
LC-002-002-----0
 62
     7
370
    50
100
AcDbCircle
 10
896.874348
 20
2546.386283
 30
0.0
 40
1.500000000000259
100
AcDbArc
 50
105.000005
 51
175.000006
  0
ARC
  5
1B8
102
{ACAD_REACTORS
330
69B
102
}
330
1F
100
AcDbEntity
  8
LC-002-002-----0
 62
     7
370
    50
100
AcDbCircle
 10
974.225892
 20
2370.871563
 30
0.0
 40
0.9999999999998958
100
AcDbArc
 50
185.000011
 51
259.999609
  0
ARC
  5
1B9
102
{ACAD_REACTORS
330
69B
102
}
330
1F
100
AcDbEntity
  8
LC-002-002-----0
 62
     7
370
    50
100
AcDbCircle
 10
972.017079
 20
2370.876239
 30
0.0
 40
1.199999999999913
100
AcDbArc
 50
5.000004
 51
86.999998
  0
LINE
  5
1BA
102
{ACAD_REACTORS
330
69B
102
}
330
1F
100
AcDbEntity
  8
LC-002-002-----0
 62
     7
370
    50
100
AcDbLine
 10
1088.013496
 20
2370.784407
 30
0.0
 11
1088.030681
 21
2370.980825
 31
0.0
  0
ARC
  5
1BB
102
{ACAD_REACTORS
330
69B
102
}
330
1F
100
AcDbEntity
  8
LC-002-002-----0
 62
     7
370
    50
100
AcDbCircle
 10
1087.017302
 20
2370.871563
 30
0.0
 40
0.9999999999998798
100
AcDbArc
 50
280.000391
 51
354.999989
  0
LINE
  5
1BC
102
{ACAD_REACTORS
330
69B
102
}
330
1F
100
AcDbEntity
  8
LC-002-002-----0
 62
     7
370
    50
100
AcDbLine
 10
1075.621597
 20
2367.846766
 30
0.0
 11
1087.19095
 21
2369.886755
 31
0.0
  0
INSERT
  5
1C2
102
{ACAD_REACTORS
330
69B
102
}
330
1F
100
AcDbEntity
  8
LC-002-002-----0
 62
     7
370
    50
100
AcDbBlockReference
  2
KLON1
 10
0.0
 20
0.0
 30
0.0
  0
LINE
  5
1C3
102
{ACAD_REACTORS
330
68D
102
}
330
1F
100
AcDbEntity
  8
LC-002-002-----0
 62
     7
370
    25
100
AcDbLine
 10
854.621597
 20
2527.02
 30
0.0
 11
854.621597
 21
2377.02
 31
0.0
  0
LINE
  5
1C4
102
{ACAD_REACTORS
330
68D
102
}
330
1F
100
AcDbEntity
  8
LC-002-002-----0
 62
     7
370
    25
100
AcDbLine
 10
835.621597
 20
2377.02
 30
0.0
 11
835.621597
 21
2527.02
 31
0.0
  0
LINE
  5
1C5
102
{ACAD_REACTORS
330
68D
102
}
330
1F
100
AcDbEntity
  8
LC-002-002-----0
 62
     7
370
    25
100
AcDbLine
 10
835.621597
 20
2527.02
 30
0.0
 11
854.621597
 21
2527.02
 31
0.0
  0
LINE
  5
1C6
102
{ACAD_REACTORS
330
68D
102
}
330
1F
100
AcDbEntity
  8
LC-002-002-----0
 62
     7
370
    25
100
AcDbLine
 10
1285.621597
 20
2527.02
 30
0.0
 11
1266.621597
 21
2527.02
 31
0.0
  0
LINE
  5
1C7
102
{ACAD_REACTORS
330
69B
102
}
330
1F
100
AcDbEntity
  8
LC-002-002-----0
 62
     7
370
    50
100
AcDbLine
 10
482.621597
 20
2572.02
 30
0.0
 11
922.019981
 21
2572.02
 31
0.0
  0
LINE
  5
1C8
102
{ACAD_REACTORS
330
68D
102
}
330
1F
100
AcDbEntity
  8
LC-002-002-----0
 62
     7
370
    25
100
AcDbLine
 10
1285.621597
 20
2377.02
 30
0.0
 11
1285.621597
 21
2527.02
 31
0.0
  0
LINE
  5
1C9
102
{ACAD_REACTORS
330
68D
102
}
330
1F
100
AcDbEntity
  8
LC-002-002-----0
 62
     7
370
    25
100
AcDbLine
 10
1266.621597
 20
2527.02
 30
0.0
 11
1266.621597
 21
2377.02
 31
0.0
  0
INSERT
  5
1D5
102
{ACAD_REACTORS
330
69B
102
}
330
1F
100
AcDbEntity
  8
LC-006-100-D00-0
 62
     7
370
    13
100
AcDbBlockReference
  2
KLON2
 10
0.0
 20
0.0
 30
0.0
  0
LINE
  5
1D6
102
{ACAD_REACTORS
330
68F
102
}
330
1F
100
AcDbEntity
  8
LC-002-002-----0
 62
     7
370
    50
100
AcDbLine
 10
1608.550492
 20
1674.63
 30
0.0
 11
1608.550492
 21
1764.63
 31
0.0
  0
LINE
  5
1D7
102
{ACAD_REACTORS
330
68F
102
}
330
1F
100
AcDbEntity
  8
LC-002-002-----0
 62
     7
370
    50
100
AcDbLine
 10
1618.432127
 20
1764.63
 30
0.0
 11
1618.432127
 21
1674.63
 31
0.0
  0
LINE
  5
1D8
102
{ACAD_REACTORS
330
68F
102
}
330
1F
100
AcDbEntity
  8
LC-004-006-MLN-0
 62
     7
370
    25
100
AcDbLine
 10
1625.605361
 20
1719.63
 30
0.0
 11
1605.550492
 21
1719.63
 31
0.0
  0
LINE
  5
1D9
102
{ACAD_REACTORS
330
68F
102
}
330
1F
100
AcDbEntity
  8
LC-002-002-----0
 62
     7
370
    25
100
AcDbLine
 10
1622.605361
 20
1777.13
 30
0.0
 11
1622.605361
 21
1662.13
 31
0.0
  0
LINE
  5
1DA
102
{ACAD_REACTORS
330
68F
102
}
330
1F
100
AcDbEntity
  8
LC-002-002-----0
 62
     7
370
    50
100
AcDbLine
 10
1822.605361
 20
1905.731616
 30
0.0
 11
1822.605361
 21
1533.528384
 31
0.0
  0
LINE
  5
1DB
102
{ACAD_REACTORS
330
68F
102
}
330
1F
100
AcDbEntity
  8
LC-002-002-----0
 62
     7
370
    50
100
AcDbLine
 10
1819.023475
 20
1901.753529
 30
0.0
 11
1650.169312
 21
1884.006241
 31
0.0
  0
ARC
  5
1DC
102
{ACAD_REACTORS
330
68F
102
}
330
1F
100
AcDbEntity
  8
LC-002-002-----0
 62
     7
370
    50
100
AcDbCircle
 10
1652.887052
 20
1858.148672
 30
0.0
 40
25.99999999999995
100
AcDbArc
 50
96.0
 51
177.0
  0
LINE
  5
1DD
102
{ACAD_REACTORS
330
68F
102
}
330
1F
100
AcDbEntity
  8
LC-002-002-----0
 62
     7
370
    50
100
AcDbLine
 10
1622.659955
 20
1778.171714
 30
0.0
 11
1626.922682
 21
1859.509407
 31
0.0
  0
ARC
  5
1DE
102
{ACAD_REACTORS
330
68F
102
}
330
1F
100
AcDbEntity
  8
LC-002-002-----0
 62
     7
370
    50
100
AcDbCircle
 10
1621.461599
 20
1778.234518
 30
0.0
 40
1.200000000000195
100
AcDbArc
 50
275.0
 51
357.0
  0
LINE
  5
1DF
102
{ACAD_REACTORS
330
68F
102
}
330
1F
100
AcDbEntity
  8
LC-002-002-----0
 62
     7
370
    50
100
AcDbLine
 10
1621.369768
 20
1777.0219
 30
0.0
 11
1621.566186
 21
1777.039084
 31
0.0
  0
ARC
  5
1E0
102
{ACAD_REACTORS
330
68F
102
}
330
1F
100
AcDbEntity
  8
LC-002-002-----0
 62
     7
370
    50
100
AcDbCircle
 10
1621.456923
 20
1776.025705
 30
0.0
 40
0.9999999999998799
100
AcDbArc
 50
95.0
 51
170.0
  0
LINE
  5
1E1
102
{ACAD_REACTORS
330
68F
102
}
330
1F
100
AcDbEntity
  8
LC-002-002-----0
 62
     7
370
    50
100
AcDbLine
 10
1618.432127
 20
1764.63
 30
0.0
 11
1620.472116
 21
1776.199353
 31
0.0
  0
LINE
  5
1E2
102
{ACAD_REACTORS
330
68F
102
}
330
1F
100
AcDbEntity
  8
LC-002-002-----0
 62
     7
370
    50
100
AcDbLine
 10
1608.550492
 20
1764.63
 30
0.0
 11
1618.432127
 21
1764.63
 31
0.0
  0
LINE
  5
1E3
102
{ACAD_REACTORS
330
68F
102
}
330
1F
100
AcDbEntity
  8
LC-002-002-----0
 62
     7
370
    50
100
AcDbLine
 10
1608.550492
 20
1764.63
 30
0.0
 11
1608.550492
 21
1780.718789
 31
0.0
  0
ARC
  5
1E4
102
{ACAD_REACTORS
330
68F
102
}
330
1F
100
AcDbEntity
  8
LC-002-002-----0
 62
     7
370
    50
100
AcDbCircle
 10
1611.550492
 20
1780.718789
 30
0.0
 40
2.999999999999993
100
AcDbArc
 50
115.0
 51
180.0
  0
LINE
  5
1E5
102
{ACAD_REACTORS
330
68F
102
}
330
1F
100
AcDbEntity
  8
LC-002-002-----0
 62
     7
370
    50
100
AcDbLine
 10
1610.282637
 20
1783.437713
 30
0.0
 11
1612.318423
 21
1784.387015
 31
0.0
  0
ARC
  5
1E6
102
{ACAD_REACTORS
330
68F
102
}
330
1F
100
AcDbEntity
  8
LC-002-002-----0
 62
     7
370
    50
100
AcDbCircle
 10
1610.205332
 20
1788.918554
 30
0.0
 40
5.000000000000116
100
AcDbArc
 50
295.0
 51
357.0
  0
LINE
  5
1E7
102
{ACAD_REACTORS
330
68F
102
}
330
1F
100
AcDbEntity
  8
LC-002-002-----0
 62
     7
370
    50
100
AcDbLine
 10
1615.19848
 20
1788.656875
 30
0.0
 11
1619.291239
 21
1866.751376
 31
0.0
  0
ARC
  5
1E8
102
{ACAD_REACTORS
330
68F
102
}
330
1F
100
AcDbEntity
  8
LC-002-002-----0
 62
     7
370
    50
100
AcDbCircle
 10
1645.255607
 20
1865.390641
 30
0.0
 40
25.99999999999995
100
AcDbArc
 50
96.0
 51
177.0
  0
LINE
  5
1E9
102
{ACAD_REACTORS
330
68F
102
}
330
1F
100
AcDbEntity
  8
LC-002-002-----0
 62
     7
370
    50
100
AcDbLine
 10
1810.128003
 20
1908.862643
 30
0.0
 11
1642.537867
 21
1891.24821
 31
0.0
  0
ARC
  5
1EA
102
{ACAD_REACTORS
330
68F
102
}
330
1F
100
AcDbEntity
  8
LC-002-002-----0
 62
     7
370
    50
100
AcDbCircle
 10
1809.605361
 20
1913.835253
 30
0.0
 40
5.000000000000286
100
AcDbArc
 50
276.0
 51
0.0
  0
LINE
  5
1EB
102
{ACAD_REACTORS
330
68F
102
}
330
1F
100
AcDbEntity
  8
LC-002-002-----0
 62
     7
370
    50
100
AcDbLine
 10
1814.605361
 20
1913.835253
 30
0.0
 11
1814.605361
 21
1924.9
 31
0.0
  0
LINE
  5
1EC
102
{ACAD_REACTORS
330
68F
102
}
330
1F
100
AcDbEntity
  8
LC-002-002-----0
 62
     7
370
    50
100
AcDbLine
 10
1814.605361
 20
1924.9
 30
0.0
 11
1815.605361
 21
1924.9
 31
0.0
  0
LINE
  5
1ED
102
{ACAD_REACTORS
330
68F
102
}
330
1F
100
AcDbEntity
  8
LC-002-002-----0
 62
     7
370
    50
100
AcDbLine
 10
1815.605361
 20
1924.9
 30
0.0
 11
1815.605361
 21
1937.13
 31
0.0
  0
LINE
  5
1EE
102
{ACAD_REACTORS
330
68F
102
}
330
1F
100
AcDbEntity
  8
LC-002-002-----0
 62
     7
370
    50
100
AcDbLine
 10
1815.605361
 20
1937.13
 30
0.0
 11
1818.884387
 21
1936.900708
 31
0.0
  0
ARC
  5
1EF
102
{ACAD_REACTORS
330
68F
102
}
330
1F
100
AcDbEntity
  8
LC-002-002-----0
 62
     7
370
    50
100
AcDbCircle
 10
1818.605361
 20
1932.910452
 30
0.0
 40
4.0
100
AcDbArc
 50
0.0
 51
86.0
  0
LINE
  5
1F0
102
{ACAD_REACTORS
330
68F
102
}
330
1F
100
AcDbEntity
  8
LC-002-002-----0
 62
     7
370
    50
100
AcDbLine
 10
1822.605361
 20
1905.731616
 30
0.0
 11
1822.605361
 21
1932.910452
 31
0.0
  0
ARC
  5
1F1
102
{ACAD_REACTORS
330
68F
102
}
330
1F
100
AcDbEntity
  8
LC-002-002-----0
 62
     7
370
    50
100
AcDbCircle
 10
1818.605361
 20
1905.731616
 30
0.0
 40
3.999999999999812
100
AcDbArc
 50
276.0
 51
0.0
  0
LINE
  5
1F2
102
{ACAD_REACTORS
330
68F
102
}
330
1F
100
AcDbEntity
  8
LC-002-002-----0
 62
     7
370
    50
100
AcDbLine
 10
1819.023475
 20
1537.506471
 30
0.0
 11
1650.169318
 21
1555.253758
 31
0.0
  0
ARC
  5
1F3
102
{ACAD_REACTORS
330
68F
102
}
330
1F
100
AcDbEntity
  8
LC-002-002-----0
 62
     7
370
    50
100
AcDbCircle
 10
1818.605361
 20
1533.528384
 30
0.0
 40
4.0
100
AcDbArc
 50
0.0
 51
84.0
  0
LINE
  5
1F4
102
{ACAD_REACTORS
330
68F
102
}
330
1F
100
AcDbEntity
  8
LC-002-002-----0
 62
     7
370
    50
100
AcDbLine
 10
1822.605361
 20
1506.349548
 30
0.0
 11
1822.605361
 21
1533.528384
 31
0.0
  0
ARC
  5
1F5
102
{ACAD_REACTORS
330
68F
102
}
330
1F
100
AcDbEntity
  8
LC-002-002-----0
 62
     7
370
    50
100
AcDbCircle
 10
1818.605361
 20
1506.349548
 30
0.0
 40
4.000000000000019
100
AcDbArc
 50
274.0
 51
0.0
  0
LINE
  5
1F6
102
{ACAD_REACTORS
330
68F
102
}
330
1F
100
AcDbEntity
  8
LC-002-002-----0
 62
     7
370
    50
100
AcDbLine
 10
1815.605361
 20
1502.13
 30
0.0
 11
1818.884387
 21
1502.359292
 31
0.0
  0
LINE
  5
1F7
102
{ACAD_REACTORS
330
68F
102
}
330
1F
100
AcDbEntity
  8
LC-002-002-----0
 62
     7
370
    50
100
AcDbLine
 10
1815.605361
 20
1502.13
 30
0.0
 11
1815.605361
 21
1514.36
 31
0.0
  0
LINE
  5
1F8
102
{ACAD_REACTORS
330
68F
102
}
330
1F
100
AcDbEntity
  8
LC-002-002-----0
 62
     7
370
    50
100
AcDbLine
 10
1814.605361
 20
1514.36
 30
0.0
 11
1815.605361
 21
1514.36
 31
0.0
  0
LINE
  5
1F9
102
{ACAD_REACTORS
330
68F
102
}
330
1F
100
AcDbEntity
  8
LC-002-002-----0
 62
     7
370
    50
100
AcDbLine
 10
1814.605361
 20
1514.36
 30
0.0
 11
1814.605361
 21
1525.424747
 31
0.0
  0
ARC
  5
1FA
102
{ACAD_REACTORS
330
68F
102
}
330
1F
100
AcDbEntity
  8
LC-002-002-----0
 62
     7
370
    50
100
AcDbCircle
 10
1809.605361
 20
1525.424747
 30
0.0
 40
5.0
100
AcDbArc
 50
0.0
 51
84.0
  0
LINE
  5
1FB
102
{ACAD_REACTORS
330
68F
102
}
330
1F
100
AcDbEntity
  8
LC-002-002-----0
 62
     7
370
    50
100
AcDbLine
 10
1810.128003
 20
1530.397357
 30
0.0
 11
1642.53787
 21
1548.01179
 31
0.0
  0
ARC
  5
1FC
102
{ACAD_REACTORS
330
68F
102
}
330
1F
100
AcDbEntity
  8
LC-002-002-----0
 62
     7
370
    50
100
AcDbCircle
 10
1645.25561
 20
1573.869359
 30
0.0
 40
26.0
100
AcDbArc
 50
183.0
 51
264.0
  0
LINE
  5
1FD
102
{ACAD_REACTORS
330
68F
102
}
330
1F
100
AcDbEntity
  8
LC-002-002-----0
 62
     7
370
    50
100
AcDbLine
 10
1615.19848
 20
1650.603125
 30
0.0
 11
1619.291239
 21
1572.508624
 31
0.0
  0
ARC
  5
1FE
102
{ACAD_REACTORS
330
68F
102
}
330
1F
100
AcDbEntity
  8
LC-002-002-----0
 62
     7
370
    50
100
AcDbCircle
 10
1610.205332
 20
1650.341446
 30
0.0
 40
5.000000000000497
100
AcDbArc
 50
3.0
 51
65.0
  0
LINE
  5
1FF
102
{ACAD_REACTORS
330
68F
102
}
330
1F
100
AcDbEntity
  8
LC-002-002-----0
 62
     7
370
    50
100
AcDbLine
 10
1610.282637
 20
1655.822287
 30
0.0
 11
1612.318423
 21
1654.872985
 31
0.0
  0
ARC
  5
200
102
{ACAD_REACTORS
330
68F
102
}
330
1F
100
AcDbEntity
  8
LC-002-002-----0
 62
     7
370
    50
100
AcDbCircle
 10
1611.550492
 20
1658.541211
 30
0.0
 40
3.0
100
AcDbArc
 50
180.0
 51
245.0
  0
LINE
  5
201
102
{ACAD_REACTORS
330
68F
102
}
330
1F
100
AcDbEntity
  8
LC-002-002-----0
 62
     7
370
    50
100
AcDbLine
 10
1608.550492
 20
1658.541211
 30
0.0
 11
1608.550492
 21
1674.63
 31
0.0
  0
LINE
  5
202
102
{ACAD_REACTORS
330
68F
102
}
330
1F
100
AcDbEntity
  8
LC-002-002-----0
 62
     7
370
    50
100
AcDbLine
 10
1608.550492
 20
1674.63
 30
0.0
 11
1618.432127
 21
1674.63
 31
0.0
  0
LINE
  5
203
102
{ACAD_REACTORS
330
68F
102
}
330
1F
100
AcDbEntity
  8
LC-002-002-----0
 62
     7
370
    50
100
AcDbLine
 10
1618.432127
 20
1674.63
 30
0.0
 11
1620.472116
 21
1663.060647
 31
0.0
  0
ARC
  5
204
102
{ACAD_REACTORS
330
68F
102
}
330
1F
100
AcDbEntity
  8
LC-002-002-----0
 62
     7
370
    50
100
AcDbCircle
 10
1621.456923
 20
1663.234295
 30
0.0
 40
1.000000000000125
100
AcDbArc
 50
190.0
 51
265.0
  0
LINE
  5
205
102
{ACAD_REACTORS
330
68F
102
}
330
1F
100
AcDbEntity
  8
LC-002-002-----0
 62
     7
370
    50
100
AcDbLine
 10
1621.369768
 20
1662.2381
 30
0.0
 11
1621.566186
 21
1662.220916
 31
0.0
  0
ARC
  5
206
102
{ACAD_REACTORS
330
68F
102
}
330
1F
100
AcDbEntity
  8
LC-002-002-----0
 62
     7
370
    50
100
AcDbCircle
 10
1621.461599
 20
1661.025482
 30
0.0
 40
1.200000000000149
100
AcDbArc
 50
3.0
 51
85.0
  0
LINE
  5
207
102
{ACAD_REACTORS
330
68F
102
}
330
1F
100
AcDbEntity
  8
LC-002-002-----0
 62
     7
370
    50
100
AcDbLine
 10
1622.659955
 20
1661.088286
 30
0.0
 11
1626.922682
 21
1579.750592
 31
0.0
  0
ARC
  5
208
102
{ACAD_REACTORS
330
68F
102
}
330
1F
100
AcDbEntity
  8
LC-002-002-----0
 62
     7
370
    50
100
AcDbCircle
 10
1652.887058
 20
1581.111328
 30
0.0
 40
25.99999999999968
100
AcDbArc
 50
183.0
 51
264.0
  0
LINE
  5
209
102
{ACAD_REACTORS
330
696
102
}
330
1F
100
AcDbEntity
  8
LC-002-002-----0
 62
     7
370
    50
100
AcDbLine
 10
1790.605361
 20
1703.871541
 30
0.0
 11
1790.605361
 21
1735.388459
 31
0.0
  0
LINE
  5
20A
102
{ACAD_REACTORS
330
696
102
}
330
1F
100
AcDbEntity
  8
LC-004-006-MLN-0
 62
     7
370
    25
100
AcDbLine
 10
1787.605361
 20
1719.63
 30
0.0
 11
1802.727103
 21
1719.63
 31
0.0
  0
LINE
  5
20B
102
{ACAD_REACTORS
330
696
102
}
330
1F
100
AcDbEntity
  8
LC-002-002-----0
 62
     7
370
    25
100
AcDbLine
 10
1800.106554
 20
1737.748354
 30
0.0
 11
1800.106554
 21
1701.511646
 31
0.0
  0
LINE
  5
20C
102
{ACAD_REACTORS
330
696
102
}
330
1F
100
AcDbEntity
  8
LC-002-002-----0
 62
     7
370
    50
100
AcDbLine
 10
1819.023475
 20
1863.753529
 30
0.0
 11
1806.322704
 21
1862.418624
 31
0.0
  0
ARC
  5
20D
102
{ACAD_REACTORS
330
696
102
}
330
1F
100
AcDbEntity
  8
LC-002-002-----0
 62
     7
370
    50
100
AcDbCircle
 10
1818.605361
 20
1867.731616
 30
0.0
 40
4.000000000000038
100
AcDbArc
 50
276.0
 51
0.0
  0
LINE
  5
20E
102
{ACAD_REACTORS
330
696
102
}
330
1F
100
AcDbEntity
  8
LC-002-002-----0
 62
     7
370
    50
100
AcDbLine
 10
1814.605361
 20
1875.835253
 30
0.0
 11
1814.605361
 21
1890.246005
 31
0.0
  0
ARC
  5
20F
102
{ACAD_REACTORS
330
696
102
}
330
1F
100
AcDbEntity
  8
LC-002-002-----0
 62
     7
370
    50
100
AcDbCircle
 10
1809.605361
 20
1875.835253
 30
0.0
 40
5.000000000000036
100
AcDbArc
 50
276.0
 51
0.0
  0
LINE
  5
210
102
{ACAD_REACTORS
330
696
102
}
330
1F
100
AcDbEntity
  8
LC-002-002-----0
 62
     7
370
    50
100
AcDbLine
 10
1810.128003
 20
1870.862643
 30
0.0
 11
1799.679282
 21
1869.764438
 31
0.0
  0
ARC
  5
211
102
{ACAD_REACTORS
330
696
102
}
330
1F
100
AcDbEntity
  8
LC-002-002-----0
 62
     7
370
    50
100
AcDbCircle
 10
1800.306453
 20
1863.797307
 30
0.0
 40
6.000000000000081
100
AcDbArc
 50
96.0
 51
179.0
  0
LINE
  5
212
102
{ACAD_REACTORS
330
696
102
}
330
1F
100
AcDbEntity
  8
LC-002-002-----0
 62
     7
370
    50
100
AcDbLine
 10
1792.275397
 20
1747.491172
 30
0.0
 11
1794.307356
 21
1863.902022
 31
0.0
  0
ARC
  5
213
102
{ACAD_REACTORS
330
696
102
}
330
1F
100
AcDbEntity
  8
LC-002-002-----0
 62
     7
370
    50
100
AcDbCircle
 10
1787.276158
 20
1747.578434
 30
0.0
 40
4.999999999999923
100
AcDbArc
 50
311.746838
 51
359.0
  0
LINE
  5
214
102
{ACAD_REACTORS
330
696
102
}
330
1F
100
AcDbEntity
  8
LC-002-002-----0
 62
     7
370
    50
100
AcDbLine
 10
1790.605361
 20
1743.847964
 30
0.0
 11
1790.605361
 21
1735.388459
 31
0.0
  0
LINE
  5
215
102
{ACAD_REACTORS
330
696
102
}
330
1F
100
AcDbEntity
  8
LC-002-002-----0
 62
     7
370
    50
100
AcDbLine
 10
1790.605361
 20
1735.388459
 30
0.0
 11
1797.102377
 21
1735.388459
 31
0.0
  0
ARC
  5
216
102
{ACAD_REACTORS
330
696
102
}
330
1F
100
AcDbEntity
  8
LC-002-002-----0
 62
     7
370
    50
100
AcDbCircle
 10
1796.971644
 20
1736.882751
 30
0.0
 40
1.500000000000045
100
AcDbArc
 50
274.999994
 51
345.0
  0
LINE
  5
217
102
{ACAD_REACTORS
330
696
102
}
330
1F
100
AcDbEntity
  8
LC-002-002-----0
 62
     7
370
    50
100
AcDbLine
 10
1798.420533
 20
1736.494523
 30
0.0
 11
1798.560379
 21
1737.016437
 31
0.0
  0
ARC
  5
218
102
{ACAD_REACTORS
330
696
102
}
330
1F
100
AcDbEntity
  8
LC-002-002-----0
 62
     7
370
    50
100
AcDbCircle
 10
1799.33312
 20
1736.809382
 30
0.0
 40
0.8000000000000654
100
AcDbArc
 50
99.402595
 51
165.0
  0
ARC
  5
219
102
{ACAD_REACTORS
330
696
102
}
330
1F
100
AcDbEntity
  8
LC-002-002-----0
 62
     7
370
    50
100
AcDbCircle
 10
1799.022715
 20
1738.683855
 30
0.0
 40
1.100000000000179
100
AcDbArc
 50
279.402595
 51
359.0
  0
ARC
  5
21A
102
{ACAD_REACTORS
330
696
102
}
330
1F
100
AcDbEntity
  8
LC-002-002-----0
 62
     7
370
    50
100
AcDbCircle
 10
1806.803535
 20
1857.843823
 30
0.0
 40
4.599999999999877
100
AcDbArc
 50
96.0
 51
179.0
  0
LINE
  5
21B
102
{ACAD_REACTORS
330
696
102
}
330
1F
100
AcDbEntity
  8
LC-002-002-----0
 62
     7
370
    50
100
AcDbLine
 10
1819.023475
 20
1575.506471
 30
0.0
 11
1806.322704
 21
1576.841376
 31
0.0
  0
ARC
  5
21C
102
{ACAD_REACTORS
330
696
102
}
330
1F
100
AcDbEntity
  8
LC-002-002-----0
 62
     7
370
    50
100
AcDbCircle
 10
1806.803535
 20
1581.416177
 30
0.0
 40
4.599999999999886
100
AcDbArc
 50
181.0
 51
264.0
  0
LINE
  5
21D
102
{ACAD_REACTORS
330
696
102
}
330
1F
100
AcDbEntity
  8
LC-002-002-----0
 62
     7
370
    50
100
AcDbLine
 10
1800.122548
 20
1700.595343
 30
0.0
 11
1802.204229
 21
1581.335896
 31
0.0
  0
ARC
  5
21E
102
{ACAD_REACTORS
330
696
102
}
330
1F
100
AcDbEntity
  8
LC-002-002-----0
 62
     7
370
    50
100
AcDbCircle
 10
1799.022715
 20
1700.576145
 30
0.0
 40
1.099999999999836
100
AcDbArc
 50
1.0
 51
80.597405
  0
ARC
  5
21F
102
{ACAD_REACTORS
330
696
102
}
330
1F
100
AcDbEntity
  8
LC-002-002-----0
 62
     7
370
    50
100
AcDbCircle
 10
1799.33312
 20
1702.450618
 30
0.0
 40
0.7999999999998252
100
AcDbArc
 50
195.0
 51
260.597405
  0
LINE
  5
220
102
{ACAD_REACTORS
330
696
102
}
330
1F
100
AcDbEntity
  8
LC-002-002-----0
 62
     7
370
    50
100
AcDbLine
 10
1798.420533
 20
1702.765477
 30
0.0
 11
1798.560379
 21
1702.243563
 31
0.0
  0
ARC
  5
221
102
{ACAD_REACTORS
330
696
102
}
330
1F
100
AcDbEntity
  8
LC-002-002-----0
 62
     7
370
    50
100
AcDbCircle
 10
1796.971644
 20
1702.377249
 30
0.0
 40
1.499999999999562
100
AcDbArc
 50
15.0
 51
85.000006
  0
LINE
  5
222
102
{ACAD_REACTORS
330
696
102
}
330
1F
100
AcDbEntity
  8
LC-002-002-----0
 62
     7
370
    50
100
AcDbLine
 10
1790.605361
 20
1703.871541
 30
0.0
 11
1797.102377
 21
1703.871541
 31
0.0
  0
LINE
  5
223
102
{ACAD_REACTORS
330
696
102
}
330
1F
100
AcDbEntity
  8
LC-002-002-----0
 62
     7
370
    50
100
AcDbLine
 10
1790.605361
 20
1703.871541
 30
0.0
 11
1790.605361
 21
1695.412036
 31
0.0
  0
ARC
  5
224
102
{ACAD_REACTORS
330
696
102
}
330
1F
100
AcDbEntity
  8
LC-002-002-----0
 62
     7
370
    50
100
AcDbCircle
 10
1787.276158
 20
1691.681566
 30
0.0
 40
4.999999999999841
100
AcDbArc
 50
1.0
 51
48.253162
  0
LINE
  5
225
102
{ACAD_REACTORS
330
696
102
}
330
1F
100
AcDbEntity
  8
LC-002-002-----0
 62
     7
370
    50
100
AcDbLine
 10
1792.275397
 20
1691.768828
 30
0.0
 11
1794.307356
 21
1575.357978
 31
0.0
  0
ARC
  5
226
102
{ACAD_REACTORS
330
696
102
}
330
1F
100
AcDbEntity
  8
LC-002-002-----0
 62
     7
370
    50
100
AcDbCircle
 10
1800.306453
 20
1575.462693
 30
0.0
 40
5.999999999999851
100
AcDbArc
 50
181.0
 51
264.0
  0
LINE
  5
227
102
{ACAD_REACTORS
330
696
102
}
330
1F
100
AcDbEntity
  8
LC-002-002-----0
 62
     7
370
    50
100
AcDbLine
 10
1810.128003
 20
1568.397357
 30
0.0
 11
1799.679282
 21
1569.495562
 31
0.0
  0
ARC
  5
228
102
{ACAD_REACTORS
330
696
102
}
330
1F
100
AcDbEntity
  8
LC-002-002-----0
 62
     7
370
    50
100
AcDbCircle
 10
1809.605361
 20
1563.424747
 30
0.0
 40
5.0
100
AcDbArc
 50
0.0
 51
84.0
  0
LINE
  5
229
102
{ACAD_REACTORS
330
696
102
}
330
1F
100
AcDbEntity
  8
LC-002-002-----0
 62
     7
370
    50
100
AcDbLine
 10
1814.605361
 20
1541.853226
 30
0.0
 11
1814.605361
 21
1563.424747
 31
0.0
  0
ARC
  5
22A
102
{ACAD_REACTORS
330
696
102
}
330
1F
100
AcDbEntity
  8
LC-002-002-----0
 62
     7
370
    50
100
AcDbCircle
 10
1818.605361
 20
1571.528384
 30
0.0
 40
4.0
100
AcDbArc
 50
0.0
 51
84.0
  0
LINE
  5
22B
102
{ACAD_REACTORS
330
696
102
}
330
1F
100
AcDbEntity
  8
LC-002-002-----0
 62
     7
370
    50
100
AcDbLine
 10
1800.122548
 20
1738.664657
 30
0.0
 11
1802.204229
 21
1857.924104
 31
0.0
  0
LINE
  5
22C
102
{ACAD_REACTORS
330
68C
102
}
330
1F
100
AcDbEntity
  8
LC-002-002-----0
 62
     7
370
    25
100
AcDbLine
 10
898.821156
 20
1857.925777
 30
0.0
 11
898.821156
 21
1581.334223
 31
0.0
  0
LINE
  5
22D
102
{ACAD_REACTORS
330
68D
102
}
330
1F
100
AcDbEntity
  8
LC-002-002-----0
 62
     7
370
    50
100
AcDbLine
 10
440.621597
 20
2565.02
 30
0.0
 11
375.502107
 21
2565.02
 31
0.0
  0
LINE
  5
22E
102
{ACAD_REACTORS
330
68D
102
}
330
1F
100
AcDbEntity
  8
LC-002-002-----0
 62
     7
370
    25
100
AcDbLine
 10
375.502107
 20
2565.02
 30
0.0
 11
371.05471
 21
2545.905252
 31
0.0
  0
LINE
  5
22F
102
{ACAD_REACTORS
330
68D
102
}
330
1F
100
AcDbEntity
  8
LC-002-002-----0
 62
     7
370
    25
100
AcDbLine
 10
371.05471
 20
2545.905252
 30
0.0
 11
375.502107
 21
2527.02
 31
0.0
  0
LINE
  5
230
102
{ACAD_REACTORS
330
68D
102
}
330
1F
100
AcDbEntity
  8
LC-002-002-----0
 62
     7
370
    50
100
AcDbLine
 10
440.621597
 20
2527.02
 30
0.0
 11
375.502107
 21
2527.02
 31
0.0
  0
LINE
  5
231
102
{ACAD_REACTORS
330
68D
102
}
330
1F
100
AcDbEntity
  8
LC-002-002-----0
 62
     7
370
    50
100
AcDbLine
 10
440.621597
 20
2565.02
 30
0.0
 11
440.621597
 21
2527.02
 31
0.0
  0
INSERT
  5
23E
102
{ACAD_REACTORS
330
68D
102
}
330
1F
100
AcDbEntity
  8
LC-007-005-----0
 62
     7
370
    25
100
AcDbBlockReference
  2
*X14
 10
0.0
 20
0.0
 30
0.0
  0
LINE
  5
23F
102
{ACAD_REACTORS
330
69B
102
}
330
1F
100
AcDbEntity
  8
LC-002-002-----0
 62
     7
370
    50
100
AcDbLine
 10
1030.621597
 20
2572.02
 30
0.0
 11
1259.223213
 21
2572.02
 31
0.0
  0
INSERT
  5
25C
102
{ACAD_REACTORS
330
69B
102
}
330
1F
100
AcDbEntity
  8
LC-010-003-----0
 62
     7
370
    25
100
AcDbBlockReference
  2
LCDIM1
 10
0.0
 20
0.0
 30
0.0
  0
INSERT
  5
276
102
{ACAD_REACTORS
330
69B
102
}
330
1F
100
AcDbEntity
  8
LC-010-003-----0
 62
     7
370
    25
100
AcDbBlockReference
  2
LCDIM2
 10
0.0
 20
0.0
 30
0.0
  0
INSERT
  5
290
102
{ACAD_REACTORS
330
68D
102
}
330
1F
100
AcDbEntity
  8
LC-010-003-----0
 62
     7
370
    25
100
AcDbBlockReference
  2
LCDIM3
 10
0.0
 20
0.0
 30
0.0
  0
INSERT
  5
2AA
102
{ACAD_REACTORS
330
68D
102
}
330
1F
100
AcDbEntity
  8
LC-010-003-----0
 62
     7
370
    25
100
AcDbBlockReference
  2
LCDIM4
 10
0.0
 20
0.0
 30
0.0
  0
ARC
  5
2AB
102
{ACAD_REACTORS
330
698
102
}
330
1F
100
AcDbEntity
  8
LC-002-002-----0
 62
     7
370
    25
100
AcDbCircle
 10
898.007324
 20
2531.521838
 30
0.0
 40
3.0
100
AcDbArc
 50
90.0
 51
179.500301
  0
ARC
  5
2AC
102
{ACAD_REACTORS
330
698
102
}
330
1F
100
AcDbEntity
  8
LC-002-002-----0
 62
     7
370
    25
100
AcDbCircle
 10
861.23587
 20
2531.521838
 30
0.0
 40
2.999999999999853
100
AcDbArc
 50
0.499699
 51
90.0
  0
LINE
  5
2AD
102
{ACAD_REACTORS
330
697
102
}
330
1F
100
AcDbEntity
  8
LC-002-002-----0
 62
     7
370
    25
100
AcDbLine
 10
1054.501391
 20
2245.133449
 30
0.0
 11
1053.021189
 21
2245.903994
 31
0.0
  0
LINE
  5
2AE
102
{ACAD_REACTORS
330
697
102
}
330
1F
100
AcDbEntity
  8
LC-002-002-----0
 62
     7
370
    25
100
AcDbLine
 10
1054.501503
 20
2246.674269
 30
0.0
 11
1053.021084
 21
2247.444927
 31
0.0
  0
LINE
  5
2AF
102
{ACAD_REACTORS
330
697
102
}
330
1F
100
AcDbEntity
  8
LC-002-002-----0
 62
     7
370
    25
100
AcDbLine
 10
1054.501391
 20
2248.215206
 30
0.0
 11
1053.021404
 21
2248.985638
 31
0.0
  0
LINE
  5
2B0
102
{ACAD_REACTORS
330
697
102
}
330
1F
100
AcDbEntity
  8
LC-002-002-----0
 62
     7
370
    25
100
AcDbLine
 10
1054.501391
 20
2249.756084
 30
0.0
 11
1053.021404
 21
2250.526517
 31
0.0
  0
LINE
  5
2B1
102
{ACAD_REACTORS
330
697
102
}
330
1F
100
AcDbEntity
  8
LC-002-002-----0
 62
     7
370
    25
100
AcDbLine
 10
1054.501391
 20
2251.296963
 30
0.0
 11
1053.021404
 21
2252.067395
 31
0.0
  0
LINE
  5
2B2
102
{ACAD_REACTORS
330
697
102
}
330
1F
100
AcDbEntity
  8
LC-002-002-----0
 62
     7
370
    25
100
AcDbLine
 10
1054.501391
 20
2252.837841
 30
0.0
 11
1053.021404
 21
2253.608274
 31
0.0
  0
LINE
  5
2B3
102
{ACAD_REACTORS
330
697
102
}
330
1F
100
AcDbEntity
  8
LC-002-002-----0
 62
     7
370
    25
100
AcDbLine
 10
1054.501391
 20
2254.37872
 30
0.0
 11
1053.021404
 21
2255.149152
 31
0.0
  0
LINE
  5
2B4
102
{ACAD_REACTORS
330
697
102
}
330
1F
100
AcDbEntity
  8
LC-002-002-----0
 62
     7
370
    25
100
AcDbLine
 10
1053.735321
 20
2257.149178
 30
0.0
 11
1050.621572
 21
2260.262927
 31
0.0
  0
LINE
  5
2B5
102
{ACAD_REACTORS
330
697
102
}
330
1F
100
AcDbEntity
  8
LC-002-002-----0
 62
     7
370
    25
100
AcDbLine
 10
1053.021597
 20
2243.362903
 30
0.0
 11
1008.221597
 21
2243.362903
 31
0.0
  0
LINE
  5
2B6
102
{ACAD_REACTORS
330
697
102
}
330
1F
100
AcDbEntity
  8
LC-002-002-----0
 62
     7
370
    25
100
AcDbLine
 10
1010.621597
 20
2260.262903
 30
0.0
 11
1010.621597
 21
2263.971762
 31
0.0
  0
LINE
  5
2B7
102
{ACAD_REACTORS
330
697
102
}
330
1F
100
AcDbEntity
  8
LC-002-002-----0
 62
     7
370
    25
100
AcDbLine
 10
1053.735321
 20
2257.149178
 30
0.0
 11
1053.021597
 21
2257.149178
 31
0.0
  0
LINE
  5
2B8
102
{ACAD_REACTORS
330
697
102
}
330
1F
100
AcDbEntity
  8
LC-002-002-----0
 62
     7
370
    25
100
AcDbLine
 10
1050.621597
 20
2260.262903
 30
0.0
 11
1050.621597
 21
2264.191164
 31
0.0
  0
LINE
  5
2B9
102
{ACAD_REACTORS
330
697
102
}
330
1F
100
AcDbEntity
  8
LC-002-002-----0
 62
     7
370
    25
100
AcDbLine
 10
1053.021597
 20
2243.362903
 30
0.0
 11
1053.021597
 21
2244.362903
 31
0.0
  0
LINE
  5
2BA
102
{ACAD_REACTORS
330
697
102
}
330
1F
100
AcDbEntity
  8
LC-002-002-----0
 62
     7
370
    25
100
AcDbLine
 10
1053.021597
 20
2255.149052
 30
0.0
 11
1053.021597
 21
2257.149052
 31
0.0
  0
LINE
  5
2BB
102
{ACAD_REACTORS
330
697
102
}
330
1F
100
AcDbEntity
  8
LC-002-002-----0
 62
     7
370
    25
100
AcDbLine
 10
1007.507873
 20
2257.149178
 30
0.0
 11
1010.621621
 21
2260.262927
 31
0.0
  0
LINE
  5
2BC
102
{ACAD_REACTORS
330
697
102
}
330
1F
100
AcDbEntity
  8
LC-002-002-----0
 62
     7
370
    25
100
AcDbLine
 10
1053.021509
 20
2253.608128
 30
0.0
 11
1054.501503
 21
2254.378564
 31
0.0
  0
LINE
  5
2BD
102
{ACAD_REACTORS
330
697
102
}
330
1F
100
AcDbEntity
  8
LC-002-002-----0
 62
     7
370
    25
100
AcDbLine
 10
1053.021509
 20
2252.067249
 30
0.0
 11
1054.501503
 21
2252.837685
 31
0.0
  0
LINE
  5
2BE
102
{ACAD_REACTORS
330
697
102
}
330
1F
100
AcDbEntity
  8
LC-002-002-----0
 62
     7
370
    25
100
AcDbLine
 10
1053.021509
 20
2250.526371
 30
0.0
 11
1054.501503
 21
2251.296807
 31
0.0
  0
LINE
  5
2BF
102
{ACAD_REACTORS
330
697
102
}
330
1F
100
AcDbEntity
  8
LC-002-002-----0
 62
     7
370
    25
100
AcDbLine
 10
1053.021509
 20
2248.985492
 30
0.0
 11
1054.501503
 21
2249.755929
 31
0.0
  0
LINE
  5
2C0
102
{ACAD_REACTORS
330
697
102
}
330
1F
100
AcDbEntity
  8
LC-002-002-----0
 62
     7
370
    25
100
AcDbLine
 10
1053.021189
 20
2247.444447
 30
0.0
 11
1054.501503
 21
2248.21505
 31
0.0
  0
LINE
  5
2C1
102
{ACAD_REACTORS
330
697
102
}
330
1F
100
AcDbEntity
  8
LC-002-002-----0
 62
     7
370
    25
100
AcDbLine
 10
1053.021084
 20
2245.903514
 30
0.0
 11
1054.501391
 21
2246.674113
 31
0.0
  0
LINE
  5
2C2
102
{ACAD_REACTORS
330
697
102
}
330
1F
100
AcDbEntity
  8
LC-002-002-----0
 62
     7
370
    25
100
AcDbLine
 10
1053.021189
 20
2244.36269
 30
0.0
 11
1054.501503
 21
2245.133293
 31
0.0
  0
LINE
  5
2C3
102
{ACAD_REACTORS
330
697
102
}
330
1F
100
AcDbEntity
  8
LC-002-002-----0
 62
     7
370
    25
100
AcDbLine
 10
1006.741802
 20
2245.133449
 30
0.0
 11
1008.222005
 21
2245.903994
 31
0.0
  0
LINE
  5
2C4
102
{ACAD_REACTORS
330
697
102
}
330
1F
100
AcDbEntity
  8
LC-002-002-----0
 62
     7
370
    25
100
AcDbLine
 10
1006.74169
 20
2246.674269
 30
0.0
 11
1008.22211
 21
2247.444927
 31
0.0
  0
LINE
  5
2C5
102
{ACAD_REACTORS
330
697
102
}
330
1F
100
AcDbEntity
  8
LC-002-002-----0
 62
     7
370
    25
100
AcDbLine
 10
1006.741802
 20
2248.215206
 30
0.0
 11
1008.22179
 21
2248.985638
 31
0.0
  0
LINE
  5
2C6
102
{ACAD_REACTORS
330
697
102
}
330
1F
100
AcDbEntity
  8
LC-002-002-----0
 62
     7
370
    25
100
AcDbLine
 10
1006.741802
 20
2249.756084
 30
0.0
 11
1008.22179
 21
2250.526517
 31
0.0
  0
LINE
  5
2C7
102
{ACAD_REACTORS
330
697
102
}
330
1F
100
AcDbEntity
  8
LC-002-002-----0
 62
     7
370
    25
100
AcDbLine
 10
1006.741802
 20
2251.296963
 30
0.0
 11
1008.22179
 21
2252.067395
 31
0.0
  0
LINE
  5
2C8
102
{ACAD_REACTORS
330
697
102
}
330
1F
100
AcDbEntity
  8
LC-002-002-----0
 62
     7
370
    25
100
AcDbLine
 10
1006.741802
 20
2252.837841
 30
0.0
 11
1008.22179
 21
2253.608274
 31
0.0
  0
LINE
  5
2C9
102
{ACAD_REACTORS
330
697
102
}
330
1F
100
AcDbEntity
  8
LC-002-002-----0
 62
     7
370
    25
100
AcDbLine
 10
1006.741802
 20
2254.37872
 30
0.0
 11
1008.22179
 21
2255.149152
 31
0.0
  0
LINE
  5
2CA
102
{ACAD_REACTORS
330
697
102
}
330
1F
100
AcDbEntity
  8
LC-002-002-----0
 62
     7
370
    25
100
AcDbLine
 10
1008.221597
 20
2243.362903
 30
0.0
 11
1008.221597
 21
2244.362903
 31
0.0
  0
LINE
  5
2CB
102
{ACAD_REACTORS
330
697
102
}
330
1F
100
AcDbEntity
  8
LC-002-002-----0
 62
     7
370
    25
100
AcDbLine
 10
1008.221597
 20
2255.149052
 30
0.0
 11
1008.221597
 21
2257.149052
 31
0.0
  0
LINE
  5
2CC
102
{ACAD_REACTORS
330
697
102
}
330
1F
100
AcDbEntity
  8
LC-002-002-----0
 62
     7
370
    25
100
AcDbLine
 10
1008.221685
 20
2253.608128
 30
0.0
 11
1006.74169
 21
2254.378564
 31
0.0
  0
LINE
  5
2CD
102
{ACAD_REACTORS
330
697
102
}
330
1F
100
AcDbEntity
  8
LC-002-002-----0
 62
     7
370
    25
100
AcDbLine
 10
1008.221685
 20
2252.067249
 30
0.0
 11
1006.74169
 21
2252.837685
 31
0.0
  0
LINE
  5
2CE
102
{ACAD_REACTORS
330
697
102
}
330
1F
100
AcDbEntity
  8
LC-002-002-----0
 62
     7
370
    25
100
AcDbLine
 10
1008.221685
 20
2250.526371
 30
0.0
 11
1006.74169
 21
2251.296807
 31
0.0
  0
LINE
  5
2CF
102
{ACAD_REACTORS
330
697
102
}
330
1F
100
AcDbEntity
  8
LC-002-002-----0
 62
     7
370
    25
100
AcDbLine
 10
1008.221685
 20
2248.985492
 30
0.0
 11
1006.74169
 21
2249.755929
 31
0.0
  0
LINE
  5
2D0
102
{ACAD_REACTORS
330
697
102
}
330
1F
100
AcDbEntity
  8
LC-002-002-----0
 62
     7
370
    25
100
AcDbLine
 10
1008.222005
 20
2247.444447
 30
0.0
 11
1006.74169
 21
2248.21505
 31
0.0
  0
LINE
  5
2D1
102
{ACAD_REACTORS
330
697
102
}
330
1F
100
AcDbEntity
  8
LC-002-002-----0
 62
     7
370
    25
100
AcDbLine
 10
1008.22211
 20
2245.903514
 30
0.0
 11
1006.741802
 21
2246.674113
 31
0.0
  0
LINE
  5
2D2
102
{ACAD_REACTORS
330
697
102
}
330
1F
100
AcDbEntity
  8
LC-002-002-----0
 62
     7
370
    25
100
AcDbLine
 10
1008.222005
 20
2244.36269
 30
0.0
 11
1006.74169
 21
2245.133293
 31
0.0
  0
LINE
  5
2D3
102
{ACAD_REACTORS
330
697
102
}
330
1F
100
AcDbEntity
  8
LC-002-002-----0
 62
     7
370
    25
100
AcDbLine
 10
1008.221597
 20
2257.149178
 30
0.0
 11
1007.507873
 21
2257.149178
 31
0.0
  0
ARC
  5
2D4
102
{ACAD_REACTORS
330
697
102
}
330
1F
100
AcDbEntity
  8
LC-002-002-----0
 62
     7
370
    25
100
AcDbCircle
 10
1030.621597
 20
2283.362903
 30
0.0
 40
22.0
100
AcDbArc
 50
180.0
 51
0.0
  0
LINE
  5
2D5
102
{ACAD_REACTORS
330
697
102
}
330
1F
100
AcDbEntity
  8
LC-002-002-----0
 62
     7
370
    25
100
AcDbLine
 10
1008.621597
 20
2283.362903
 30
0.0
 11
1008.621597
 21
2297.054087
 31
0.0
  0
LINE
  5
2D6
102
{ACAD_REACTORS
330
697
102
}
330
1F
100
AcDbEntity
  8
LC-002-002-----0
 62
     7
370
    25
100
AcDbLine
 10
1052.621597
 20
2283.362903
 30
0.0
 11
1052.621597
 21
2297.054087
 31
0.0
  0
LINE
  5
2D7
102
{ACAD_REACTORS
330
697
102
}
330
1F
100
AcDbEntity
  8
LC-002-002-----0
 62
     7
370
    25
100
AcDbLine
 10
1068.121597
 20
2315.32245
 30
0.0
 11
1066.119734
 21
2315.32245
 31
0.0
  0
LINE
  5
2D8
102
{ACAD_REACTORS
330
697
102
}
330
1F
100
AcDbEntity
  8
LC-002-002-----0
 62
     7
370
    25
100
AcDbLine
 10
1066.119734
 20
2314.619205
 30
0.0
 11
1066.119734
 21
2315.32245
 31
0.0
  0
LINE
  5
2D9
102
{ACAD_REACTORS
330
697
102
}
330
1F
100
AcDbEntity
  8
LC-002-002-----0
 62
     7
370
    25
100
AcDbLine
 10
1068.121597
 20
2317.82245
 30
0.0
 11
1068.121597
 21
2315.32245
 31
0.0
  0
LINE
  5
2DA
102
{ACAD_REACTORS
330
697
102
}
330
1F
100
AcDbEntity
  8
LC-002-002-----0
 62
     7
370
    25
100
AcDbLine
 10
1058.910536
 20
2304.864069
 30
0.0
 11
1059.388982
 21
2307.482933
 31
0.0
  0
ARC
  5
2DB
102
{ACAD_REACTORS
330
697
102
}
330
1F
100
AcDbEntity
  8
LC-002-002-----0
 62
     7
370
    25
100
AcDbCircle
 10
1052.516372
 20
2306.03226
 30
0.0
 40
6.500000000000005
100
AcDbArc
 50
289.07704
 51
349.645823
  0
ARC
  5
2DC
102
{ACAD_REACTORS
330
697
102
}
330
1F
100
AcDbEntity
  8
LC-002-002-----0
 62
     7
370
    25
100
AcDbCircle
 10
1055.621597
 20
2297.054087
 30
0.0
 40
3.00000000000037
100
AcDbArc
 50
109.055448
 51
180.0
  0
ARC
  5
2DD
102
{ACAD_REACTORS
330
697
102
}
330
1F
100
AcDbEntity
  8
LC-002-002-----0
 62
     7
370
    25
100
AcDbCircle
 10
1064.119734
 20
2314.619205
 30
0.0
 40
1.999999999999766
100
AcDbArc
 50
334.152631
 51
0.0
  0
ARC
  5
2DE
102
{ACAD_REACTORS
330
697
102
}
330
1F
100
AcDbEntity
  8
LC-002-002-----0
 62
     7
370
    25
100
AcDbCircle
 10
1060.519801
 20
2316.362903
 30
0.0
 40
5.999999999999909
100
AcDbArc
 50
286.283517
 51
334.155028
  0
ARC
  5
2DF
102
{ACAD_REACTORS
330
697
102
}
330
1F
100
AcDbEntity
  8
LC-002-002-----0
 62
     7
370
    25
100
AcDbCircle
 10
1063.32386
 20
2306.764087
 30
0.0
 40
4.000000000000306
100
AcDbArc
 50
106.281751
 51
169.647048
  0
LINE
  5
2E0
102
{ACAD_REACTORS
330
697
102
}
330
1F
100
AcDbEntity
  8
LC-002-002-----0
 62
     7
370
    25
100
AcDbLine
 10
1002.332658
 20
2304.864069
 30
0.0
 11
1001.854211
 21
2307.482933
 31
0.0
  0
ARC
  5
2E1
102
{ACAD_REACTORS
330
697
102
}
330
1F
100
AcDbEntity
  8
LC-002-002-----0
 62
     7
370
    25
100
AcDbCircle
 10
1008.726822
 20
2306.03226
 30
0.0
 40
6.499999999999973
100
AcDbArc
 50
190.354177
 51
250.92296
  0
ARC
  5
2E2
102
{ACAD_REACTORS
330
697
102
}
330
1F
100
AcDbEntity
  8
LC-002-002-----0
 62
     7
370
    25
100
AcDbCircle
 10
1005.621597
 20
2297.054087
 30
0.0
 40
2.999999995699227
100
AcDbArc
 50
0.0
 51
70.944552
  0
ARC
  5
2E3
102
{ACAD_REACTORS
330
697
102
}
330
1F
100
AcDbEntity
  8
LC-002-002-----0
 62
     7
370
    25
100
AcDbCircle
 10
1000.723393
 20
2316.362903
 30
0.0
 40
6.000000000000205
100
AcDbArc
 50
205.844972
 51
253.716483
  0
ARC
  5
2E4
102
{ACAD_REACTORS
330
697
102
}
330
1F
100
AcDbEntity
  8
LC-002-002-----0
 62
     7
370
    25
100
AcDbCircle
 10
997.919334
 20
2306.764087
 30
0.0
 40
3.999999999999492
100
AcDbArc
 50
10.352952
 51
73.718249
  0
ARC
  5
2E5
102
{ACAD_REACTORS
330
697
102
}
330
1F
100
AcDbEntity
  8
LC-002-002-----0
 62
     7
370
    25
100
AcDbCircle
 10
1030.621597
 20
2283.362903
 30
0.0
 40
27.70479324129989
100
AcDbArc
 50
145.394244
 51
34.605756
  0
LINE
  5
2E6
102
{ACAD_REACTORS
330
697
102
}
330
1F
100
AcDbEntity
  8
LC-002-002-----0
 62
     7
370
    25
100
AcDbLine
 10
975.621597
 20
2357.965131
 30
0.0
 11
1085.621597
 21
2357.965131
 31
0.0
  0
LINE
  5
2E7
102
{ACAD_REACTORS
330
697
102
}
330
1F
100
AcDbEntity
  8
LC-002-002-----0
 62
     7
370
    25
100
AcDbLine
 10
1085.621597
 20
2353.965131
 30
0.0
 11
1085.621597
 21
2357.965131
 31
0.0
  0
LINE
  5
2E8
102
{ACAD_REACTORS
330
697
102
}
330
1F
100
AcDbEntity
  8
LC-002-002-----0
 62
     7
370
    25
100
AcDbLine
 10
1070.12656
 20
2317.82245
 30
0.0
 11
1068.121597
 21
2317.82245
 31
0.0
  0
LINE
  5
2E9
102
{ACAD_REACTORS
330
697
102
}
330
1F
100
AcDbEntity
  8
LC-002-002-----0
 62
     7
370
    25
100
AcDbLine
 10
975.621597
 20
2350.751963
 30
0.0
 11
975.621597
 21
2353.965131
 31
0.0
  0
LINE
  5
2EA
102
{ACAD_REACTORS
330
697
102
}
330
1F
100
AcDbEntity
  8
LC-002-002-----0
 62
     7
370
    25
100
AcDbLine
 10
1073.370987
 20
2322.152224
 30
0.0
 11
1075.120962
 21
2323.162573
 31
0.0
  0
LINE
  5
2EB
102
{ACAD_REACTORS
330
697
102
}
330
1F
100
AcDbEntity
  8
LC-002-002-----0
 62
     7
370
    25
100
AcDbLine
 10
1078.121597
 20
2328.359092
 30
0.0
 11
1078.121597
 21
2343.82245
 31
0.0
  0
LINE
  5
2EC
102
{ACAD_REACTORS
330
697
102
}
330
1F
100
AcDbEntity
  8
LC-002-002-----0
 62
     7
370
    25
100
AcDbLine
 10
1085.621597
 20
2353.504908
 30
0.0
 11
1085.621597
 21
2353.965131
 31
0.0
  0
ARC
  5
2ED
102
{ACAD_REACTORS
330
697
102
}
330
1F
100
AcDbEntity
  8
LC-002-002-----0
 62
     7
370
    25
100
AcDbCircle
 10
1082.121597
 20
2343.82245
 30
0.0
 40
3.999999999999812
100
AcDbArc
 50
104.492147
 51
180.0
  0
ARC
  5
2EE
102
{ACAD_REACTORS
330
697
102
}
330
1F
100
AcDbEntity
  8
LC-002-002-----0
 62
     7
370
    25
100
AcDbCircle
 10
1079.621597
 20
2353.504908
 30
0.0
 40
5.999999999999658
100
AcDbArc
 50
284.469452
 51
0.0
  0
ARC
  5
2EF
102
{ACAD_REACTORS
330
697
102
}
330
1F
100
AcDbEntity
  8
LC-002-002-----0
 62
     7
370
    25
100
AcDbCircle
 10
1072.121597
 20
2328.359092
 30
0.0
 40
5.999999999999977
100
AcDbArc
 50
299.988476
 51
0.0
  0
ARC
  5
2F0
102
{ACAD_REACTORS
330
697
102
}
330
1F
100
AcDbEntity
  8
LC-002-002-----0
 62
     7
370
    25
100
AcDbCircle
 10
1075.871597
 20
2317.82245
 30
0.0
 40
4.999999999999906
100
AcDbArc
 50
120.016153
 51
172.072225
  0
ARC
  5
2F1
102
{ACAD_REACTORS
330
697
102
}
330
1F
100
AcDbEntity
  8
LC-002-002-----0
 62
     7
370
    25
100
AcDbCircle
 10
1070.127034
 20
2318.62245
 30
0.0
 40
0.7999999999997272
100
AcDbArc
 50
270.0
 51
352.062606
  0
LINE
  5
2F2
102
{ACAD_REACTORS
330
697
102
}
330
1F
100
AcDbEntity
  8
LC-002-002-----0
 62
     7
370
    25
100
AcDbLine
 10
975.621597
 20
2353.965131
 30
0.0
 11
975.621597
 21
2357.965131
 31
0.0
  0
LINE
  5
2F3
102
{ACAD_REACTORS
330
697
102
}
330
1F
100
AcDbEntity
  8
LC-002-002-----0
 62
     7
370
    25
100
AcDbLine
 10
973.371597
 20
2315.715131
 30
0.0
 11
971.371597
 21
2315.715131
 31
0.0
  0
LINE
  5
2F4
102
{ACAD_REACTORS
330
697
102
}
330
1F
100
AcDbEntity
  8
LC-002-002-----0
 62
     7
370
    25
100
AcDbLine
 10
970.621595
 20
2317.757893
 30
0.0
 11
958.882363
 21
2317.757893
 31
0.0
  0
LINE
  5
2F5
102
{ACAD_REACTORS
330
697
102
}
330
1F
100
AcDbEntity
  8
LC-002-002-----0
 62
     7
370
    25
100
AcDbLine
 10
970.621595
 20
2353.672369
 30
0.0
 11
958.882363
 21
2353.672369
 31
0.0
  0
LINE
  5
2F6
102
{ACAD_REACTORS
330
697
102
}
330
1F
100
AcDbEntity
  8
LC-002-002-----0
 62
     7
370
    25
100
AcDbLine
 10
973.371597
 20
2355.715131
 30
0.0
 11
971.371597
 21
2355.715131
 31
0.0
  0
LINE
  5
2F7
102
{ACAD_REACTORS
330
697
102
}
330
1F
100
AcDbEntity
  8
LC-002-002-----0
 62
     7
370
    25
100
AcDbLine
 10
971.3715
 20
2315.715228
 30
0.0
 11
970.621609
 21
2316.465119
 31
0.0
  0
LINE
  5
2F8
102
{ACAD_REACTORS
330
697
102
}
330
1F
100
AcDbEntity
  8
LC-002-002-----0
 62
     7
370
    25
100
AcDbLine
 10
958.871597
 20
2317.965321
 30
0.0
 11
958.871597
 21
2353.464941
 31
0.0
  0
LINE
  5
2F9
102
{ACAD_REACTORS
330
697
102
}
330
1F
100
AcDbEntity
  8
LC-002-002-----0
 62
     7
370
    25
100
AcDbLine
 10
970.621609
 20
2316.465119
 30
0.0
 11
970.621609
 21
2317.757893
 31
0.0
  0
LINE
  5
2FA
102
{ACAD_REACTORS
330
697
102
}
330
1F
100
AcDbEntity
  8
LC-002-002-----0
 62
     7
370
    25
100
AcDbLine
 10
970.6216
 20
2353.672369
 30
0.0
 11
970.621609
 21
2354.965144
 31
0.0
  0
LINE
  5
2FB
102
{ACAD_REACTORS
330
697
102
}
330
1F
100
AcDbEntity
  8
LC-002-002-----0
 62
     7
370
    25
100
AcDbLine
 10
973.371597
 20
2315.715131
 30
0.0
 11
973.371597
 21
2355.715131
 31
0.0
  0
LINE
  5
2FC
102
{ACAD_REACTORS
330
697
102
}
330
1F
100
AcDbEntity
  8
LC-002-002-----0
 62
     7
370
    25
100
AcDbLine
 10
971.3715
 20
2355.715034
 30
0.0
 11
970.621609
 21
2354.965144
 31
0.0
  0
ARC
  5
2FD
102
{ACAD_REACTORS
330
697
102
}
330
1F
100
AcDbEntity
  8
LC-002-002-----0
 62
     7
370
    25
100
AcDbCircle
 10
960.871597
 20
2353.465131
 30
0.0
 40
2.000000000000042
100
AcDbArc
 50
174.05239
 51
180.0
  0
ARC
  5
2FE
102
{ACAD_REACTORS
330
697
102
}
330
1F
100
AcDbEntity
  8
LC-002-002-----0
 62
     7
370
    25
100
AcDbCircle
 10
960.871597
 20
2317.965131
 30
0.0
 40
2.0
100
AcDbArc
 50
180.0
 51
185.94761
  0
LINE
  5
2FF
102
{ACAD_REACTORS
330
697
102
}
330
1F
100
AcDbEntity
  8
LC-002-002-----0
 62
     7
370
    25
100
AcDbLine
 10
973.371597
 20
2350.815131
 30
0.0
 11
975.63901
 21
2350.815131
 31
0.0
  0
LINE
  5
300
102
{ACAD_REACTORS
330
697
102
}
330
1F
100
AcDbEntity
  8
LC-002-002-----0
 62
     7
370
    25
100
AcDbLine
 10
973.371597
 20
2320.615131
 30
0.0
 11
989.518997
 21
2320.615131
 31
0.0
  0
LINE
  5
301
102
{ACAD_REACTORS
330
698
102
}
330
1F
100
AcDbEntity
  8
LC-002-002-----0
 62
     7
370
    25
100
AcDbLine
 10
894.954824
 20
2523.405066
 30
0.0
 11
899.302513
 21
2527.752754
 31
0.0
  0
LINE
  5
302
102
{ACAD_REACTORS
330
69A
102
}
330
1F
100
AcDbEntity
  8
LC-002-002-----0
 62
     7
370
    25
100
AcDbLine
 10
866.424144
 20
2355.687572
 30
0.0
 11
867.121597
 21
2335.715121
 31
0.0
  0
LINE
  5
303
102
{ACAD_REACTORS
330
698
102
}
330
1F
100
AcDbEntity
  8
LC-002-002-----0
 62
     7
370
    25
100
AcDbLine
 10
864.383819
 20
2512.467549
 30
0.0
 11
864.288369
 21
2523.405066
 31
0.0
  0
LINE
  5
304
102
{ACAD_REACTORS
330
698
102
}
330
1F
100
AcDbEntity
  8
LC-002-002-----0
 62
     7
370
    25
100
AcDbLine
 10
864.235756
 20
2531.548002
 30
0.0
 11
864.297605
 21
2524.45656
 31
0.0
  0
LINE
  5
305
102
{ACAD_REACTORS
330
698
102
}
330
1F
100
AcDbEntity
  8
LC-002-002-----0
 62
     7
370
    25
100
AcDbLine
 10
856.871597
 20
2536.521838
 30
0.0
 11
856.871597
 21
2537.52
 31
0.0
  0
LINE
  5
306
102
{ACAD_REACTORS
330
698
102
}
330
1F
100
AcDbEntity
  8
LC-002-002-----0
 62
     7
370
    25
100
AcDbLine
 10
857.121597
 20
2539.52
 30
0.0
 11
857.121597
 21
2537.52
 31
0.0
  0
LINE
  5
307
102
{ACAD_REACTORS
330
69A
102
}
330
1F
100
AcDbEntity
  8
LC-002-002-----0
 62
     7
370
    25
100
AcDbLine
 10
859.621597
 20
2370.715131
 30
0.0
 11
859.621597
 21
2376.715131
 31
0.0
  0
LINE
  5
308
102
{ACAD_REACTORS
330
699
102
}
330
1F
100
AcDbEntity
  8
LC-002-002-----0
 62
     7
370
    25
100
AcDbLine
 10
867.121597
 20
2441.215131
 30
0.0
 11
867.121597
 21
2384.364242
 31
0.0
  0
LINE
  5
309
102
{ACAD_REACTORS
330
698
102
}
330
1F
100
AcDbEntity
  8
LC-002-002-----0
 62
     7
370
    25
100
AcDbLine
 10
868.421597
 20
2441.715131
 30
0.0
 11
868.421597
 21
2503.808509
 31
0.0
  0
LINE
  5
30A
102
{ACAD_REACTORS
330
698
102
}
330
1F
100
AcDbEntity
  8
LC-002-002-----0
 62
     7
370
    25
100
AcDbLine
 10
900.042343
 20
2528.971957
 30
0.0
 11
902.112269
 21
2535.536921
 31
0.0
  0
LINE
  5
30B
102
{ACAD_REACTORS
330
698
102
}
330
1F
100
AcDbEntity
  8
LC-002-002-----0
 62
     7
370
    25
100
AcDbLine
 10
890.821548
 20
2503.808404
 30
0.0
 11
894.859361
 21
2512.467521
 31
0.0
  0
LINE
  5
30C
102
{ACAD_REACTORS
330
698
102
}
330
1F
100
AcDbEntity
  8
LC-002-002-----0
 62
     7
370
    25
100
AcDbLine
 10
890.821597
 20
2441.715131
 30
0.0
 11
890.821597
 21
2503.808509
 31
0.0
  0
LINE
  5
30D
102
{ACAD_REACTORS
330
699
102
}
330
1F
100
AcDbEntity
  8
LC-002-002-----0
 62
     7
370
    25
100
AcDbLine
 10
892.121597
 20
2441.215131
 30
0.0
 11
892.121597
 21
2384.364242
 31
0.0
  0
LINE
  5
30E
102
{ACAD_REACTORS
330
69A
102
}
330
1F
100
AcDbEntity
  8
LC-002-002-----0
 62
     7
370
    25
100
AcDbLine
 10
899.621597
 20
2370.715131
 30
0.0
 11
899.621597
 21
2376.715131
 31
0.0
  0
LINE
  5
30F
102
{ACAD_REACTORS
330
698
102
}
330
1F
100
AcDbEntity
  8
LC-002-002-----0
 62
     7
370
    25
100
AcDbLine
 10
902.121597
 20
2539.52
 30
0.0
 11
902.121597
 21
2537.52
 31
0.0
  0
LINE
  5
310
102
{ACAD_REACTORS
330
698
102
}
330
1F
100
AcDbEntity
  8
LC-002-002-----0
 62
     7
370
    25
100
AcDbLine
 10
902.371597
 20
2536.521838
 30
0.0
 11
902.371597
 21
2537.52
 31
0.0
  0
LINE
  5
311
102
{ACAD_REACTORS
330
698
102
}
330
1F
100
AcDbEntity
  8
LC-002-002-----0
 62
     7
370
    25
100
AcDbLine
 10
895.007438
 20
2531.548002
 30
0.0
 11
894.945589
 21
2524.45656
 31
0.0
  0
LINE
  5
312
102
{ACAD_REACTORS
330
698
102
}
330
1F
100
AcDbEntity
  8
LC-002-002-----0
 62
     7
370
    25
100
AcDbLine
 10
894.859374
 20
2512.467549
 30
0.0
 11
894.954824
 21
2523.405066
 31
0.0
  0
LINE
  5
313
102
{ACAD_REACTORS
330
69A
102
}
330
1F
100
AcDbEntity
  8
LC-002-002-----0
 62
     7
370
    25
100
AcDbLine
 10
892.81905
 20
2355.687572
 30
0.0
 11
892.556339
 21
2348.164527
 31
0.0
  0
LINE
  5
314
102
{ACAD_REACTORS
330
698
102
}
330
1F
100
AcDbEntity
  8
LC-002-002-----0
 62
     7
370
    25
100
AcDbLine
 10
857.130925
 20
2535.536921
 30
0.0
 11
859.20085
 21
2528.971957
 31
0.0
  0
LINE
  5
315
102
{ACAD_REACTORS
330
698
102
}
330
1F
100
AcDbEntity
  8
LC-002-002-----0
 62
     7
370
    25
100
AcDbLine
 10
868.421646
 20
2503.808404
 30
0.0
 11
864.383833
 21
2512.467521
 31
0.0
  0
LINE
  5
316
102
{ACAD_REACTORS
330
69A
102
}
330
1F
100
AcDbEntity
  8
LC-002-002-----0
 62
     7
370
    25
100
AcDbLine
 10
958.871597
 20
2323.215131
 30
0.0
 11
879.621128
 21
2323.215131
 31
0.0
  0
LINE
  5
317
102
{ACAD_REACTORS
330
69A
102
}
330
1F
100
AcDbEntity
  8
LC-002-002-----0
 62
     7
370
    25
100
AcDbLine
 10
958.871597
 20
2348.215131
 30
0.0
 11
892.558106
 21
2348.215131
 31
0.0
  0
LINE
  5
318
102
{ACAD_REACTORS
330
698
102
}
330
1F
100
AcDbEntity
  8
LC-002-002-----0
 62
     7
370
    25
100
AcDbLine
 10
859.940681
 20
2527.752754
 30
0.0
 11
864.288369
 21
2523.405066
 31
0.0
  0
LINE
  5
319
102
{ACAD_REACTORS
330
69A
102
}
330
1F
100
AcDbEntity
  8
LC-002-002-----0
 62
     7
370
    25
100
AcDbLine
 10
859.621597
 20
2376.715131
 30
0.0
 11
899.621597
 21
2376.715131
 31
0.0
  0
LINE
  5
31A
102
{ACAD_REACTORS
330
699
102
}
330
1F
100
AcDbEntity
  8
LC-002-002-----0
 62
     7
370
    25
100
AcDbLine
 10
892.121597
 20
2384.364242
 30
0.0
 11
867.121597
 21
2384.364242
 31
0.0
  0
LINE
  5
31B
102
{ACAD_REACTORS
330
699
102
}
330
1F
100
AcDbEntity
  8
LC-002-002-----0
 62
     7
370
    25
100
AcDbLine
 10
891.621597
 20
2441.715131
 30
0.0
 11
867.621597
 21
2441.715131
 31
0.0
  0
LINE
  5
31C
102
{ACAD_REACTORS
330
698
102
}
330
1F
100
AcDbEntity
  8
LC-002-002-----0
 62
     7
370
    25
100
AcDbLine
 10
868.421597
 20
2503.808509
 30
0.0
 11
890.821597
 21
2503.808509
 31
0.0
  0
LINE
  5
31D
102
{ACAD_REACTORS
330
698
102
}
330
1F
100
AcDbEntity
  8
LC-002-002-----0
 62
     7
370
    25
100
AcDbLine
 10
864.383847
 20
2512.467491
 30
0.0
 11
894.859346
 21
2512.467491
 31
0.0
  0
LINE
  5
31E
102
{ACAD_REACTORS
330
698
102
}
330
1F
100
AcDbEntity
  8
LC-002-002-----0
 62
     7
370
    25
100
AcDbLine
 10
902.371597
 20
2537.52
 30
0.0
 11
902.121597
 21
2537.52
 31
0.0
  0
ARC
  5
31F
102
{ACAD_REACTORS
330
69A
102
}
330
1F
100
AcDbEntity
  8
LC-002-002-----0
 62
     7
370
    25
100
AcDbCircle
 10
879.621597
 20
2370.715131
 30
0.0
 40
20.00000000000009
100
AcDbArc
 50
311.290426
 51
0.0
  0
ARC
  5
320
102
{ACAD_REACTORS
330
69A
102
}
330
1F
100
AcDbEntity
  8
LC-002-002-----0
 62
     7
370
    25
100
AcDbCircle
 10
879.621597
 20
2370.715131
 30
0.0
 40
19.99999999999955
100
AcDbArc
 50
180.0
 51
228.709438
  0
ARC
  5
321
102
{ACAD_REACTORS
330
69A
102
}
330
1F
100
AcDbEntity
  8
LC-002-002-----0
 62
     7
370
    25
100
AcDbCircle
 10
879.621578
 20
2335.71515
 30
0.0
 40
12.49998146379982
100
AcDbArc
 50
180.000085
 51
270.0
  0
ARC
  5
322
102
{ACAD_REACTORS
330
699
102
}
330
1F
100
AcDbEntity
  8
LC-002-002-----0
 62
     7
370
    25
100
AcDbCircle
 10
891.621597
 20
2441.215131
 30
0.0
 40
0.5
100
AcDbArc
 50
0.0
 51
90.0
  0
ARC
  5
323
102
{ACAD_REACTORS
330
699
102
}
330
1F
100
AcDbEntity
  8
LC-002-002-----0
 62
     7
370
    25
100
AcDbCircle
 10
867.621597
 20
2441.215131
 30
0.0
 40
0.5
100
AcDbArc
 50
90.0
 51
180.0
  0
ARC
  5
324
102
{ACAD_REACTORS
330
699
102
}
330
1F
100
AcDbEntity
  8
LC-002-002-----0
 62
     7
370
    25
100
AcDbCircle
 10
893.121597
 20
2384.364242
 30
0.0
 40
1.0
100
AcDbArc
 50
180.0
 51
223.137678
  0
ARC
  5
325
102
{ACAD_REACTORS
330
699
102
}
330
1F
100
AcDbEntity
  8
LC-002-002-----0
 62
     7
370
    25
100
AcDbCircle
 10
866.121597
 20
2384.364242
 30
0.0
 40
0.999999999999745
100
AcDbArc
 50
316.862322
 51
0.0
  0
ARC
  5
326
102
{ACAD_REACTORS
330
699
102
}
330
1F
100
AcDbEntity
  8
LC-002-002-----0
 62
     7
370
    25
100
AcDbCircle
 10
879.621597
 20
2371.715131
 30
0.0
 40
17.50000000000025
100
AcDbArc
 50
136.85835
 51
163.398451
  0
ARC
  5
327
102
{ACAD_REACTORS
330
699
102
}
330
1F
100
AcDbEntity
  8
LC-002-002-----0
 62
     7
370
    25
100
AcDbCircle
 10
879.621597
 20
2371.715131
 30
0.0
 40
17.50000000000008
100
AcDbArc
 50
16.601548
 51
43.141806
  0
ARC
  5
328
102
{ACAD_REACTORS
330
698
102
}
330
1F
100
AcDbEntity
  8
LC-002-002-----0
 62
     7
370
    25
100
AcDbCircle
 10
862.062001
 20
2529.874075
 30
0.0
 40
3.00000000000018
100
AcDbArc
 50
197.500173
 51
224.999934
  0
ARC
  5
329
102
{ACAD_REACTORS
330
698
102
}
330
1F
100
AcDbEntity
  8
LC-002-002-----0
 62
     7
370
    25
100
AcDbCircle
 10
900.371597
 20
2536.521838
 30
0.0
 40
2.000000000000057
100
AcDbArc
 50
330.492633
 51
0.0
  0
ARC
  5
32A
102
{ACAD_REACTORS
330
698
102
}
330
1F
100
AcDbEntity
  8
LC-002-002-----0
 62
     7
370
    25
100
AcDbCircle
 10
858.871597
 20
2536.521838
 30
0.0
 40
2.0
100
AcDbArc
 50
180.0
 51
209.507367
  0
ARC
  5
32B
102
{ACAD_REACTORS
330
698
102
}
330
1F
100
AcDbEntity
  8
LC-002-002-----0
 62
     7
370
    25
100
AcDbCircle
 10
897.181193
 20
2529.874075
 30
0.0
 40
3.000000000000243
100
AcDbArc
 50
315.000066
 51
342.499827
  0
INSERT
  5
355
102
{ACAD_REACTORS
330
69A
102
}
330
1F
100
AcDbEntity
  8
LC-002-002-----0
 62
     7
370
    25
100
AcDbBlockReference
  2
POLY1
 10
0.0
 20
0.0
 30
0.0
  0
INSERT
  5
377
102
{ACAD_REACTORS
330
698
102
}
330
1F
100
AcDbEntity
  8
LC-002-002-----0
 62
     7
370
    25
100
AcDbBlockReference
  2
POLY2
 10
0.0
 20
0.0
 30
0.0
  0
LINE
  5
378
102
{ACAD_REACTORS
330
698
102
}
330
1F
100
AcDbEntity
  8
LC-002-002-----0
 62
     7
370
    25
100
AcDbLine
 10
900.358038
 20
2534.521838
 30
0.0
 11
898.007324
 21
2534.521838
 31
0.0
  0
LINE
  5
379
102
{ACAD_REACTORS
330
698
102
}
330
1F
100
AcDbEntity
  8
LC-002-002-----0
 62
     7
370
    25
100
AcDbLine
 10
857.131012
 20
2535.536767
 30
0.0
 11
857.131012
 21
2535.536767
 31
0.0
  0
LINE
  5
37A
102
{ACAD_REACTORS
330
698
102
}
330
1F
100
AcDbEntity
  8
LC-002-002-----0
 62
     7
370
    25
100
AcDbLine
 10
857.131012
 20
2535.536767
 30
0.0
 11
857.14641
 21
2535.510432
 31
0.0
  0
LINE
  5
37B
102
{ACAD_REACTORS
330
698
102
}
330
1F
100
AcDbEntity
  8
LC-002-002-----0
 62
     7
370
    25
100
AcDbLine
 10
857.14641
 20
2535.510432
 30
0.0
 11
857.14641
 21
2535.510432
 31
0.0
  0
LINE
  5
37C
102
{ACAD_REACTORS
330
698
102
}
330
1F
100
AcDbEntity
  8
LC-002-002-----0
 62
     7
370
    25
100
AcDbLine
 10
857.14641
 20
2535.510432
 30
0.0
 11
857.186826
 21
2535.445435
 31
0.0
  0
LINE
  5
37D
102
{ACAD_REACTORS
330
698
102
}
330
1F
100
AcDbEntity
  8
LC-002-002-----0
 62
     7
370
    25
100
AcDbLine
 10
857.186826
 20
2535.445435
 30
0.0
 11
857.186826
 21
2535.445435
 31
0.0
  0
LINE
  5
37E
102
{ACAD_REACTORS
330
698
102
}
330
1F
100
AcDbEntity
  8
LC-002-002-----0
 62
     7
370
    25
100
AcDbLine
 10
857.186826
 20
2535.445435
 30
0.0
 11
857.241526
 21
2535.365514
 31
0.0
  0
LINE
  5
37F
102
{ACAD_REACTORS
330
698
102
}
330
1F
100
AcDbEntity
  8
LC-002-002-----0
 62
     7
370
    25
100
AcDbLine
 10
857.241526
 20
2535.365514
 30
0.0
 11
857.241526
 21
2535.365514
 31
0.0
  0
LINE
  5
380
102
{ACAD_REACTORS
330
698
102
}
330
1F
100
AcDbEntity
  8
LC-002-002-----0
 62
     7
370
    25
100
AcDbLine
 10
857.241526
 20
2535.365514
 30
0.0
 11
857.310444
 21
2535.27542
 31
0.0
  0
LINE
  5
381
102
{ACAD_REACTORS
330
698
102
}
330
1F
100
AcDbEntity
  8
LC-002-002-----0
 62
     7
370
    25
100
AcDbLine
 10
857.310444
 20
2535.27542
 30
0.0
 11
857.310444
 21
2535.27542
 31
0.0
  0
LINE
  5
382
102
{ACAD_REACTORS
330
698
102
}
330
1F
100
AcDbEntity
  8
LC-002-002-----0
 62
     7
370
    25
100
AcDbLine
 10
857.310444
 20
2535.27542
 30
0.0
 11
857.395104
 21
2535.177661
 31
0.0
  0
LINE
  5
383
102
{ACAD_REACTORS
330
698
102
}
330
1F
100
AcDbEntity
  8
LC-002-002-----0
 62
     7
370
    25
100
AcDbLine
 10
857.395104
 20
2535.177661
 30
0.0
 11
857.395104
 21
2535.177661
 31
0.0
  0
LINE
  5
384
102
{ACAD_REACTORS
330
698
102
}
330
1F
100
AcDbEntity
  8
LC-002-002-----0
 62
     7
370
    25
100
AcDbLine
 10
857.395104
 20
2535.177661
 30
0.0
 11
857.498023
 21
2535.074026
 31
0.0
  0
LINE
  5
385
102
{ACAD_REACTORS
330
698
102
}
330
1F
100
AcDbEntity
  8
LC-002-002-----0
 62
     7
370
    25
100
AcDbLine
 10
857.498023
 20
2535.074026
 30
0.0
 11
857.498023
 21
2535.074026
 31
0.0
  0
LINE
  5
386
102
{ACAD_REACTORS
330
698
102
}
330
1F
100
AcDbEntity
  8
LC-002-002-----0
 62
     7
370
    25
100
AcDbLine
 10
857.498023
 20
2535.074026
 30
0.0
 11
857.623728
 21
2534.965503
 31
0.0
  0
LINE
  5
387
102
{ACAD_REACTORS
330
698
102
}
330
1F
100
AcDbEntity
  8
LC-002-002-----0
 62
     7
370
    25
100
AcDbLine
 10
857.623728
 20
2534.965503
 30
0.0
 11
857.623728
 21
2534.965503
 31
0.0
  0
LINE
  5
388
102
{ACAD_REACTORS
330
698
102
}
330
1F
100
AcDbEntity
  8
LC-002-002-----0
 62
     7
370
    25
100
AcDbLine
 10
857.623728
 20
2534.965503
 30
0.0
 11
857.778379
 21
2534.85388
 31
0.0
  0
LINE
  5
389
102
{ACAD_REACTORS
330
698
102
}
330
1F
100
AcDbEntity
  8
LC-002-002-----0
 62
     7
370
    25
100
AcDbLine
 10
857.778379
 20
2534.85388
 30
0.0
 11
857.778379
 21
2534.85388
 31
0.0
  0
LINE
  5
38A
102
{ACAD_REACTORS
330
698
102
}
330
1F
100
AcDbEntity
  8
LC-002-002-----0
 62
     7
370
    25
100
AcDbLine
 10
857.778379
 20
2534.85388
 30
0.0
 11
857.969115
 21
2534.743295
 31
0.0
  0
LINE
  5
38B
102
{ACAD_REACTORS
330
698
102
}
330
1F
100
AcDbEntity
  8
LC-002-002-----0
 62
     7
370
    25
100
AcDbLine
 10
857.969115
 20
2534.743295
 30
0.0
 11
857.969115
 21
2534.743295
 31
0.0
  0
LINE
  5
38C
102
{ACAD_REACTORS
330
698
102
}
330
1F
100
AcDbEntity
  8
LC-002-002-----0
 62
     7
370
    25
100
AcDbLine
 10
857.969115
 20
2534.743295
 30
0.0
 11
858.199304
 21
2534.642999
 31
0.0
  0
LINE
  5
38D
102
{ACAD_REACTORS
330
698
102
}
330
1F
100
AcDbEntity
  8
LC-002-002-----0
 62
     7
370
    25
100
AcDbLine
 10
858.199173
 20
2534.643003
 30
0.0
 11
858.199173
 21
2534.643003
 31
0.0
  0
LINE
  5
38E
102
{ACAD_REACTORS
330
698
102
}
330
1F
100
AcDbEntity
  8
LC-002-002-----0
 62
     7
370
    25
100
AcDbLine
 10
858.199173
 20
2534.643003
 30
0.0
 11
858.422417
 21
2534.576042
 31
0.0
  0
LINE
  5
38F
102
{ACAD_REACTORS
330
698
102
}
330
1F
100
AcDbEntity
  8
LC-002-002-----0
 62
     7
370
    25
100
AcDbLine
 10
858.422417
 20
2534.576042
 30
0.0
 11
858.422417
 21
2534.576042
 31
0.0
  0
LINE
  5
390
102
{ACAD_REACTORS
330
698
102
}
330
1F
100
AcDbEntity
  8
LC-002-002-----0
 62
     7
370
    25
100
AcDbLine
 10
858.422417
 20
2534.576042
 30
0.0
 11
858.652443
 21
2534.535411
 31
0.0
  0
LINE
  5
391
102
{ACAD_REACTORS
330
698
102
}
330
1F
100
AcDbEntity
  8
LC-002-002-----0
 62
     7
370
    25
100
AcDbLine
 10
858.652443
 20
2534.535411
 30
0.0
 11
858.652443
 21
2534.535411
 31
0.0
  0
LINE
  5
392
102
{ACAD_REACTORS
330
698
102
}
330
1F
100
AcDbEntity
  8
LC-002-002-----0
 62
     7
370
    25
100
AcDbLine
 10
858.652443
 20
2534.535411
 30
0.0
 11
858.885155
 21
2534.521838
 31
0.0
  0
LINE
  5
393
102
{ACAD_REACTORS
330
698
102
}
330
1F
100
AcDbEntity
  8
LC-002-002-----0
 62
     7
370
    25
100
AcDbLine
 10
901.04402
 20
2534.643003
 30
0.0
 11
901.04402
 21
2534.643003
 31
0.0
  0
LINE
  5
394
102
{ACAD_REACTORS
330
698
102
}
330
1F
100
AcDbEntity
  8
LC-002-002-----0
 62
     7
370
    25
100
AcDbLine
 10
901.04402
 20
2534.643003
 30
0.0
 11
900.820777
 21
2534.576042
 31
0.0
  0
LINE
  5
395
102
{ACAD_REACTORS
330
698
102
}
330
1F
100
AcDbEntity
  8
LC-002-002-----0
 62
     7
370
    25
100
AcDbLine
 10
900.820777
 20
2534.576042
 30
0.0
 11
900.820777
 21
2534.576042
 31
0.0
  0
LINE
  5
396
102
{ACAD_REACTORS
330
698
102
}
330
1F
100
AcDbEntity
  8
LC-002-002-----0
 62
     7
370
    25
100
AcDbLine
 10
900.820777
 20
2534.576042
 30
0.0
 11
900.59075
 21
2534.535411
 31
0.0
  0
LINE
  5
397
102
{ACAD_REACTORS
330
698
102
}
330
1F
100
AcDbEntity
  8
LC-002-002-----0
 62
     7
370
    25
100
AcDbLine
 10
900.59075
 20
2534.535411
 30
0.0
 11
900.59075
 21
2534.535411
 31
0.0
  0
LINE
  5
398
102
{ACAD_REACTORS
330
698
102
}
330
1F
100
AcDbEntity
  8
LC-002-002-----0
 62
     7
370
    25
100
AcDbLine
 10
900.59075
 20
2534.535411
 30
0.0
 11
900.358038
 21
2534.521838
 31
0.0
  0
LINE
  5
399
102
{ACAD_REACTORS
330
698
102
}
330
1F
100
AcDbEntity
  8
LC-002-002-----0
 62
     7
370
    25
100
AcDbLine
 10
861.23587
 20
2534.521838
 30
0.0
 11
858.885155
 21
2534.521838
 31
0.0
  0
INSERT
  5
3A7
102
{ACAD_REACTORS
330
698
102
}
330
1F
100
AcDbEntity
  8
LC-002-002-----0
 62
     7
370
    25
100
AcDbBlockReference
  2
POLY3
 10
0.0
 20
0.0
 30
0.0
  0
INSERT
  5
3B5
102
{ACAD_REACTORS
330
698
102
}
330
1F
100
AcDbEntity
  8
LC-002-002-----0
 62
     7
370
    25
100
AcDbBlockReference
  2
POLY4
 10
0.0
 20
0.0
 30
0.0
  0
ARC
  5
3B6
102
{ACAD_REACTORS
330
697
102
}
330
1F
100
AcDbEntity
  8
LC-002-002-----0
 62
     7
370
    25
100
AcDbCircle
 10
981.621597
 20
2353.504908
 30
0.0
 40
5.999999999999545
100
AcDbArc
 50
180.0
 51
255.530548
  0
ARC
  5
3B7
102
{ACAD_REACTORS
330
697
102
}
330
1F
100
AcDbEntity
  8
LC-002-002-----0
 62
     7
370
    25
100
AcDbCircle
 10
979.121597
 20
2343.82245
 30
0.0
 40
4.0
100
AcDbArc
 50
0.0
 51
75.507853
  0
LINE
  5
3B8
102
{ACAD_REACTORS
330
697
102
}
330
1F
100
AcDbEntity
  8
LC-002-002-----0
 62
     7
370
    25
100
AcDbLine
 10
983.121597
 20
2328.359092
 30
0.0
 11
983.121597
 21
2343.82245
 31
0.0
  0
LINE
  5
3B9
102
{ACAD_REACTORS
330
697
102
}
330
1F
100
AcDbEntity
  8
LC-002-002-----0
 62
     7
370
    25
100
AcDbLine
 10
987.872207
 20
2322.152224
 30
0.0
 11
986.122232
 21
2323.162573
 31
0.0
  0
ARC
  5
3BA
102
{ACAD_REACTORS
330
697
102
}
330
1F
100
AcDbEntity
  8
LC-002-002-----0
 62
     7
370
    25
100
AcDbCircle
 10
989.121597
 20
2328.359092
 30
0.0
 40
5.999999999999773
100
AcDbArc
 50
180.0
 51
240.011524
  0
LINE
  5
3BB
102
{ACAD_REACTORS
330
697
102
}
330
1F
100
AcDbEntity
  8
LC-002-002-----0
 62
     7
370
    25
100
AcDbLine
 10
993.121597
 20
2315.32245
 30
0.0
 11
995.123459
 21
2315.32245
 31
0.0
  0
LINE
  5
3BC
102
{ACAD_REACTORS
330
697
102
}
330
1F
100
AcDbEntity
  8
LC-002-002-----0
 62
     7
370
    25
100
AcDbLine
 10
995.123459
 20
2314.619205
 30
0.0
 11
995.123459
 21
2315.32245
 31
0.0
  0
LINE
  5
3BD
102
{ACAD_REACTORS
330
697
102
}
330
1F
100
AcDbEntity
  8
LC-002-002-----0
 62
     7
370
    25
100
AcDbLine
 10
993.121597
 20
2317.82245
 30
0.0
 11
993.121597
 21
2315.32245
 31
0.0
  0
ARC
  5
3BE
102
{ACAD_REACTORS
330
697
102
}
330
1F
100
AcDbEntity
  8
LC-002-002-----0
 62
     7
370
    25
100
AcDbCircle
 10
997.123459
 20
2314.619205
 30
0.0
 40
2.000000000000227
100
AcDbArc
 50
180.0
 51
205.847369
  0
LINE
  5
3BF
102
{ACAD_REACTORS
330
697
102
}
330
1F
100
AcDbEntity
  8
LC-002-002-----0
 62
     7
370
    25
100
AcDbLine
 10
991.116633
 20
2317.82245
 30
0.0
 11
993.121597
 21
2317.82245
 31
0.0
  0
ARC
  5
3C0
102
{ACAD_REACTORS
330
697
102
}
330
1F
100
AcDbEntity
  8
LC-002-002-----0
 62
     7
370
    25
100
AcDbCircle
 10
991.116159
 20
2318.62245
 30
0.0
 40
0.7999999999992057
100
AcDbArc
 50
187.937394
 51
270.0
  0
ARC
  5
3C1
102
{ACAD_REACTORS
330
697
102
}
330
1F
100
AcDbEntity
  8
LC-002-002-----0
 62
     7
370
    25
100
AcDbCircle
 10
985.371597
 20
2317.82245
 30
0.0
 40
4.999999999999906
100
AcDbArc
 50
7.927775
 51
59.983847
  0
LINE
  5
3C2
102
{ACAD_REACTORS
330
698
102
}
330
1F
100
AcDbEntity
  8
LC-002-002-----0
 62
     7
370
    25
100
AcDbLine
 10
857.121597
 20
2537.52
 30
0.0
 11
856.871597
 21
2537.52
 31
0.0
  0
ARC
  5
3C3
102
{ACAD_REACTORS
330
693
102
}
330
1F
100
AcDbEntity
  8
LC-002-002-----0
 62
     7
370
    25
100
AcDbCircle
 10
1782.107199
 20
1738.015727
 30
0.0
 40
2.999999999999853
100
AcDbArc
 50
270.499699
 51
0.0
  0
ARC
  5
3C4
102
{ACAD_REACTORS
330
693
102
}
330
1F
100
AcDbEntity
  8
LC-002-002-----0
 62
     7
370
    25
100
AcDbCircle
 10
1782.107199
 20
1701.244273
 30
0.0
 40
3.0
100
AcDbArc
 50
0.0
 51
89.500301
  0
LINE
  5
3C5
102
{ACAD_REACTORS
330
695
102
}
330
1F
100
AcDbEntity
  8
LC-002-002-----0
 62
     7
370
    25
100
AcDbLine
 10
1511.548263
 20
1746.13
 30
0.0
 11
1511.548263
 21
1769.63
 31
0.0
  0
LINE
  5
3C6
102
{ACAD_REACTORS
330
695
102
}
330
1F
100
AcDbEntity
  8
LC-002-002-----0
 62
     7
370
    25
100
AcDbLine
 10
1556.348263
 20
1748.083149
 30
0.0
 11
1556.348263
 21
1769.63
 31
0.0
  0
LINE
  5
3C7
102
{ACAD_REACTORS
330
695
102
}
330
1F
100
AcDbEntity
  8
LC-002-002-----0
 62
     7
370
    25
100
AcDbLine
 10
1621.300492
 20
1739.63
 30
0.0
 11
1627.300492
 21
1739.63
 31
0.0
  0
LINE
  5
3C8
102
{ACAD_REACTORS
330
694
102
}
330
1F
100
AcDbEntity
  8
LC-002-002-----0
 62
     7
370
    25
100
AcDbLine
 10
1691.800492
 20
1732.13
 30
0.0
 11
1634.949602
 21
1732.13
 31
0.0
  0
LINE
  5
3C9
102
{ACAD_REACTORS
330
694
102
}
330
1F
100
AcDbEntity
  8
LC-002-002-----0
 62
     7
370
    25
100
AcDbLine
 10
1691.800492
 20
1707.13
 30
0.0
 11
1634.949602
 21
1707.13
 31
0.0
  0
LINE
  5
3CA
102
{ACAD_REACTORS
330
695
102
}
330
1F
100
AcDbEntity
  8
LC-002-002-----0
 62
     7
370
    25
100
AcDbLine
 10
1621.300492
 20
1699.63
 30
0.0
 11
1627.300492
 21
1699.63
 31
0.0
  0
LINE
  5
3CB
102
{ACAD_REACTORS
330
695
102
}
330
1F
100
AcDbEntity
  8
LC-002-002-----0
 62
     7
370
    25
100
AcDbLine
 10
1627.300492
 20
1739.63
 30
0.0
 11
1627.300491
 21
1699.63
 31
0.0
  0
LINE
  5
3CC
102
{ACAD_REACTORS
330
694
102
}
330
1F
100
AcDbEntity
  8
LC-002-002-----0
 62
     7
370
    25
100
AcDbLine
 10
1634.949602
 20
1707.13
 30
0.0
 11
1634.949602
 21
1732.13
 31
0.0
  0
LINE
  5
3CD
102
{ACAD_REACTORS
330
694
102
}
330
1F
100
AcDbEntity
  8
LC-002-002-----0
 62
     7
370
    25
100
AcDbLine
 10
1692.300492
 20
1707.63
 30
0.0
 11
1692.300492
 21
1731.63
 31
0.0
  0
ARC
  5
3CE
102
{ACAD_REACTORS
330
695
102
}
330
1F
100
AcDbEntity
  8
LC-002-002-----0
 62
     7
370
    25
100
AcDbCircle
 10
1621.300492
 20
1719.63
 30
0.0
 40
20.00000000000009
100
AcDbArc
 50
230.394348
 51
270.0
  0
ARC
  5
3CF
102
{ACAD_REACTORS
330
695
102
}
330
1F
100
AcDbEntity
  8
LC-002-002-----0
 62
     7
370
    25
100
AcDbCircle
 10
1621.300492
 20
1719.63
 30
0.0
 40
20.0
100
AcDbArc
 50
90.0
 51
129.605652
  0
ARC
  5
3D0
102
{ACAD_REACTORS
330
694
102
}
330
1F
100
AcDbEntity
  8
LC-002-002-----0
 62
     7
370
    25
100
AcDbCircle
 10
1691.800492
 20
1707.63
 30
0.0
 40
0.5
100
AcDbArc
 50
270.0
 51
0.0
  0
ARC
  5
3D1
102
{ACAD_REACTORS
330
694
102
}
330
1F
100
AcDbEntity
  8
LC-002-002-----0
 62
     7
370
    25
100
AcDbCircle
 10
1691.800492
 20
1731.63
 30
0.0
 40
0.5
100
AcDbArc
 50
0.0
 51
90.0
  0
ARC
  5
3D2
102
{ACAD_REACTORS
330
694
102
}
330
1F
100
AcDbEntity
  8
LC-002-002-----0
 62
     7
370
    25
100
AcDbCircle
 10
1634.949602
 20
1706.13
 30
0.0
 40
1.0
100
AcDbArc
 50
90.0
 51
133.137678
  0
ARC
  5
3D3
102
{ACAD_REACTORS
330
694
102
}
330
1F
100
AcDbEntity
  8
LC-002-002-----0
 62
     7
370
    25
100
AcDbCircle
 10
1634.949602
 20
1733.13
 30
0.0
 40
1.000000000000066
100
AcDbArc
 50
226.862322
 51
270.0
  0
ARC
  5
3D4
102
{ACAD_REACTORS
330
694
102
}
330
1F
100
AcDbEntity
  8
LC-002-002-----0
 62
     7
370
    25
100
AcDbCircle
 10
1622.300492
 20
1719.63
 30
0.0
 40
17.50000000000025
100
AcDbArc
 50
46.85835
 51
73.398451
  0
ARC
  5
3D5
102
{ACAD_REACTORS
330
694
102
}
330
1F
100
AcDbEntity
  8
LC-002-002-----0
 62
     7
370
    25
100
AcDbCircle
 10
1622.300492
 20
1719.63
 30
0.0
 40
17.49999999999965
100
AcDbArc
 50
286.601548
 51
313.141806
  0
LINE
  5
3D6
102
{ACAD_REACTORS
330
695
102
}
330
1F
100
AcDbEntity
  8
LC-002-002-----0
 62
     7
370
    25
100
AcDbLine
 10
1506.24347
 20
1772.13
 30
0.0
 11
1506.24347
 21
1769.63
 31
0.0
  0
LINE
  5
3D7
102
{ACAD_REACTORS
330
695
102
}
330
1F
100
AcDbEntity
  8
LC-002-002-----0
 62
     7
370
    25
100
AcDbLine
 10
1506.99347
 20
1773.13
 30
0.0
 11
1506.99347
 21
1772.88
 31
0.0
  0
LINE
  5
3D8
102
{ACAD_REACTORS
330
695
102
}
330
1F
100
AcDbEntity
  8
LC-002-002-----0
 62
     7
370
    25
100
AcDbLine
 10
1508.148263
 20
1773.13
 30
0.0
 11
1508.148263
 21
1786.63
 31
0.0
  0
LINE
  5
3D9
102
{ACAD_REACTORS
330
695
102
}
330
1F
100
AcDbEntity
  8
LC-002-002-----0
 62
     7
370
    25
100
AcDbLine
 10
1559.748263
 20
1773.13
 30
0.0
 11
1559.748263
 21
1786.63
 31
0.0
  0
LINE
  5
3DA
102
{ACAD_REACTORS
330
695
102
}
330
1F
100
AcDbEntity
  8
LC-002-002-----0
 62
     7
370
    25
100
AcDbLine
 10
1560.903057
 20
1773.13
 30
0.0
 11
1560.903057
 21
1772.88
 31
0.0
  0
LINE
  5
3DB
102
{ACAD_REACTORS
330
695
102
}
330
1F
100
AcDbEntity
  8
LC-002-002-----0
 62
     7
370
    25
100
AcDbLine
 10
1561.653057
 20
1772.13
 30
0.0
 11
1561.653057
 21
1769.63
 31
0.0
  0
LINE
  5
3DC
102
{ACAD_REACTORS
330
695
102
}
330
1F
100
AcDbEntity
  8
LC-002-002-----0
 62
     7
370
    25
100
AcDbLine
 10
1506.993471
 20
1772.880001
 30
0.0
 11
1506.243471
 21
1772.130001
 31
0.0
  0
LINE
  5
3DD
102
{ACAD_REACTORS
330
695
102
}
330
1F
100
AcDbEntity
  8
LC-002-002-----0
 62
     7
370
    25
100
AcDbLine
 10
1557.748263
 20
1788.63
 30
0.0
 11
1510.148263
 21
1788.63
 31
0.0
  0
LINE
  5
3DE
102
{ACAD_REACTORS
330
695
102
}
330
1F
100
AcDbEntity
  8
LC-002-002-----0
 62
     7
370
    25
100
AcDbLine
 10
1560.903039
 20
1773.13
 30
0.0
 11
1559.748263
 21
1773.13
 31
0.0
  0
LINE
  5
3DF
102
{ACAD_REACTORS
330
695
102
}
330
1F
100
AcDbEntity
  8
LC-002-002-----0
 62
     7
370
    25
100
AcDbLine
 10
1561.653057
 20
1769.63
 30
0.0
 11
1506.24347
 21
1769.63
 31
0.0
  0
LINE
  5
3E0
102
{ACAD_REACTORS
330
695
102
}
330
1F
100
AcDbEntity
  8
LC-002-002-----0
 62
     7
370
    25
100
AcDbLine
 10
1560.903055
 20
1772.880001
 30
0.0
 11
1561.653055
 21
1772.130001
 31
0.0
  0
ARC
  5
3E1
102
{ACAD_REACTORS
330
695
102
}
330
1F
100
AcDbEntity
  8
LC-002-002-----0
 62
     7
370
    25
100
AcDbCircle
 10
1557.748263
 20
1786.63
 30
0.0
 40
2.0
100
AcDbArc
 50
0.0
 51
90.0
  0
ARC
  5
3E2
102
{ACAD_REACTORS
330
695
102
}
330
1F
100
AcDbEntity
  8
LC-002-002-----0
 62
     7
370
    25
100
AcDbCircle
 10
1510.148263
 20
1786.63
 30
0.0
 40
2.0
100
AcDbArc
 50
90.0
 51
180.0
  0
LINE
  5
3E3
102
{ACAD_REACTORS
330
695
102
}
330
1F
100
AcDbEntity
  8
LC-002-002-----0
 62
     7
370
    25
100
AcDbLine
 10
1557.16065
 20
1773.13
 30
0.0
 11
1557.16065
 21
1786.63
 31
0.0
  0
INSERT
  5
3F3
102
{ACAD_REACTORS
330
695
102
}
330
1F
100
AcDbEntity
  8
LC-002-002-----0
 62
     7
370
    25
100
AcDbBlockReference
  2
POLY5
 10
0.0
 20
0.0
 30
0.0
  0
LINE
  5
3F4
102
{ACAD_REACTORS
330
695
102
}
330
1F
100
AcDbEntity
  8
LC-002-002-----0
 62
     7
370
    25
100
AcDbLine
 10
1533.946811
 20
1773.13
 30
0.0
 11
1533.946811
 21
1786.63
 31
0.0
  0
INSERT
  5
404
102
{ACAD_REACTORS
330
695
102
}
330
1F
100
AcDbEntity
  8
LC-002-002-----0
 62
     7
370
    25
100
AcDbBlockReference
  2
POLY6
 10
0.0
 20
0.0
 30
0.0
  0
LINE
  5
405
102
{ACAD_REACTORS
330
695
102
}
330
1F
100
AcDbEntity
  8
LC-002-002-----0
 62
     7
370
    25
100
AcDbLine
 10
1510.735769
 20
1786.63
 30
0.0
 11
1510.735769
 21
1773.13
 31
0.0
  0
INSERT
  5
415
102
{ACAD_REACTORS
330
695
102
}
330
1F
100
AcDbEntity
  8
LC-002-002-----0
 62
     7
370
    25
100
AcDbBlockReference
  2
POLY7
 10
0.0
 20
0.0
 30
0.0
  0
LINE
  5
416
102
{ACAD_REACTORS
330
695
102
}
330
1F
100
AcDbEntity
  8
LC-002-002-----0
 62
     7
370
    25
100
AcDbLine
 10
1511.948263
 20
1719.63
 30
0.0
 11
1511.948263
 21
1745.73
 31
0.0
  0
ARC
  5
417
102
{ACAD_REACTORS
330
695
102
}
330
1F
100
AcDbEntity
  8
LC-002-002-----0
 62
     7
370
    25
100
AcDbCircle
 10
1533.948263
 20
1719.63
 30
0.0
 40
22.0
100
AcDbArc
 50
180.0
 51
270.0
  0
LINE
  5
418
102
{ACAD_REACTORS
330
695
102
}
330
1F
100
AcDbEntity
  8
LC-002-002-----0
 62
     7
370
    25
100
AcDbLine
 10
1565.90781
 20
1682.13
 30
0.0
 11
1565.90781
 21
1684.131863
 31
0.0
  0
LINE
  5
419
102
{ACAD_REACTORS
330
695
102
}
330
1F
100
AcDbEntity
  8
LC-002-002-----0
 62
     7
370
    25
100
AcDbLine
 10
1556.348263
 20
1748.083149
 30
0.0
 11
1558.068294
 21
1748.397385
 31
0.0
  0
LINE
  5
41A
102
{ACAD_REACTORS
330
695
102
}
330
1F
100
AcDbEntity
  8
LC-002-002-----0
 62
     7
370
    25
100
AcDbLine
 10
1568.407811
 20
1757.13
 30
0.0
 11
1565.90781
 21
1757.13
 31
0.0
  0
LINE
  5
41B
102
{ACAD_REACTORS
330
695
102
}
330
1F
100
AcDbEntity
  8
LC-002-002-----0
 62
     7
370
    25
100
AcDbLine
 10
1565.204566
 20
1755.128137
 30
0.0
 11
1565.90781
 21
1755.128137
 31
0.0
  0
LINE
  5
41C
102
{ACAD_REACTORS
330
695
102
}
330
1F
100
AcDbEntity
  8
LC-002-002-----0
 62
     7
370
    25
100
AcDbLine
 10
1533.948263
 20
1697.63
 30
0.0
 11
1547.639448
 21
1697.63
 31
0.0
  0
LINE
  5
41D
102
{ACAD_REACTORS
330
695
102
}
330
1F
100
AcDbEntity
  8
LC-002-002-----0
 62
     7
370
    25
100
AcDbLine
 10
1565.204566
 20
1684.131863
 30
0.0
 11
1565.90781
 21
1684.131863
 31
0.0
  0
LINE
  5
41E
102
{ACAD_REACTORS
330
695
102
}
330
1F
100
AcDbEntity
  8
LC-002-002-----0
 62
     7
370
    25
100
AcDbLine
 10
1568.407811
 20
1682.13
 30
0.0
 11
1565.90781
 21
1682.13
 31
0.0
  0
LINE
  5
41F
102
{ACAD_REACTORS
330
695
102
}
330
1F
100
AcDbEntity
  8
LC-002-002-----0
 62
     7
370
    25
100
AcDbLine
 10
1555.44943
 20
1691.341061
 30
0.0
 11
1558.068294
 21
1690.862615
 31
0.0
  0
LINE
  5
420
102
{ACAD_REACTORS
330
695
102
}
330
1F
100
AcDbEntity
  8
LC-002-002-----0
 62
     7
370
    25
100
AcDbLine
 10
1511.548291
 20
1746.129973
 30
0.0
 11
1511.948371
 21
1745.729892
 31
0.0
  0
ARC
  5
421
102
{ACAD_REACTORS
330
695
102
}
330
1F
100
AcDbEntity
  8
LC-002-002-----0
 62
     7
370
    25
100
AcDbCircle
 10
1556.61762
 20
1697.735225
 30
0.0
 40
6.499999999999857
100
AcDbArc
 50
199.07704
 51
259.645823
  0
ARC
  5
422
102
{ACAD_REACTORS
330
695
102
}
330
1F
100
AcDbEntity
  8
LC-002-002-----0
 62
     7
370
    25
100
AcDbCircle
 10
1547.639448
 20
1694.63
 30
0.0
 40
3.000000000000014
100
AcDbArc
 50
19.055448
 51
90.0
  0
ARC
  5
423
102
{ACAD_REACTORS
330
695
102
}
330
1F
100
AcDbEntity
  8
LC-002-002-----0
 62
     7
370
    25
100
AcDbCircle
 10
1565.204566
 20
1686.131863
 30
0.0
 40
2.000000000000386
100
AcDbArc
 50
244.152631
 51
270.0
  0
ARC
  5
424
102
{ACAD_REACTORS
330
695
102
}
330
1F
100
AcDbEntity
  8
LC-002-002-----0
 62
     7
370
    25
100
AcDbCircle
 10
1565.204566
 20
1753.128137
 30
0.0
 40
2.000000000000455
100
AcDbArc
 50
90.0
 51
115.847369
  0
ARC
  5
425
102
{ACAD_REACTORS
330
695
102
}
330
1F
100
AcDbEntity
  8
LC-002-002-----0
 62
     7
370
    25
100
AcDbCircle
 10
1566.948263
 20
1689.731796
 30
0.0
 40
5.999999999999846
100
AcDbArc
 50
196.283517
 51
244.155028
  0
ARC
  5
426
102
{ACAD_REACTORS
330
695
102
}
330
1F
100
AcDbEntity
  8
LC-002-002-----0
 62
     7
370
    25
100
AcDbCircle
 10
1566.948263
 20
1749.528204
 30
0.0
 40
6.000000000000001
100
AcDbArc
 50
115.844972
 51
163.716483
  0
ARC
  5
427
102
{ACAD_REACTORS
330
695
102
}
330
1F
100
AcDbEntity
  8
LC-002-002-----0
 62
     7
370
    25
100
AcDbCircle
 10
1557.349448
 20
1686.927737
 30
0.0
 40
4.000000000000497
100
AcDbArc
 50
16.281751
 51
79.647048
  0
ARC
  5
428
102
{ACAD_REACTORS
330
695
102
}
330
1F
100
AcDbEntity
  8
LC-002-002-----0
 62
     7
370
    25
100
AcDbCircle
 10
1557.349448
 20
1752.332263
 30
0.0
 40
4.000000000000468
100
AcDbArc
 50
280.352952
 51
343.718249
  0
LINE
  5
429
102
{ACAD_REACTORS
330
695
102
}
330
1F
100
AcDbEntity
  8
LC-002-002-----0
 62
     7
370
    25
100
AcDbLine
 10
1608.550492
 20
1774.63
 30
0.0
 11
1608.550492
 21
1664.63
 31
0.0
  0
LINE
  5
42A
102
{ACAD_REACTORS
330
695
102
}
330
1F
100
AcDbEntity
  8
LC-002-002-----0
 62
     7
370
    25
100
AcDbLine
 10
1604.550492
 20
1664.63
 30
0.0
 11
1608.550492
 21
1664.63
 31
0.0
  0
LINE
  5
42B
102
{ACAD_REACTORS
330
695
102
}
330
1F
100
AcDbEntity
  8
LC-002-002-----0
 62
     7
370
    25
100
AcDbLine
 10
1568.407811
 20
1680.125036
 30
0.0
 11
1568.407811
 21
1682.13
 31
0.0
  0
LINE
  5
42C
102
{ACAD_REACTORS
330
695
102
}
330
1F
100
AcDbEntity
  8
LC-002-002-----0
 62
     7
370
    25
100
AcDbLine
 10
1572.737585
 20
1676.88061
 30
0.0
 11
1573.747934
 21
1675.130635
 31
0.0
  0
LINE
  5
42D
102
{ACAD_REACTORS
330
695
102
}
330
1F
100
AcDbEntity
  8
LC-002-002-----0
 62
     7
370
    25
100
AcDbLine
 10
1578.944453
 20
1672.13
 30
0.0
 11
1594.40781
 21
1672.13
 31
0.0
  0
LINE
  5
42E
102
{ACAD_REACTORS
330
695
102
}
330
1F
100
AcDbEntity
  8
LC-002-002-----0
 62
     7
370
    25
100
AcDbLine
 10
1604.090269
 20
1664.63
 30
0.0
 11
1604.550492
 21
1664.63
 31
0.0
  0
ARC
  5
42F
102
{ACAD_REACTORS
330
695
102
}
330
1F
100
AcDbEntity
  8
LC-002-002-----0
 62
     7
370
    25
100
AcDbCircle
 10
1594.40781
 20
1668.13
 30
0.0
 40
4.000000000000089
100
AcDbArc
 50
14.492147
 51
90.0
  0
ARC
  5
430
102
{ACAD_REACTORS
330
695
102
}
330
1F
100
AcDbEntity
  8
LC-002-002-----0
 62
     7
370
    25
100
AcDbCircle
 10
1604.090269
 20
1670.63
 30
0.0
 40
5.999999999999878
100
AcDbArc
 50
194.469452
 51
270.0
  0
ARC
  5
431
102
{ACAD_REACTORS
330
695
102
}
330
1F
100
AcDbEntity
  8
LC-002-002-----0
 62
     7
370
    25
100
AcDbCircle
 10
1578.944453
 20
1678.13
 30
0.0
 40
6.00000000000006
100
AcDbArc
 50
209.988476
 51
270.0
  0
ARC
  5
432
102
{ACAD_REACTORS
330
695
102
}
330
1F
100
AcDbEntity
  8
LC-002-002-----0
 62
     7
370
    25
100
AcDbCircle
 10
1568.40781
 20
1674.38
 30
0.0
 40
5.00000000000002
100
AcDbArc
 50
30.016153
 51
82.072225
  0
ARC
  5
433
102
{ACAD_REACTORS
330
695
102
}
330
1F
100
AcDbEntity
  8
LC-002-002-----0
 62
     7
370
    25
100
AcDbCircle
 10
1569.20781
 20
1680.124563
 30
0.0
 40
0.7999999999997272
100
AcDbArc
 50
180.0
 51
262.062606
  0
LINE
  5
434
102
{ACAD_REACTORS
330
695
102
}
330
1F
100
AcDbEntity
  8
LC-002-002-----0
 62
     7
370
    25
100
AcDbLine
 10
1604.550492
 20
1774.63
 30
0.0
 11
1608.550492
 21
1774.63
 31
0.0
  0
LINE
  5
435
102
{ACAD_REACTORS
330
695
102
}
330
1F
100
AcDbEntity
  8
LC-002-002-----0
 62
     7
370
    25
100
AcDbLine
 10
1572.737585
 20
1762.37939
 30
0.0
 11
1573.747934
 21
1764.129365
 31
0.0
  0
LINE
  5
436
102
{ACAD_REACTORS
330
695
102
}
330
1F
100
AcDbEntity
  8
LC-002-002-----0
 62
     7
370
    25
100
AcDbLine
 10
1578.944453
 20
1767.13
 30
0.0
 11
1594.40781
 21
1767.13
 31
0.0
  0
LINE
  5
437
102
{ACAD_REACTORS
330
695
102
}
330
1F
100
AcDbEntity
  8
LC-002-002-----0
 62
     7
370
    25
100
AcDbLine
 10
1604.090269
 20
1774.63
 30
0.0
 11
1604.550492
 21
1774.63
 31
0.0
  0
ARC
  5
438
102
{ACAD_REACTORS
330
695
102
}
330
1F
100
AcDbEntity
  8
LC-002-002-----0
 62
     7
370
    25
100
AcDbCircle
 10
1594.40781
 20
1771.13
 30
0.0
 40
4.0
100
AcDbArc
 50
270.0
 51
345.507853
  0
ARC
  5
439
102
{ACAD_REACTORS
330
695
102
}
330
1F
100
AcDbEntity
  8
LC-002-002-----0
 62
     7
370
    25
100
AcDbCircle
 10
1604.090269
 20
1768.63
 30
0.0
 40
6.0
100
AcDbArc
 50
90.0
 51
165.530548
  0
ARC
  5
43A
102
{ACAD_REACTORS
330
695
102
}
330
1F
100
AcDbEntity
  8
LC-002-002-----0
 62
     7
370
    25
100
AcDbCircle
 10
1578.944453
 20
1761.13
 30
0.0
 40
6.0
100
AcDbArc
 50
90.0
 51
150.011524
  0
ARC
  5
43B
102
{ACAD_REACTORS
330
695
102
}
330
1F
100
AcDbEntity
  8
LC-002-002-----0
 62
     7
370
    25
100
AcDbCircle
 10
1568.40781
 20
1764.88
 30
0.0
 40
4.999999999999969
100
AcDbArc
 50
277.927775
 51
329.983847
  0
ARC
  5
43C
102
{ACAD_REACTORS
330
695
102
}
330
1F
100
AcDbEntity
  8
LC-002-002-----0
 62
     7
370
    25
100
AcDbCircle
 10
1569.20781
 20
1759.135437
 30
0.0
 40
0.8000000000001692
100
AcDbArc
 50
97.937394
 51
180.0
  0
LINE
  5
43D
102
{ACAD_REACTORS
330
693
102
}
330
1F
100
AcDbEntity
  8
LC-002-002-----0
 62
     7
370
    25
100
AcDbLine
 10
1773.990426
 20
1704.296772
 30
0.0
 11
1778.338115
 21
1699.949084
 31
0.0
  0
LINE
  5
43E
102
{ACAD_REACTORS
330
693
102
}
330
1F
100
AcDbEntity
  8
LC-002-002-----0
 62
     7
370
    25
100
AcDbLine
 10
1763.052909
 20
1734.867777
 30
0.0
 11
1773.990426
 21
1734.963228
 31
0.0
  0
LINE
  5
43F
102
{ACAD_REACTORS
330
693
102
}
330
1F
100
AcDbEntity
  8
LC-002-002-----0
 62
     7
370
    25
100
AcDbLine
 10
1782.133363
 20
1735.015841
 30
0.0
 11
1775.041921
 21
1734.953992
 31
0.0
  0
LINE
  5
440
102
{ACAD_REACTORS
330
693
102
}
330
1F
100
AcDbEntity
  8
LC-002-002-----0
 62
     7
370
    25
100
AcDbLine
 10
1787.107199
 20
1742.38
 30
0.0
 11
1788.105361
 21
1742.38
 31
0.0
  0
LINE
  5
441
102
{ACAD_REACTORS
330
693
102
}
330
1F
100
AcDbEntity
  8
LC-002-002-----0
 62
     7
370
    25
100
AcDbLine
 10
1790.105361
 20
1742.13
 30
0.0
 11
1788.105361
 21
1742.13
 31
0.0
  0
LINE
  5
442
102
{ACAD_REACTORS
330
693
102
}
330
1F
100
AcDbEntity
  8
LC-002-002-----0
 62
     7
370
    25
100
AcDbLine
 10
1779.557318
 20
1699.209253
 30
0.0
 11
1786.122282
 21
1697.139328
 31
0.0
  0
LINE
  5
443
102
{ACAD_REACTORS
330
693
102
}
330
1F
100
AcDbEntity
  8
LC-002-002-----0
 62
     7
370
    25
100
AcDbLine
 10
1754.393765
 20
1708.430049
 30
0.0
 11
1763.052882
 21
1704.392236
 31
0.0
  0
LINE
  5
444
102
{ACAD_REACTORS
330
693
102
}
330
1F
100
AcDbEntity
  8
LC-002-002-----0
 62
     7
370
    25
100
AcDbLine
 10
1790.105361
 20
1697.13
 30
0.0
 11
1788.105361
 21
1697.13
 31
0.0
  0
LINE
  5
445
102
{ACAD_REACTORS
330
693
102
}
330
1F
100
AcDbEntity
  8
LC-002-002-----0
 62
     7
370
    25
100
AcDbLine
 10
1787.107199
 20
1696.88
 30
0.0
 11
1788.105361
 21
1696.88
 31
0.0
  0
LINE
  5
446
102
{ACAD_REACTORS
330
693
102
}
330
1F
100
AcDbEntity
  8
LC-002-002-----0
 62
     7
370
    25
100
AcDbLine
 10
1782.133363
 20
1704.244159
 30
0.0
 11
1775.041921
 21
1704.306008
 31
0.0
  0
LINE
  5
447
102
{ACAD_REACTORS
330
693
102
}
330
1F
100
AcDbEntity
  8
LC-002-002-----0
 62
     7
370
    25
100
AcDbLine
 10
1763.052909
 20
1704.392223
 30
0.0
 11
1773.990426
 21
1704.296772
 31
0.0
  0
LINE
  5
448
102
{ACAD_REACTORS
330
693
102
}
330
1F
100
AcDbEntity
  8
LC-002-002-----0
 62
     7
370
    25
100
AcDbLine
 10
1786.122282
 20
1742.120672
 30
0.0
 11
1779.557318
 21
1740.050747
 31
0.0
  0
LINE
  5
449
102
{ACAD_REACTORS
330
693
102
}
330
1F
100
AcDbEntity
  8
LC-002-002-----0
 62
     7
370
    25
100
AcDbLine
 10
1754.393765
 20
1730.829951
 30
0.0
 11
1763.052882
 21
1734.867764
 31
0.0
  0
LINE
  5
44A
102
{ACAD_REACTORS
330
693
102
}
330
1F
100
AcDbEntity
  8
LC-002-002-----0
 62
     7
370
    25
100
AcDbLine
 10
1778.338115
 20
1739.310916
 30
0.0
 11
1773.990426
 21
1734.963228
 31
0.0
  0
LINE
  5
44B
102
{ACAD_REACTORS
330
693
102
}
330
1F
100
AcDbEntity
  8
LC-002-002-----0
 62
     7
370
    25
100
AcDbLine
 10
1788.105361
 20
1696.88
 30
0.0
 11
1788.105361
 21
1697.13
 31
0.0
  0
LINE
  5
44C
102
{ACAD_REACTORS
330
693
102
}
330
1F
100
AcDbEntity
  8
LC-002-002-----0
 62
     7
370
    25
100
AcDbLine
 10
1790.105361
 20
1742.129817
 30
0.0
 11
1790.105361
 21
1697.130183
 31
0.0
  0
ARC
  5
44D
102
{ACAD_REACTORS
330
693
102
}
330
1F
100
AcDbEntity
  8
LC-002-002-----0
 62
     7
370
    25
100
AcDbCircle
 10
1780.459435
 20
1737.189596
 30
0.0
 40
3.00000000000018
100
AcDbArc
 50
107.500173
 51
134.999934
  0
ARC
  5
44E
102
{ACAD_REACTORS
330
693
102
}
330
1F
100
AcDbEntity
  8
LC-002-002-----0
 62
     7
370
    25
100
AcDbCircle
 10
1787.107199
 20
1698.88
 30
0.0
 40
2.000000000000169
100
AcDbArc
 50
240.492633
 51
270.0
  0
ARC
  5
44F
102
{ACAD_REACTORS
330
693
102
}
330
1F
100
AcDbEntity
  8
LC-002-002-----0
 62
     7
370
    25
100
AcDbCircle
 10
1787.107199
 20
1740.38
 30
0.0
 40
2.0
100
AcDbArc
 50
90.0
 51
119.507367
  0
ARC
  5
450
102
{ACAD_REACTORS
330
693
102
}
330
1F
100
AcDbEntity
  8
LC-002-002-----0
 62
     7
370
    25
100
AcDbCircle
 10
1780.459435
 20
1702.070404
 30
0.0
 40
3.000000000000082
100
AcDbArc
 50
225.000066
 51
252.499827
  0
INSERT
  5
472
102
{ACAD_REACTORS
330
693
102
}
330
1F
100
AcDbEntity
  8
LC-002-002-----0
 62
     7
370
    25
100
AcDbBlockReference
  2
POLY8
 10
0.0
 20
0.0
 30
0.0
  0
LINE
  5
473
102
{ACAD_REACTORS
330
693
102
}
330
1F
100
AcDbEntity
  8
LC-002-002-----0
 62
     7
370
    25
100
AcDbLine
 10
1785.107199
 20
1698.893558
 30
0.0
 11
1785.107199
 21
1701.244273
 31
0.0
  0
LINE
  5
474
102
{ACAD_REACTORS
330
693
102
}
330
1F
100
AcDbEntity
  8
LC-002-002-----0
 62
     7
370
    25
100
AcDbLine
 10
1786.122128
 20
1742.120585
 30
0.0
 11
1786.122128
 21
1742.120585
 31
0.0
  0
LINE
  5
475
102
{ACAD_REACTORS
330
693
102
}
330
1F
100
AcDbEntity
  8
LC-002-002-----0
 62
     7
370
    25
100
AcDbLine
 10
1786.122128
 20
1742.120585
 30
0.0
 11
1786.095792
 21
1742.105187
 31
0.0
  0
LINE
  5
476
102
{ACAD_REACTORS
330
693
102
}
330
1F
100
AcDbEntity
  8
LC-002-002-----0
 62
     7
370
    25
100
AcDbLine
 10
1786.095792
 20
1742.105187
 30
0.0
 11
1786.095792
 21
1742.105187
 31
0.0
  0
LINE
  5
477
102
{ACAD_REACTORS
330
693
102
}
330
1F
100
AcDbEntity
  8
LC-002-002-----0
 62
     7
370
    25
100
AcDbLine
 10
1786.095792
 20
1742.105187
 30
0.0
 11
1786.030796
 21
1742.064771
 31
0.0
  0
LINE
  5
478
102
{ACAD_REACTORS
330
693
102
}
330
1F
100
AcDbEntity
  8
LC-002-002-----0
 62
     7
370
    25
100
AcDbLine
 10
1786.030796
 20
1742.064771
 30
0.0
 11
1786.030796
 21
1742.064771
 31
0.0
  0
LINE
  5
479
102
{ACAD_REACTORS
330
693
102
}
330
1F
100
AcDbEntity
  8
LC-002-002-----0
 62
     7
370
    25
100
AcDbLine
 10
1786.030796
 20
1742.064771
 30
0.0
 11
1785.950875
 21
1742.010071
 31
0.0
  0
LINE
  5
47A
102
{ACAD_REACTORS
330
693
102
}
330
1F
100
AcDbEntity
  8
LC-002-002-----0
 62
     7
370
    25
100
AcDbLine
 10
1785.950875
 20
1742.010071
 30
0.0
 11
1785.950875
 21
1742.010071
 31
0.0
  0
LINE
  5
47B
102
{ACAD_REACTORS
330
693
102
}
330
1F
100
AcDbEntity
  8
LC-002-002-----0
 62
     7
370
    25
100
AcDbLine
 10
1785.950875
 20
1742.010071
 30
0.0
 11
1785.86078
 21
1741.941153
 31
0.0
  0
LINE
  5
47C
102
{ACAD_REACTORS
330
693
102
}
330
1F
100
AcDbEntity
  8
LC-002-002-----0
 62
     7
370
    25
100
AcDbLine
 10
1785.86078
 20
1741.941153
 30
0.0
 11
1785.86078
 21
1741.941153
 31
0.0
  0
LINE
  5
47D
102
{ACAD_REACTORS
330
693
102
}
330
1F
100
AcDbEntity
  8
LC-002-002-----0
 62
     7
370
    25
100
AcDbLine
 10
1785.86078
 20
1741.941153
 30
0.0
 11
1785.763021
 21
1741.856493
 31
0.0
  0
LINE
  5
47E
102
{ACAD_REACTORS
330
693
102
}
330
1F
100
AcDbEntity
  8
LC-002-002-----0
 62
     7
370
    25
100
AcDbLine
 10
1785.763021
 20
1741.856493
 30
0.0
 11
1785.763021
 21
1741.856493
 31
0.0
  0
LINE
  5
47F
102
{ACAD_REACTORS
330
693
102
}
330
1F
100
AcDbEntity
  8
LC-002-002-----0
 62
     7
370
    25
100
AcDbLine
 10
1785.763021
 20
1741.856493
 30
0.0
 11
1785.659387
 21
1741.753574
 31
0.0
  0
LINE
  5
480
102
{ACAD_REACTORS
330
693
102
}
330
1F
100
AcDbEntity
  8
LC-002-002-----0
 62
     7
370
    25
100
AcDbLine
 10
1785.659387
 20
1741.753574
 30
0.0
 11
1785.659387
 21
1741.753574
 31
0.0
  0
LINE
  5
481
102
{ACAD_REACTORS
330
693
102
}
330
1F
100
AcDbEntity
  8
LC-002-002-----0
 62
     7
370
    25
100
AcDbLine
 10
1785.659387
 20
1741.753574
 30
0.0
 11
1785.550864
 21
1741.627869
 31
0.0
  0
LINE
  5
482
102
{ACAD_REACTORS
330
693
102
}
330
1F
100
AcDbEntity
  8
LC-002-002-----0
 62
     7
370
    25
100
AcDbLine
 10
1785.550864
 20
1741.627869
 30
0.0
 11
1785.550864
 21
1741.627869
 31
0.0
  0
LINE
  5
483
102
{ACAD_REACTORS
330
693
102
}
330
1F
100
AcDbEntity
  8
LC-002-002-----0
 62
     7
370
    25
100
AcDbLine
 10
1785.550864
 20
1741.627869
 30
0.0
 11
1785.439241
 21
1741.473218
 31
0.0
  0
LINE
  5
484
102
{ACAD_REACTORS
330
693
102
}
330
1F
100
AcDbEntity
  8
LC-002-002-----0
 62
     7
370
    25
100
AcDbLine
 10
1785.439241
 20
1741.473218
 30
0.0
 11
1785.439241
 21
1741.473218
 31
0.0
  0
LINE
  5
485
102
{ACAD_REACTORS
330
693
102
}
330
1F
100
AcDbEntity
  8
LC-002-002-----0
 62
     7
370
    25
100
AcDbLine
 10
1785.439241
 20
1741.473218
 30
0.0
 11
1785.328656
 21
1741.282481
 31
0.0
  0
LINE
  5
486
102
{ACAD_REACTORS
330
693
102
}
330
1F
100
AcDbEntity
  8
LC-002-002-----0
 62
     7
370
    25
100
AcDbLine
 10
1785.328656
 20
1741.282481
 30
0.0
 11
1785.328656
 21
1741.282481
 31
0.0
  0
LINE
  5
487
102
{ACAD_REACTORS
330
693
102
}
330
1F
100
AcDbEntity
  8
LC-002-002-----0
 62
     7
370
    25
100
AcDbLine
 10
1785.328656
 20
1741.282481
 30
0.0
 11
1785.22836
 21
1741.052293
 31
0.0
  0
LINE
  5
488
102
{ACAD_REACTORS
330
693
102
}
330
1F
100
AcDbEntity
  8
LC-002-002-----0
 62
     7
370
    25
100
AcDbLine
 10
1785.228363
 20
1741.052424
 30
0.0
 11
1785.228363
 21
1741.052424
 31
0.0
  0
LINE
  5
489
102
{ACAD_REACTORS
330
693
102
}
330
1F
100
AcDbEntity
  8
LC-002-002-----0
 62
     7
370
    25
100
AcDbLine
 10
1785.228363
 20
1741.052424
 30
0.0
 11
1785.161403
 21
1740.82918
 31
0.0
  0
LINE
  5
48A
102
{ACAD_REACTORS
330
693
102
}
330
1F
100
AcDbEntity
  8
LC-002-002-----0
 62
     7
370
    25
100
AcDbLine
 10
1785.161403
 20
1740.82918
 30
0.0
 11
1785.161403
 21
1740.82918
 31
0.0
  0
LINE
  5
48B
102
{ACAD_REACTORS
330
693
102
}
330
1F
100
AcDbEntity
  8
LC-002-002-----0
 62
     7
370
    25
100
AcDbLine
 10
1785.161403
 20
1740.82918
 30
0.0
 11
1785.120772
 21
1740.599154
 31
0.0
  0
LINE
  5
48C
102
{ACAD_REACTORS
330
693
102
}
330
1F
100
AcDbEntity
  8
LC-002-002-----0
 62
     7
370
    25
100
AcDbLine
 10
1785.120772
 20
1740.599154
 30
0.0
 11
1785.120772
 21
1740.599154
 31
0.0
  0
LINE
  5
48D
102
{ACAD_REACTORS
330
693
102
}
330
1F
100
AcDbEntity
  8
LC-002-002-----0
 62
     7
370
    25
100
AcDbLine
 10
1785.120772
 20
1740.599154
 30
0.0
 11
1785.107199
 21
1740.366442
 31
0.0
  0
LINE
  5
48E
102
{ACAD_REACTORS
330
693
102
}
330
1F
100
AcDbEntity
  8
LC-002-002-----0
 62
     7
370
    25
100
AcDbLine
 10
1785.228363
 20
1698.207576
 30
0.0
 11
1785.228363
 21
1698.207576
 31
0.0
  0
LINE
  5
48F
102
{ACAD_REACTORS
330
693
102
}
330
1F
100
AcDbEntity
  8
LC-002-002-----0
 62
     7
370
    25
100
AcDbLine
 10
1785.228363
 20
1698.207576
 30
0.0
 11
1785.161403
 21
1698.43082
 31
0.0
  0
LINE
  5
490
102
{ACAD_REACTORS
330
693
102
}
330
1F
100
AcDbEntity
  8
LC-002-002-----0
 62
     7
370
    25
100
AcDbLine
 10
1785.161403
 20
1698.43082
 30
0.0
 11
1785.161403
 21
1698.43082
 31
0.0
  0
LINE
  5
491
102
{ACAD_REACTORS
330
693
102
}
330
1F
100
AcDbEntity
  8
LC-002-002-----0
 62
     7
370
    25
100
AcDbLine
 10
1785.161403
 20
1698.43082
 30
0.0
 11
1785.120772
 21
1698.660846
 31
0.0
  0
LINE
  5
492
102
{ACAD_REACTORS
330
693
102
}
330
1F
100
AcDbEntity
  8
LC-002-002-----0
 62
     7
370
    25
100
AcDbLine
 10
1785.120772
 20
1698.660846
 30
0.0
 11
1785.120772
 21
1698.660846
 31
0.0
  0
LINE
  5
493
102
{ACAD_REACTORS
330
693
102
}
330
1F
100
AcDbEntity
  8
LC-002-002-----0
 62
     7
370
    25
100
AcDbLine
 10
1785.120772
 20
1698.660846
 30
0.0
 11
1785.107199
 21
1698.893558
 31
0.0
  0
LINE
  5
494
102
{ACAD_REACTORS
330
693
102
}
330
1F
100
AcDbEntity
  8
LC-002-002-----0
 62
     7
370
    25
100
AcDbLine
 10
1785.107199
 20
1738.015727
 30
0.0
 11
1785.107199
 21
1740.366442
 31
0.0
  0
INSERT
  5
4A2
102
{ACAD_REACTORS
330
693
102
}
330
1F
100
AcDbEntity
  8
LC-002-002-----0
 62
     7
370
    25
100
AcDbBlockReference
  2
POLY9
 10
0.0
 20
0.0
 30
0.0
  0
INSERT
  5
4B0
102
{ACAD_REACTORS
330
693
102
}
330
1F
100
AcDbEntity
  8
LC-002-002-----0
 62
     7
370
    25
100
AcDbBlockReference
  2
POLY10
 10
0.0
 20
0.0
 30
0.0
  0
LINE
  5
4B1
102
{ACAD_REACTORS
330
693
102
}
330
1F
100
AcDbEntity
  8
LC-002-002-----0
 62
     7
370
    25
100
AcDbLine
 10
1687.800492
 20
1730.83
 30
0.0
 11
1754.393869
 21
1730.83
 31
0.0
  0
LINE
  5
4B2
102
{ACAD_REACTORS
330
693
102
}
330
1F
100
AcDbEntity
  8
LC-002-002-----0
 62
     7
370
    25
100
AcDbLine
 10
1687.800492
 20
1708.43
 30
0.0
 11
1754.393869
 21
1708.43
 31
0.0
  0
LINE
  5
4B3
102
{ACAD_REACTORS
330
693
102
}
330
1F
100
AcDbEntity
  8
LC-002-002-----0
 62
     7
370
    25
100
AcDbLine
 10
1788.105361
 20
1742.13
 30
0.0
 11
1788.105361
 21
1742.38
 31
0.0
  0
LINE
  5
4B4
102
{ACAD_REACTORS
330
695
102
}
330
1F
100
AcDbEntity
  8
LC-002-002-----0
 62
     7
370
    25
100
AcDbLine
 10
1568.407811
 20
1757.13
 30
0.0
 11
1568.407811
 21
1759.135437
 31
0.0
  0
LINE
  5
4B5
102
{ACAD_REACTORS
330
695
102
}
330
1F
100
AcDbEntity
  8
LC-002-002-----0
 62
     7
370
    25
100
AcDbLine
 10
1565.90781
 20
1755.128137
 30
0.0
 11
1565.90781
 21
1757.13
 31
0.0
  0
LINE
  5
4B6
102
{ACAD_REACTORS
330
695
102
}
330
1F
100
AcDbEntity
  8
LC-002-002-----0
 62
     7
370
    25
100
AcDbLine
 10
1508.148263
 20
1773.13
 30
0.0
 11
1506.993488
 21
1773.13
 31
0.0
  0
ARC
  5
4B7
102
{ACAD_REACTORS
330
69C
102
}
330
1F
100
AcDbEntity
  8
LC-002-002-----0
 62
     7
370
    25
100
AcDbCircle
 10
1533.948263
 20
1844.63
 30
0.0
 40
21.80000000000009
100
AcDbArc
 50
336.553383
 51
23.446617
  0
LINE
  5
4B8
102
{ACAD_REACTORS
330
69C
102
}
330
1F
100
AcDbEntity
  8
LC-002-002-----0
 62
     7
370
    25
100
AcDbLine
 10
1495.71881
 20
1965.655419
 30
0.0
 11
1496.489354
 21
1967.135621
 31
0.0
  0
LINE
  5
4B9
102
{ACAD_REACTORS
330
69C
102
}
330
1F
100
AcDbEntity
  8
LC-002-002-----0
 62
     7
370
    25
100
AcDbLine
 10
1497.25963
 20
1965.655307
 30
0.0
 11
1498.030287
 21
1967.135727
 31
0.0
  0
LINE
  5
4BA
102
{ACAD_REACTORS
330
69C
102
}
330
1F
100
AcDbEntity
  8
LC-002-002-----0
 62
     7
370
    25
100
AcDbLine
 10
1498.800567
 20
1965.655419
 30
0.0
 11
1499.570999
 21
1967.135406
 31
0.0
  0
LINE
  5
4BB
102
{ACAD_REACTORS
330
69C
102
}
330
1F
100
AcDbEntity
  8
LC-002-002-----0
 62
     7
370
    25
100
AcDbLine
 10
1500.341445
 20
1965.655419
 30
0.0
 11
1501.111878
 21
1967.135406
 31
0.0
  0
LINE
  5
4BC
102
{ACAD_REACTORS
330
69C
102
}
330
1F
100
AcDbEntity
  8
LC-002-002-----0
 62
     7
370
    25
100
AcDbLine
 10
1501.882323
 20
1965.655419
 30
0.0
 11
1502.652756
 21
1967.135406
 31
0.0
  0
LINE
  5
4BD
102
{ACAD_REACTORS
330
69C
102
}
330
1F
100
AcDbEntity
  8
LC-002-002-----0
 62
     7
370
    25
100
AcDbLine
 10
1503.423202
 20
1965.655419
 30
0.0
 11
1504.193635
 21
1967.135406
 31
0.0
  0
LINE
  5
4BE
102
{ACAD_REACTORS
330
69C
102
}
330
1F
100
AcDbEntity
  8
LC-002-002-----0
 62
     7
370
    25
100
AcDbLine
 10
1504.96408
 20
1965.655419
 30
0.0
 11
1505.734513
 21
1967.135406
 31
0.0
  0
LINE
  5
4BF
102
{ACAD_REACTORS
330
69C
102
}
330
1F
100
AcDbEntity
  8
LC-002-002-----0
 62
     7
370
    25
100
AcDbLine
 10
1507.734539
 20
1966.421489
 30
0.0
 11
1510.848288
 21
1969.535238
 31
0.0
  0
LINE
  5
4C0
102
{ACAD_REACTORS
330
69C
102
}
330
1F
100
AcDbEntity
  8
LC-002-002-----0
 62
     7
370
    25
100
AcDbLine
 10
1493.948263
 20
1967.135213
 30
0.0
 11
1493.948263
 21
2011.935213
 31
0.0
  0
LINE
  5
4C1
102
{ACAD_REACTORS
330
69C
102
}
330
1F
100
AcDbEntity
  8
LC-002-002-----0
 62
     7
370
    25
100
AcDbLine
 10
1511.948384
 20
1961.63012
 30
0.0
 11
1513.948288
 21
1963.630024
 31
0.0
  0
LINE
  5
4C2
102
{ACAD_REACTORS
330
69C
102
}
330
1F
100
AcDbEntity
  8
LC-002-002-----0
 62
     7
370
    25
100
AcDbLine
 10
1510.848263
 20
2009.535213
 30
0.0
 11
1513.948263
 21
2009.535213
 31
0.0
  0
LINE
  5
4C3
102
{ACAD_REACTORS
330
69C
102
}
330
1F
100
AcDbEntity
  8
LC-002-002-----0
 62
     7
370
    25
100
AcDbLine
 10
1506.24347
 20
1937.13
 30
0.0
 11
1506.24347
 21
1939.63
 31
0.0
  0
LINE
  5
4C4
102
{ACAD_REACTORS
330
69C
102
}
330
1F
100
AcDbEntity
  8
LC-002-002-----0
 62
     7
370
    25
100
AcDbLine
 10
1506.99347
 20
1936.13
 30
0.0
 11
1506.99347
 21
1936.38
 31
0.0
  0
LINE
  5
4C5
102
{ACAD_REACTORS
330
69C
102
}
330
1F
100
AcDbEntity
  8
LC-002-002-----0
 62
     7
370
    25
100
AcDbLine
 10
1507.734539
 20
1966.421489
 30
0.0
 11
1507.734539
 21
2012.648938
 31
0.0
  0
LINE
  5
4C6
102
{ACAD_REACTORS
330
69C
102
}
330
1F
100
AcDbEntity
  8
LC-002-002-----0
 62
     7
370
    25
100
AcDbLine
 10
1508.148263
 20
1936.13
 30
0.0
 11
1508.148263
 21
1922.63
 31
0.0
  0
LINE
  5
4C7
102
{ACAD_REACTORS
330
69C
102
}
330
1F
100
AcDbEntity
  8
LC-002-002-----0
 62
     7
370
    25
100
AcDbLine
 10
1511.948263
 20
1939.63
 30
0.0
 11
1511.948263
 21
1961.63
 31
0.0
  0
LINE
  5
4C8
102
{ACAD_REACTORS
330
69C
102
}
330
1F
100
AcDbEntity
  8
LC-002-002-----0
 62
     7
370
    25
100
AcDbLine
 10
1513.948263
 20
1788.63
 30
0.0
 11
1513.948263
 21
1920.63
 31
0.0
  0
LINE
  5
4C9
102
{ACAD_REACTORS
330
69C
102
}
330
1F
100
AcDbEntity
  8
LC-002-002-----0
 62
     7
370
    25
100
AcDbLine
 10
1513.948263
 20
1969.030598
 30
0.0
 11
1513.948263
 21
1963.63
 31
0.0
  0
LINE
  5
4CA
102
{ACAD_REACTORS
330
69C
102
}
330
1F
100
AcDbEntity
  8
LC-002-002-----0
 62
     7
370
    25
100
AcDbLine
 10
1553.948263
 20
1788.63
 30
0.0
 11
1553.948263
 21
1920.63
 31
0.0
  0
LINE
  5
4CB
102
{ACAD_REACTORS
330
69C
102
}
330
1F
100
AcDbEntity
  8
LC-002-002-----0
 62
     7
370
    25
100
AcDbLine
 10
1553.948263
 20
1969.535213
 30
0.0
 11
1553.948263
 21
1963.63
 31
0.0
  0
LINE
  5
4CC
102
{ACAD_REACTORS
330
69C
102
}
330
1F
100
AcDbEntity
  8
LC-002-002-----0
 62
     7
370
    25
100
AcDbLine
 10
1555.948263
 20
1939.63
 30
0.0
 11
1555.948263
 21
1961.63
 31
0.0
  0
LINE
  5
4CD
102
{ACAD_REACTORS
330
69C
102
}
330
1F
100
AcDbEntity
  8
LC-002-002-----0
 62
     7
370
    25
100
AcDbLine
 10
1560.903055
 20
1936.379999
 30
0.0
 11
1561.653055
 21
1937.129999
 31
0.0
  0
LINE
  5
4CE
102
{ACAD_REACTORS
330
69C
102
}
330
1F
100
AcDbEntity
  8
LC-002-002-----0
 62
     7
370
    25
100
AcDbLine
 10
1510.848263
 20
1969.535213
 30
0.0
 11
1513.443648
 21
1969.535213
 31
0.0
  0
LINE
  5
4CF
102
{ACAD_REACTORS
330
69C
102
}
330
1F
100
AcDbEntity
  8
LC-002-002-----0
 62
     7
370
    25
100
AcDbLine
 10
1493.948263
 20
1967.135213
 30
0.0
 11
1494.948263
 21
1967.135213
 31
0.0
  0
LINE
  5
4D0
102
{ACAD_REACTORS
330
69C
102
}
330
1F
100
AcDbEntity
  8
LC-002-002-----0
 62
     7
370
    25
100
AcDbLine
 10
1505.734413
 20
1967.135213
 30
0.0
 11
1507.734413
 21
1967.135213
 31
0.0
  0
LINE
  5
4D1
102
{ACAD_REACTORS
330
69C
102
}
330
1F
100
AcDbEntity
  8
LC-002-002-----0
 62
     7
370
    25
100
AcDbLine
 10
1559.748263
 20
1936.13
 30
0.0
 11
1559.748263
 21
1922.63
 31
0.0
  0
LINE
  5
4D2
102
{ACAD_REACTORS
330
69C
102
}
330
1F
100
AcDbEntity
  8
LC-002-002-----0
 62
     7
370
    25
100
AcDbLine
 10
1560.903057
 20
1936.13
 30
0.0
 11
1560.903057
 21
1936.38
 31
0.0
  0
LINE
  5
4D3
102
{ACAD_REACTORS
330
69C
102
}
330
1F
100
AcDbEntity
  8
LC-002-002-----0
 62
     7
370
    25
100
AcDbLine
 10
1561.653057
 20
1937.13
 30
0.0
 11
1561.653057
 21
1939.63
 31
0.0
  0
LINE
  5
4D4
102
{ACAD_REACTORS
330
69C
102
}
330
1F
100
AcDbEntity
  8
LC-002-002-----0
 62
     7
370
    25
100
AcDbLine
 10
1506.24347
 20
1939.63
 30
0.0
 11
1561.653057
 21
1939.63
 31
0.0
  0
LINE
  5
4D5
102
{ACAD_REACTORS
330
69C
102
}
330
1F
100
AcDbEntity
  8
LC-002-002-----0
 62
     7
370
    25
100
AcDbLine
 10
1560.903057
 20
1936.13
 30
0.0
 11
1506.99347
 21
1936.13
 31
0.0
  0
LINE
  5
4D6
102
{ACAD_REACTORS
330
69C
102
}
330
1F
100
AcDbEntity
  8
LC-002-002-----0
 62
     7
370
    25
100
AcDbLine
 10
1557.748383
 20
1920.63
 30
0.0
 11
1510.148263
 21
1920.63
 31
0.0
  0
LINE
  5
4D7
102
{ACAD_REACTORS
330
69C
102
}
330
1F
100
AcDbEntity
  8
LC-002-002-----0
 62
     7
370
    25
100
AcDbLine
 10
1507.734539
 20
2012.648938
 30
0.0
 11
1510.848288
 21
2009.535189
 31
0.0
  0
LINE
  5
4D8
102
{ACAD_REACTORS
330
69C
102
}
330
1F
100
AcDbEntity
  8
LC-002-002-----0
 62
     7
370
    25
100
AcDbLine
 10
1555.948143
 20
1961.63012
 30
0.0
 11
1553.948206
 21
1963.630058
 31
0.0
  0
LINE
  5
4D9
102
{ACAD_REACTORS
330
69C
102
}
330
1F
100
AcDbEntity
  8
LC-002-002-----0
 62
     7
370
    25
100
AcDbLine
 10
1506.993471
 20
1936.379999
 30
0.0
 11
1506.243471
 21
1937.129999
 31
0.0
  0
LINE
  5
4DA
102
{ACAD_REACTORS
330
69C
102
}
330
1F
100
AcDbEntity
  8
LC-002-002-----0
 62
     7
370
    25
100
AcDbLine
 10
1504.193488
 20
1967.135301
 30
0.0
 11
1504.963925
 21
1965.655307
 31
0.0
  0
LINE
  5
4DB
102
{ACAD_REACTORS
330
69C
102
}
330
1F
100
AcDbEntity
  8
LC-002-002-----0
 62
     7
370
    25
100
AcDbLine
 10
1502.65261
 20
1967.135301
 30
0.0
 11
1503.423046
 21
1965.655307
 31
0.0
  0
LINE
  5
4DC
102
{ACAD_REACTORS
330
69C
102
}
330
1F
100
AcDbEntity
  8
LC-002-002-----0
 62
     7
370
    25
100
AcDbLine
 10
1501.111731
 20
1967.135301
 30
0.0
 11
1501.882168
 21
1965.655307
 31
0.0
  0
LINE
  5
4DD
102
{ACAD_REACTORS
330
69C
102
}
330
1F
100
AcDbEntity
  8
LC-002-002-----0
 62
     7
370
    25
100
AcDbLine
 10
1499.570853
 20
1967.135301
 30
0.0
 11
1500.341289
 21
1965.655307
 31
0.0
  0
LINE
  5
4DE
102
{ACAD_REACTORS
330
69C
102
}
330
1F
100
AcDbEntity
  8
LC-002-002-----0
 62
     7
370
    25
100
AcDbLine
 10
1498.029808
 20
1967.135621
 30
0.0
 11
1498.800411
 21
1965.655307
 31
0.0
  0
LINE
  5
4DF
102
{ACAD_REACTORS
330
69C
102
}
330
1F
100
AcDbEntity
  8
LC-002-002-----0
 62
     7
370
    25
100
AcDbLine
 10
1496.488875
 20
1967.135727
 30
0.0
 11
1497.259474
 21
1965.655419
 31
0.0
  0
LINE
  5
4E0
102
{ACAD_REACTORS
330
69C
102
}
330
1F
100
AcDbEntity
  8
LC-002-002-----0
 62
     7
370
    25
100
AcDbLine
 10
1494.948051
 20
1967.135621
 30
0.0
 11
1495.718654
 21
1965.655307
 31
0.0
  0
ARC
  5
4E1
102
{ACAD_REACTORS
330
69C
102
}
330
1F
100
AcDbEntity
  8
LC-002-002-----0
 62
     7
370
    25
100
AcDbCircle
 10
1513.948263
 20
1969.535213
 30
0.0
 40
39.99972357249999
100
AcDbArc
 50
0.0
 51
90.0
  0
ARC
  5
4E2
102
{ACAD_REACTORS
330
69C
102
}
330
1F
100
AcDbEntity
  8
LC-002-002-----0
 62
     7
370
    25
100
AcDbCircle
 10
1510.148263
 20
1922.63
 30
0.0
 40
2.0
100
AcDbArc
 50
180.0
 51
270.0
  0
ARC
  5
4E3
102
{ACAD_REACTORS
330
69C
102
}
330
1F
100
AcDbEntity
  8
LC-002-002-----0
 62
     7
370
    25
100
AcDbCircle
 10
1557.748263
 20
1922.63
 30
0.0
 40
2.0
100
AcDbArc
 50
270.0
 51
360.0
  0
LINE
  5
4E4
102
{ACAD_REACTORS
330
69C
102
}
330
1F
100
AcDbEntity
  8
LC-002-002-----0
 62
     7
370
    25
100
AcDbLine
 10
1513.443648
 20
1969.535213
 30
0.0
 11
1513.801817
 21
1969.388767
 31
0.0
  0
LINE
  5
4E5
102
{ACAD_REACTORS
330
69C
102
}
330
1F
100
AcDbEntity
  8
LC-002-002-----0
 62
     7
370
    25
100
AcDbLine
 10
1513.801817
 20
1969.388767
 30
0.0
 11
1513.948263
 21
1969.030598
 31
0.0
  0
LINE
  5
4E6
102
{ACAD_REACTORS
330
69C
102
}
330
1F
100
AcDbEntity
  8
LC-002-002-----0
 62
     7
370
    25
100
AcDbLine
 10
1495.71881
 20
2013.415008
 30
0.0
 11
1496.489354
 21
2011.934805
 31
0.0
  0
LINE
  5
4E7
102
{ACAD_REACTORS
330
69C
102
}
330
1F
100
AcDbEntity
  8
LC-002-002-----0
 62
     7
370
    25
100
AcDbLine
 10
1497.25963
 20
2013.41512
 30
0.0
 11
1498.030287
 21
2011.9347
 31
0.0
  0
LINE
  5
4E8
102
{ACAD_REACTORS
330
69C
102
}
330
1F
100
AcDbEntity
  8
LC-002-002-----0
 62
     7
370
    25
100
AcDbLine
 10
1498.800567
 20
2013.415008
 30
0.0
 11
1499.570999
 21
2011.93502
 31
0.0
  0
LINE
  5
4E9
102
{ACAD_REACTORS
330
69C
102
}
330
1F
100
AcDbEntity
  8
LC-002-002-----0
 62
     7
370
    25
100
AcDbLine
 10
1500.341445
 20
2013.415008
 30
0.0
 11
1501.111878
 21
2011.93502
 31
0.0
  0
LINE
  5
4EA
102
{ACAD_REACTORS
330
69C
102
}
330
1F
100
AcDbEntity
  8
LC-002-002-----0
 62
     7
370
    25
100
AcDbLine
 10
1501.882323
 20
2013.415008
 30
0.0
 11
1502.652756
 21
2011.93502
 31
0.0
  0
LINE
  5
4EB
102
{ACAD_REACTORS
330
69C
102
}
330
1F
100
AcDbEntity
  8
LC-002-002-----0
 62
     7
370
    25
100
AcDbLine
 10
1503.423202
 20
2013.415008
 30
0.0
 11
1504.193635
 21
2011.93502
 31
0.0
  0
LINE
  5
4EC
102
{ACAD_REACTORS
330
69C
102
}
330
1F
100
AcDbEntity
  8
LC-002-002-----0
 62
     7
370
    25
100
AcDbLine
 10
1504.96408
 20
2013.415008
 30
0.0
 11
1505.734513
 21
2011.93502
 31
0.0
  0
LINE
  5
4ED
102
{ACAD_REACTORS
330
69C
102
}
330
1F
100
AcDbEntity
  8
LC-002-002-----0
 62
     7
370
    25
100
AcDbLine
 10
1493.948263
 20
2011.935213
 30
0.0
 11
1494.948263
 21
2011.935213
 31
0.0
  0
LINE
  5
4EE
102
{ACAD_REACTORS
330
69C
102
}
330
1F
100
AcDbEntity
  8
LC-002-002-----0
 62
     7
370
    25
100
AcDbLine
 10
1505.734413
 20
2011.935213
 30
0.0
 11
1507.734413
 21
2011.935213
 31
0.0
  0
LINE
  5
4EF
102
{ACAD_REACTORS
330
69C
102
}
330
1F
100
AcDbEntity
  8
LC-002-002-----0
 62
     7
370
    25
100
AcDbLine
 10
1504.193488
 20
2011.935126
 30
0.0
 11
1504.963925
 21
2013.41512
 31
0.0
  0
LINE
  5
4F0
102
{ACAD_REACTORS
330
69C
102
}
330
1F
100
AcDbEntity
  8
LC-002-002-----0
 62
     7
370
    25
100
AcDbLine
 10
1502.65261
 20
2011.935126
 30
0.0
 11
1503.423046
 21
2013.41512
 31
0.0
  0
LINE
  5
4F1
102
{ACAD_REACTORS
330
69C
102
}
330
1F
100
AcDbEntity
  8
LC-002-002-----0
 62
     7
370
    25
100
AcDbLine
 10
1501.111731
 20
2011.935126
 30
0.0
 11
1501.882168
 21
2013.41512
 31
0.0
  0
LINE
  5
4F2
102
{ACAD_REACTORS
330
69C
102
}
330
1F
100
AcDbEntity
  8
LC-002-002-----0
 62
     7
370
    25
100
AcDbLine
 10
1499.570853
 20
2011.935126
 30
0.0
 11
1500.341289
 21
2013.41512
 31
0.0
  0
LINE
  5
4F3
102
{ACAD_REACTORS
330
69C
102
}
330
1F
100
AcDbEntity
  8
LC-002-002-----0
 62
     7
370
    25
100
AcDbLine
 10
1498.029808
 20
2011.934805
 30
0.0
 11
1498.800411
 21
2013.41512
 31
0.0
  0
LINE
  5
4F4
102
{ACAD_REACTORS
330
69C
102
}
330
1F
100
AcDbEntity
  8
LC-002-002-----0
 62
     7
370
    25
100
AcDbLine
 10
1496.488875
 20
2011.9347
 30
0.0
 11
1497.259474
 21
2013.415008
 31
0.0
  0
LINE
  5
4F5
102
{ACAD_REACTORS
330
69C
102
}
330
1F
100
AcDbEntity
  8
LC-002-002-----0
 62
     7
370
    25
100
AcDbLine
 10
1494.948051
 20
2011.934805
 30
0.0
 11
1495.718654
 21
2013.41512
 31
0.0
  0
ARC
  5
4F6
102
{ACAD_REACTORS
330
69C
102
}
330
1F
100
AcDbEntity
  8
LC-002-002-----0
 62
     7
370
    25
100
AcDbCircle
 10
1528.848263
 20
1853.463459
 30
0.0
 40
36.00000000000017
100
AcDbArc
 50
278.141966
 51
278.144301
  0
LINE
  5
4F7
102
{ACAD_REACTORS
330
69C
102
}
330
1F
100
AcDbEntity
  8
LC-002-002-----0
 62
     7
370
    25
100
AcDbLine
 10
1533.946811
 20
1936.13
 30
0.0
 11
1533.946811
 21
1922.63
 31
0.0
  0
INSERT
  5
507
102
{ACAD_REACTORS
330
69C
102
}
330
1F
100
AcDbEntity
  8
LC-002-002-----0
 62
     7
370
    25
100
AcDbBlockReference
  2
POLY11
 10
0.0
 20
0.0
 30
0.0
  0
ARC
  5
508
102
{ACAD_REACTORS
330
69C
102
}
330
1F
100
AcDbEntity
  8
LC-002-002-----0
 62
     7
370
    25
100
AcDbCircle
 10
1539.048263
 20
1853.463459
 30
0.0
 40
36.00000000000123
100
AcDbArc
 50
261.855699
 51
261.858034
  0
ARC
  5
509
102
{ACAD_REACTORS
330
69C
102
}
330
1F
100
AcDbEntity
  8
LC-002-002-----0
 62
     7
370
    25
100
AcDbCircle
 10
1533.948263
 20
1844.63
 30
0.0
 40
27.70479324130082
100
AcDbArc
 50
136.211302
 51
223.788698
  0
ARC
  5
50A
102
{ACAD_REACTORS
330
69C
102
}
330
1F
100
AcDbEntity
  8
LC-002-002-----0
 62
     7
370
    25
100
AcDbCircle
 10
1533.948263
 20
1844.63
 30
0.0
 40
27.70479324130097
100
AcDbArc
 50
316.211302
 51
43.788698
  0
ARC
  5
50B
102
{ACAD_REACTORS
330
69C
102
}
330
1F
100
AcDbEntity
  8
LC-002-002-----0
 62
     7
370
    25
100
AcDbCircle
 10
1533.948263
 20
1844.63
 30
0.0
 40
21.7999999999997
100
AcDbArc
 50
156.553383
 51
203.446617
  0
INSERT
  5
525
102
{ACAD_REACTORS
330
68F
102
}
330
1F
100
AcDbEntity
  8
LC-010-003-----0
 62
     7
370
    25
100
AcDbBlockReference
  2
LCDIM5
 10
0.0
 20
0.0
 30
0.0
  0
INSERT
  5
53F
102
{ACAD_REACTORS
330
68F
102
}
330
1F
100
AcDbEntity
  8
LC-010-003-----0
 62
     7
370
    25
100
AcDbBlockReference
  2
LCDIM6
 10
0.0
 20
0.0
 30
0.0
  0
INSERT
  5
559
102
{ACAD_REACTORS
330
68C
102
}
330
1F
100
AcDbEntity
  8
LC-010-003-----0
 62
     7
370
    25
100
AcDbBlockReference
  2
LCDIM7
 10
0.0
 20
0.0
 30
0.0
  0
INSERT
  5
573
102
{ACAD_REACTORS
330
68C
102
}
330
1F
100
AcDbEntity
  8
LC-010-003-----0
 62
     7
370
    25
100
AcDbBlockReference
  2
LCDIM8
 10
0.0
 20
0.0
 30
0.0
  0
LINE
  5
574
102
{ACAD_REACTORS
330
68E
102
}
330
1F
100
AcDbEntity
  8
LC-002-002-----0
 62
     7
370
    50
100
AcDbLine
 10
856.496208
 20
1006.342023
 30
0.0
 11
446.496208
 21
1006.342023
 31
0.0
  0
LINE
  5
575
102
{ACAD_REACTORS
330
68E
102
}
330
1F
100
AcDbEntity
  8
LC-002-002-----0
 62
     7
370
    50
100
AcDbLine
 10
441.496208
 20
1001.342023
 30
0.0
 11
441.496208
 21
803.842023
 31
0.0
  0
LINE
  5
576
102
{ACAD_REACTORS
330
68E
102
}
330
1F
100
AcDbEntity
  8
LC-002-002-----0
 62
     7
370
    50
100
AcDbLine
 10
446.496208
 20
798.842023
 30
0.0
 11
856.496208
 21
798.842023
 31
0.0
  0
LINE
  5
577
102
{ACAD_REACTORS
330
68E
102
}
330
1F
100
AcDbEntity
  8
LC-002-002-----0
 62
     7
370
    50
100
AcDbLine
 10
861.496208
 20
803.842023
 30
0.0
 11
861.496208
 21
1001.342023
 31
0.0
  0
LINE
  5
578
102
{ACAD_REACTORS
330
691
102
}
330
1F
100
AcDbEntity
  8
LC-002-002-----0
  6
DASHDOT
 62
     7
370
    25
100
AcDbLine
 10
854.496208
 20
775.608642
 30
0.0
 11
854.496208
 21
1034.813956
 31
0.0
  0
LINE
  5
579
102
{ACAD_REACTORS
330
691
102
}
330
1F
100
AcDbEntity
  8
LC-002-002-----0
  6
DASHDOT
 62
     7
370
    25
100
AcDbLine
 10
638.996208
 20
775.608642
 30
0.0
 11
638.996208
 21
1034.813956
 31
0.0
  0
LINE
  5
57A
102
{ACAD_REACTORS
330
691
102
}
330
1F
100
AcDbEntity
  8
LC-002-002-----0
  6
DASHDOT
 62
     7
370
    25
100
AcDbLine
 10
648.496208
 20
775.608642
 30
0.0
 11
648.496208
 21
1034.813956
 31
0.0
  0
INSERT
  5
594
102
{ACAD_REACTORS
330
691
102
}
330
1F
100
AcDbEntity
  8
LC-010-003-----0
 62
     7
370
    25
100
AcDbBlockReference
  2
LCDIM9
 10
0.0
 20
0.0
 30
0.0
  0
INSERT
  5
5AE
102
{ACAD_REACTORS
330
691
102
}
330
1F
100
AcDbEntity
  8
LC-010-003-----0
 62
     7
370
    25
100
AcDbBlockReference
  2
LCDIM10
 10
0.0
 20
0.0
 30
0.0
  0
INSERT
  5
5C8
102
{ACAD_REACTORS
330
691
102
}
330
1F
100
AcDbEntity
  8
LC-010-003-----0
 62
     7
370
    25
100
AcDbBlockReference
  2
LCDIM11
 10
0.0
 20
0.0
 30
0.0
  0
INSERT
  5
5E2
102
{ACAD_REACTORS
330
691
102
}
330
1F
100
AcDbEntity
  8
LC-010-003-----0
 62
     7
370
    25
100
AcDbBlockReference
  2
LCDIM12
 10
0.0
 20
0.0
 30
0.0
  0
INSERT
  5
5F1
102
{ACAD_REACTORS
330
691
102
}
330
1F
100
AcDbEntity
  8
LC-010-003-----0
 62
     7
370
    25
100
AcDbBlockReference
  2
LCDIM13
 10
0.0
 20
0.0
 30
0.0
  0
TEXT
  5
5F3
102
{ACAD_REACTORS
330
691
102
}
330
1F
100
AcDbEntity
  8
LC-011-004-----0
 62
     7
370
    35
100
AcDbText
 10
449.854064
 20
1132.032422
 30
0.0
 40
35.0
  1
Ausschnitt übergreifend
 41
0.8
  7
LCTX0-400-0-0pDIN-Schrift
100
AcDbText
  0
TEXT
  5
5F4
102
{ACAD_REACTORS
330
691
102
}
330
1F
100
AcDbEntity
  8
LC-011-004-----0
 62
     7
370
    35
100
AcDbText
 10
449.854064
 20
1062.032422
 30
0.0
 40
35.0
  1
1:20
 41
0.8
  7
LCTX0-400-0-0pDIN-Schrift
100
AcDbText
  0
LINE
  5
5F5
102
{ACAD_REACTORS
330
690
102
}
330
1F
100
AcDbEntity
  8
LC-002-002-----0
 62
     7
370
    50
100
AcDbLine
 10
1685.215574
 20
1024.647707
 30
0.0
 11
1275.215574
 21
1024.647707
 31
0.0
  0
LINE
  5
5F6
102
{ACAD_REACTORS
330
690
102
}
330
1F
100
AcDbEntity
  8
LC-002-002-----0
 62
     7
370
    50
100
AcDbLine
 10
1268.715574
 20
1018.147707
 30
0.0
 11
1268.715574
 21
820.647707
 31
0.0
  0
LINE
  5
5F7
102
{ACAD_REACTORS
330
690
102
}
330
1F
100
AcDbEntity
  8
LC-002-002-----0
 62
     7
370
    50
100
AcDbLine
 10
1275.215574
 20
814.147707
 30
0.0
 11
1685.215574
 21
814.147707
 31
0.0
  0
LINE
  5
5F8
102
{ACAD_REACTORS
330
690
102
}
330
1F
100
AcDbEntity
  8
LC-002-002-----0
 62
     7
370
    50
100
AcDbLine
 10
1691.715574
 20
820.647707
 30
0.0
 11
1691.715574
 21
1018.147707
 31
0.0
  0
INSERT
  5
612
102
{ACAD_REACTORS
330
692
102
}
330
1F
100
AcDbEntity
  8
LC-010-003-----0
 62
     7
370
    25
100
AcDbBlockReference
  2
LCDIM14
 10
0.0
 20
0.0
 30
0.0
  0
INSERT
  5
62C
102
{ACAD_REACTORS
330
692
102
}
330
1F
100
AcDbEntity
  8
LC-010-003-----0
 62
     7
370
    25
100
AcDbBlockReference
  2
LCDIM15
 10
0.0
 20
0.0
 30
0.0
  0
INSERT
  5
63B
102
{ACAD_REACTORS
330
692
102
}
330
1F
100
AcDbEntity
  8
LC-010-003-----0
 62
     7
370
    25
100
AcDbBlockReference
  2
LCDIM16
 10
0.0
 20
0.0
 30
0.0
  0
TEXT
  5
63C
102
{ACAD_REACTORS
330
692
102
}
330
1F
100
AcDbEntity
  8
LC-011-004-----0
 62
     7
370
    35
100
AcDbText
 10
1268.616554
 20
1100.087809
 30
0.0
 40
35.0
  1
Ausschnitt Unterbau 1:20
 41
0.8
  7
LCTX0-400-0-0pDIN-Schrift
100
AcDbText
  0
INSERT
  5
656
330
1F
100
AcDbEntity
  8
LC-010-003-----0
 62
     7
370
    25
100
AcDbBlockReference
  2
LCDIM17
 10
0.0
 20
0.0
 30
0.0
  0
INSERT
  5
670
330
1F
100
AcDbEntity
  8
LC-010-003-----0
 62
     7
370
    25
100
AcDbBlockReference
  2
LCDIM18
 10
0.0
 20
0.0
 30
0.0
  0
CIRCLE
  5
671
330
1F
100
AcDbEntity
  8
LC-004-006-MLN-0
  6
DASHDOT
 62
     7
370
    25
100
AcDbCircle
 10
890.621597
 20
1538.13
 30
0.0
 40
17.5
  0
INSERT
  5
68B
330
1F
100
AcDbEntity
  8
LC-010-003-----0
 62
     7
370
    25
100
AcDbBlockReference
  2
LCDIM19
 10
0.0
 20
0.0
 30
0.0
  0
ENDSEC
  0
SECTION
  2
OBJECTS
  0
DICTIONARY
  5
C
330
0
100
AcDbDictionary
281
     1
  3
ACAD_GROUP
350
D
  3
ACAD_LAYOUT
350
1A
  3
ACAD_MLINESTYLE
350
17
  3
ACAD_PLOTSETTINGS
350
19
  3
ACAD_PLOTSTYLENAME
350
E
  0
DICTIONARY
  5
D
102
{ACAD_REACTORS
330
C
102
}
330
C
100
AcDbDictionary
281
     1
  3
LCGROUP10
350
68C
  3
LCGROUP1073
350
69C
  3
LCGROUP523
350
69B
  3
LCGROUP62
350
68D
  3
LCGROUP632
350
68F
  3
LCGROUP684
350
696
  3
LCGROUP69
350
68E
  3
LCGROUP745
350
699
  3
LCGROUP746
350
698
  3
LCGROUP749
350
697
  3
LCGROUP751
350
69A
  3
LCGROUP83
350
691
  3
LCGROUP89
350
690
  3
LCGROUP930
350
694
  3
LCGROUP931
350
693
  3
LCGROUP934
350
695
  3
LCGROUP97
350
692
  0
DICTIONARY
  5
1A
102
{ACAD_REACTORS
330
C
102
}
330
C
100
AcDbDictionary
281
     1
  3
Layout1
350
1E
  3
Layout2
350
26
  3
Model
350
22
  0
DICTIONARY
  5
17
102
{ACAD_REACTORS
330
C
102
}
330
C
100
AcDbDictionary
281
     1
  3
Standard
350
18
  0
DICTIONARY
  5
19
102
{ACAD_REACTORS
330
C
102
}
330
C
100
AcDbDictionary
281
     1
  0
ACDBDICTIONARYWDFLT
  5
E
102
{ACAD_REACTORS
330
C
102
}
330
C
100
AcDbDictionary
281
     1
  3
Normal
350
F
100
AcDbDictionaryWithDefault
340
F
  0
GROUP
  5
68C
102
{ACAD_REACTORS
330
D
102
}
330
D
100
AcDbGroup
300
GRP10
 70
     1
 71
     1
340
107
340
108
340
109
340
10A
340
10B
340
10C
340
10D
340
10E
340
10F
340
110
340
111
340
112
340
113
340
114
340
115
340
116
340
117
340
118
340
119
340
11A
340
11B
340
11C
340
11D
340
11E
340
120
340
122
340
123
340
125
340
126
340
127
340
128
340
129
340
133
340
134
340
135
340
136
340
139
340
13A
340
13B
340
13E
340
13F
340
140
340
141
340
143
340
144
340
145
340
146
340
14B
340
14C
340
14D
340
14E
340
14F
340
150
340
151
340
152
340
153
340
154
340
155
340
156
340
157
340
158
340
159
340
15A
340
15B
340
15C
340
15D
340
15E
340
22C
340
559
340
573
  0
GROUP
  5
69C
102
{ACAD_REACTORS
330
D
102
}
330
D
100
AcDbGroup
300
GRP1073
 70
     1
 71
     1
340
4B7
340
4B8
340
4B9
340
4BA
340
4BB
340
4BC
340
4BD
340
4BE
340
4BF
340
4C0
340
4C1
340
4C2
340
4C3
340
4C4
340
4C5
340
4C6
340
4C7
340
4C8
340
4C9
340
4CA
340
4CB
340
4CC
340
4CD
340
4CE
340
4CF
340
4D0
340
4D1
340
4D2
340
4D3
340
4D4
340
4D5
340
4D6
340
4D7
340
4D8
340
4D9
340
4DA
340
4DB
340
4DC
340
4DD
340
4DE
340
4DF
340
4E0
340
4E1
340
4E2
340
4E3
340
4E4
340
4E5
340
4E6
340
4E7
340
4E8
340
4E9
340
4EA
340
4EB
340
4EC
340
4ED
340
4EE
340
4EF
340
4F0
340
4F1
340
4F2
340
4F3
340
4F4
340
4F5
340
4F6
340
4F7
340
507
340
508
340
509
340
50A
340
50B
  0
GROUP
  5
69B
102
{ACAD_REACTORS
330
D
102
}
330
D
100
AcDbGroup
300
GRP523
 70
     1
 71
     1
340
131
340
132
340
15F
340
160
340
161
340
162
340
163
340
164
340
165
340
166
340
167
340
168
340
169
340
16A
340
16B
340
16C
340
16D
340
16E
340
16F
340
170
340
171
340
172
340
173
340
174
340
176
340
177
340
178
340
179
340
17A
340
17B
340
17C
340
17D
340
17E
340
17F
340
180
340
181
340
182
340
183
340
184
340
185
340
186
340
187
340
188
340
189
340
18A
340
18B
340
18C
340
18D
340
18E
340
18F
340
190
340
191
340
192
340
193
340
194
340
195
340
196
340
197
340
198
340
199
340
19A
340
19B
340
19C
340
19D
340
19E
340
19F
340
1A0
340
1A1
340
1A2
340
1A3
340
1A4
340
1A5
340
1A6
340
1A7
340
1A8
340
1A9
340
1AA
340
1AB
340
1AC
340
1AD
340
1AE
340
1AF
340
1B0
340
1B1
340
1B2
340
1B3
340
1B4
340
1B5
340
1B6
340
1B7
340
1B8
340
1B9
340
1BA
340
1BB
340
1BC
340
1C2
340
1C7
340
1D5
340
23F
340
25C
340
276
  0
GROUP
  5
68D
102
{ACAD_REACTORS
330
D
102
}
330
D
100
AcDbGroup
300
GRP62
 70
     1
 71
     1
340
12A
340
12B
340
12C
340
12D
340
130
340
1C3
340
1C4
340
1C5
340
1C6
340
1C8
340
1C9
340
22D
340
22E
340
22F
340
230
340
231
340
23E
340
290
340
2AA
  0
GROUP
  5
68F
102
{ACAD_REACTORS
330
D
102
}
330
D
100
AcDbGroup
300
GRP632
 70
     1
 71
     1
340
1D6
340
1D7
340
1D8
340
1D9
340
1DA
340
1DB
340
1DC
340
1DD
340
1DE
340
1DF
340
1E0
340
1E1
340
1E2
340
1E3
340
1E4
340
1E5
340
1E6
340
1E7
340
1E8
340
1E9
340
1EA
340
1EB
340
1EC
340
1ED
340
1EE
340
1EF
340
1F0
340
1F1
340
1F2
340
1F3
340
1F4
340
1F5
340
1F6
340
1F7
340
1F8
340
1F9
340
1FA
340
1FB
340
1FC
340
1FD
340
1FE
340
1FF
340
200
340
201
340
202
340
203
340
204
340
205
340
206
340
207
340
208
340
525
340
53F
  0
GROUP
  5
696
102
{ACAD_REACTORS
330
D
102
}
330
D
100
AcDbGroup
300
GRP684-LCMaster-LCGROUP632
 70
     1
 71
     1
340
209
340
20A
340
20B
340
20C
340
20D
340
20E
340
20F
340
210
340
211
340
212
340
213
340
214
340
215
340
216
340
217
340
218
340
219
340
21A
340
21B
340
21C
340
21D
340
21E
340
21F
340
220
340
221
340
222
340
223
340
224
340
225
340
226
340
227
340
228
340
229
340
22A
340
22B
  0
GROUP
  5
68E
102
{ACAD_REACTORS
330
D
102
}
330
D
100
AcDbGroup
300
Äquidistante-LCMaster-LCGROUP83
 70
     1
 71
     1
340
137
340
138
340
13C
340
13D
340
574
340
575
340
576
340
577
  0
GROUP
  5
699
102
{ACAD_REACTORS
330
D
102
}
330
D
100
AcDbGroup
300
GRP745-LCMaster-LCGROUP751
 70
     1
 71
     1
340
308
340
30D
340
31A
340
31B
340
322
340
323
340
324
340
325
340
326
340
327
  0
GROUP
  5
698
102
{ACAD_REACTORS
330
D
102
}
330
D
100
AcDbGroup
300
GRP746-LCMaster-LCGROUP745
 70
     1
 71
     1
340
2AB
340
2AC
340
301
340
303
340
304
340
305
340
306
340
309
340
30A
340
30B
340
30C
340
30F
340
310
340
311
340
312
340
314
340
315
340
318
340
31C
340
31D
340
31E
340
328
340
329
340
32A
340
32B
340
377
340
378
340
379
340
37A
340
37B
340
37C
340
37D
340
37E
340
37F
340
380
340
381
340
382
340
383
340
384
340
385
340
386
340
387
340
388
340
389
340
38A
340
38B
340
38C
340
38D
340
38E
340
38F
340
390
340
391
340
392
340
393
340
394
340
395
340
396
340
397
340
398
340
399
340
3A7
340
3B5
340
3C2
  0
GROUP
  5
697
102
{ACAD_REACTORS
330
D
102
}
330
D
100
AcDbGroup
300
GRP749
 70
     1
 71
     1
340
2AD
340
2AE
340
2AF
340
2B0
340
2B1
340
2B2
340
2B3
340
2B4
340
2B5
340
2B6
340
2B7
340
2B8
340
2B9
340
2BA
340
2BB
340
2BC
340
2BD
340
2BE
340
2BF
340
2C0
340
2C1
340
2C2
340
2C3
340
2C4
340
2C5
340
2C6
340
2C7
340
2C8
340
2C9
340
2CA
340
2CB
340
2CC
340
2CD
340
2CE
340
2CF
340
2D0
340
2D1
340
2D2
340
2D3
340
2D4
340
2D5
340
2D6
340
2D7
340
2D8
340
2D9
340
2DA
340
2DB
340
2DC
340
2DD
340
2DE
340
2DF
340
2E0
340
2E1
340
2E2
340
2E3
340
2E4
340
2E5
340
2E6
340
2E7
340
2E8
340
2E9
340
2EA
340
2EB
340
2EC
340
2ED
340
2EE
340
2EF
340
2F0
340
2F1
340
2F2
340
2F3
340
2F4
340
2F5
340
2F6
340
2F7
340
2F8
340
2F9
340
2FA
340
2FB
340
2FC
340
2FD
340
2FE
340
2FF
340
300
340
3B6
340
3B7
340
3B8
340
3B9
340
3BA
340
3BB
340
3BC
340
3BD
340
3BE
340
3BF
340
3C0
340
3C1
  0
GROUP
  5
69A
102
{ACAD_REACTORS
330
D
102
}
330
D
100
AcDbGroup
300
GRP2319-LCMaster-LCGROUP750
 70
     1
 71
     1
340
302
340
307
340
30E
340
313
340
316
340
317
340
319
340
31F
340
320
340
321
340
355
  0
GROUP
  5
691
102
{ACAD_REACTORS
330
D
102
}
330
D
100
AcDbGroup
300
GRP83
 70
     1
 71
     1
340
142
340
578
340
579
340
57A
340
594
340
5AE
340
5C8
340
5E2
340
5F1
340
5F3
340
5F4
  0
GROUP
  5
690
102
{ACAD_REACTORS
330
D
102
}
330
D
100
AcDbGroup
300
Äquidistante-LCMaster-LCGROUP97
 70
     1
 71
     1
340
147
340
148
340
149
340
14A
340
5F5
340
5F6
340
5F7
340
5F8
  0
GROUP
  5
694
102
{ACAD_REACTORS
330
D
102
}
330
D
100
AcDbGroup
300
GRP930-LCMaster-LCGROUP934
 70
     1
 71
     1
340
3C8
340
3C9
340
3CC
340
3CD
340
3D0
340
3D1
340
3D2
340
3D3
340
3D4
340
3D5
  0
GROUP
  5
693
102
{ACAD_REACTORS
330
D
102
}
330
D
100
AcDbGroup
300
GRP931-LCMaster-LCGROUP930
 70
     1
 71
     1
340
3C3
340
3C4
340
43D
340
43E
340
43F
340
440
340
441
340
442
340
443
340
444
340
445
340
446
340
447
340
448
340
449
340
44A
340
44B
340
44C
340
44D
340
44E
340
44F
340
450
340
472
340
473
340
474
340
475
340
476
340
477
340
478
340
479
340
47A
340
47B
340
47C
340
47D
340
47E
340
47F
340
480
340
481
340
482
340
483
340
484
340
485
340
486
340
487
340
488
340
489
340
48A
340
48B
340
48C
340
48D
340
48E
340
48F
340
490
340
491
340
492
340
493
340
494
340
4A2
340
4B0
340
4B1
340
4B2
340
4B3
  0
GROUP
  5
695
102
{ACAD_REACTORS
330
D
102
}
330
D
100
AcDbGroup
300
GRP934
 70
     1
 71
     1
340
3C5
340
3C6
340
3C7
340
3CA
340
3CB
340
3CE
340
3CF
340
3D6
340
3D7
340
3D8
340
3D9
340
3DA
340
3DB
340
3DC
340
3DD
340
3DE
340
3DF
340
3E0
340
3E1
340
3E2
340
3E3
340
3F3
340
3F4
340
404
340
405
340
415
340
416
340
417
340
418
340
419
340
41A
340
41B
340
41C
340
41D
340
41E
340
41F
340
420
340
421
340
422
340
423
340
424
340
425
340
426
340
427
340
428
340
429
340
42A
340
42B
340
42C
340
42D
340
42E
340
42F
340
430
340
431
340
432
340
433
340
434
340
435
340
436
340
437
340
438
340
439
340
43A
340
43B
340
43C
340
4B4
340
4B5
340
4B6
  0
GROUP
  5
692
102
{ACAD_REACTORS
330
D
102
}
330
D
100
AcDbGroup
300
GRP97
 70
     1
 71
     1
340
612
340
62C
340
63B
340
63C
  0
LAYOUT
  5
1E
102
{ACAD_REACTORS
330
1A
102
}
330
1A
100
AcDbPlotSettings
  1

  2

  4

  6

 40
0.0
 41
0.0
 42
0.0
 43
0.0
 44
0.0
 45
0.0
 46
0.0
 47
0.0
 48
0.0
 49
0.0
140
0.0
141
0.0
142
1.0
143
1.0
 70
   688
 72
     0
 73
     0
 74
     5
  7

 75
    16
147
1.0
148
0.0
149
0.0
100
AcDbLayout
  1
Layout1
 70
     1
 71
     1
 10
0.0
 20
0.0
 11
2100.0
 21
2970.0
 12
0.0
 22
0.0
 32
0.0
 14
0.0
 24
0.0
 34
0.0
 15
2100.0
 25
2970.0
 35
0.0
146
0.0
 13
0.0
 23
0.0
 33
0.0
 16
1.0
 26
0.0
 36
0.0
 17
0.0
 27
1.0
 37
0.0
 76
     0
330
1B
  0
LAYOUT
  5
26
102
{ACAD_REACTORS
330
1A
102
}
330
1A
100
AcDbPlotSettings
  1

  2

  4

  6

 40
0.0
 41
0.0
 42
0.0
 43
0.0
 44
0.0
 45
0.0
 46
0.0
 47
0.0
 48
0.0
 49
0.0
140
0.0
141
0.0
142
1.0
143
1.0
 70
   688
 72
     0
 73
     0
 74
     5
  7

 75
    16
147
1.0
148
0.0
149
0.0
100
AcDbLayout
  1
Layout2
 70
     1
 71
     2
 10
0.0
 20
0.0
 11
0.0
 21
0.0
 12
0.0
 22
0.0
 32
0.0
 14
0.0
 24
0.0
 34
0.0
 15
0.0
 25
0.0
 35
0.0
146
0.0
 13
0.0
 23
0.0
 33
0.0
 16
1.0
 26
0.0
 36
0.0
 17
0.0
 27
1.0
 37
0.0
 76
     0
330
23
  0
LAYOUT
  5
22
102
{ACAD_REACTORS
330
1A
102
}
330
1A
100
AcDbPlotSettings
  1

  2

  4

  6

 40
0.0
 41
0.0
 42
0.0
 43
0.0
 44
0.0
 45
0.0
 46
0.0
 47
0.0
 48
0.0
 49
0.0
140
0.0
141
0.0
142
1.0
143
1.0
 70
  1776
 72
     0
 73
     0
 74
     0
  7

 75
     0
147
1.0
148
0.0
149
0.0
100
AcDbLayout
  1
Model
 70
     1
 71
     0
 10
0.0
 20
0.0
 11
2100.0
 21
2970.0
 12
0.0
 22
0.0
 32
0.0
 14
0.0
 24
0.0
 34
0.0
 15
2100.0
 25
2970.0
 35
0.0
146
0.0
 13
0.0
 23
0.0
 33
0.0
 16
1.0
 26
0.0
 36
0.0
 17
0.0
 27
1.0
 37
0.0
 76
     0
330
1F
  0
MLINESTYLE
  5
18
102
{ACAD_REACTORS
330
17
102
}
330
17
100
AcDbMlineStyle
  2
Standard
 70
     0
  3

 62
   256
 51
90.0
 52
90.0
 71
     2
 49
0.5
 62
   256
  6
BYLAYER
 49
-0.5
 62
   256
  6
BYLAYER
  0
ACDBPLACEHOLDER
  5
F
102
{ACAD_REACTORS
330
E
102
}
330
E
  0
ENDSEC
  0
EOF
