  0
SECTION
  2
HEADER
  9
$ACADVER
  1
AC1015
  9
$ACADMAINTVER
 70
     6
  9
$DWGCODEPAGE
  3
ANSI_1252
  9
$INSBASE
 10
0.0
 20
0.0
 30
0.0
  9
$EXTMIN
 10
0.0
 20
0.0
 30
0.0
  9
$EXTMAX
 10
2100.0
 20
2970.0
 30
0.0
  9
$LIMMIN
 10
0.0
 20
0.0
  9
$LIMMAX
 10
2100.0
 20
2970.0
  9
$ORTHOMODE
 70
     0
  9
$REGENMODE
 70
     1
  9
$FILLMODE
 70
     1
  9
$QTEXTMODE
 70
     0
  9
$MIRRTEXT
 70
     1
  9
$LTSCALE
 40
10.0
  9
$ATTMODE
 70
     1
  9
$TEXTSIZE
 40
2.5
  9
$TRACEWID
 40
1.0
  9
$TEXTSTYLE
  7
Standard
  9
$CLAYER
  8
0
  9
$CELTYPE
  6
ByLayer
  9
$CECOLOR
 62
     7
  9
$CELTSCALE
 40
1.0
  9
$DISPSILH
 70
     0
  9
$DIMSCALE
 40
10.0
  9
$DIMASZ
 40
3.5
  9
$DIMEXO
 40
0.625
  9
$DIMDLI
 40
3.75
  9
$DIMRND
 40
0.0
  9
$DIMDLE
 40
0.0
  9
$DIMEXE
 40
1.25
  9
$DIMTP
 40
0.0
  9
$DIMTM
 40
0.0
  9
$DIMTXT
 40
3.5
  9
$DIMCEN
 40
2.5
  9
$DIMTSZ
 40
0.0
  9
$DIMTOL
 70
     0
  9
$DIMLIM
 70
     0
  9
$DIMTIH
 70
     0
  9
$DIMTOH
 70
     0
  9
$DIMSE1
 70
     0
  9
$DIMSE2
 70
     0
  9
$DIMTAD
 70
     1
  9
$DIMZIN
 70
     8
  9
$DIMBLK
  1

  9
$DIMASO
 70
     1
  9
$DIMSHO
 70
     1
  9
$DIMPOST
  1

  9
$DIMAPOST
  1

  9
$DIMALT
 70
     0
  9
$DIMALTD
 70
     3
  9
$DIMALTF
 40
0.03937
  9
$DIMLFAC
 40
1.0
  9
$DIMTOFL
 70
     1
  9
$DIMTVP
 40
0.0
  9
$DIMTIX
 70
     0
  9
$DIMSOXD
 70
     0
  9
$DIMSAH
 70
     0
  9
$DIMBLK1
  1

  9
$DIMBLK2
  1

  9
$DIMSTYLE
  2
ISO-25
  9
$DIMCLRD
 70
     0
  9
$DIMCLRE
 70
     0
  9
$DIMCLRT
 70
     0
  9
$DIMTFAC
 40
1.0
  9
$DIMGAP
 40
0.625
  9
$DIMJUST
 70
     0
  9
$DIMSD1
 70
     0
  9
$DIMSD2
 70
     0
  9
$DIMTOLJ
 70
     0
  9
$DIMTZIN
 70
     8
  9
$DIMALTZ
 70
     0
  9
$DIMALTTZ
 70
     0
  9
$DIMUPT
 70
     0
  9
$DIMDEC
 70
     2
  9
$DIMTDEC
 70
     2
  9
$DIMALTU
 70
     2
  9
$DIMALTTD
 70
     3
  9
$DIMTXSTY
  7
Standard
  9
$DIMAUNIT
 70
     0
  9
$DIMADEC
 70
     0
  9
$DIMALTRND
 40
0.0
  9
$DIMAZIN
 70
     0
  9
$DIMDSEP
 70
    44
  9
$DIMATFIT
 70
     3
  9
$DIMFRAC
 70
     0
  9
$DIMLDRBLK
  1

  9
$DIMLUNIT
 70
     2
  9
$DIMLWD
 70
    -2
  9
$DIMLWE
 70
    -2
  9
$DIMTMOVE
 70
     0
  9
$LUNITS
 70
     2
  9
$LUPREC
 70
     4
  9
$SKETCHINC
 40
1.0
  9
$FILLETRAD
 40
10.0
  9
$AUNITS
 70
     0
  9
$AUPREC
 70
     0
  9
$MENU
  1
.
  9
$ELEVATION
 40
0.0
  9
$PELEVATION
 40
0.0
  9
$THICKNESS
 40
0.0
  9
$LIMCHECK
 70
     0
  9
$CHAMFERA
 40
10.0
  9
$CHAMFERB
 40
10.0
  9
$CHAMFERC
 40
20.0
  9
$CHAMFERD
 40
0.0
  9
$SKPOLY
 70
     0
  9
$TDCREATE
 40
2454522.787956505
  9
$TDUCREATE
 40
2454522.746289838
  9
$TDUPDATE
 40
2454522.787956516
  9
$TDUUPDATE
 40
2454522.74628985
  9
$TDINDWG
 40
0.0000000116
  9
$TDUSRTIMER
 40
0.0000000116
  9
$USRTIMER
 70
     1
  9
$ANGBASE
 50
0.0
  9
$ANGDIR
 70
     0
  9
$PDMODE
 70
     0
  9
$PDSIZE
 40
0.0
  9
$PLINEWID
 40
0.0
  9
$SPLFRAME
 70
     0
  9
$SPLINETYPE
 70
     6
  9
$SPLINESEGS
 70
     8
  9
$HANDSEED
  5
6F6
  9
$SURFTAB1
 70
     6
  9
$SURFTAB2
 70
     6
  9
$SURFTYPE
 70
     6
  9
$SURFU
 70
     6
  9
$SURFV
 70
     6
  9
$UCSBASE
  2

  9
$UCSNAME
  2

  9
$UCSORG
 10
0.0
 20
0.0
 30
0.0
  9
$UCSXDIR
 10
1.0
 20
0.0
 30
0.0
  9
$UCSYDIR
 10
0.0
 20
1.0
 30
0.0
  9
$UCSORTHOREF
  2

  9
$UCSORTHOVIEW
 70
     0
  9
$UCSORGTOP
 10
0.0
 20
0.0
 30
0.0
  9
$UCSORGBOTTOM
 10
0.0
 20
0.0
 30
0.0
  9
$UCSORGLEFT
 10
0.0
 20
0.0
 30
0.0
  9
$UCSORGRIGHT
 10
0.0
 20
0.0
 30
0.0
  9
$UCSORGFRONT
 10
0.0
 20
0.0
 30
0.0
  9
$UCSORGBACK
 10
0.0
 20
0.0
 30
0.0
  9
$PUCSBASE
  2

  9
$PUCSNAME
  2

  9
$PUCSORG
 10
0.0
 20
0.0
 30
0.0
  9
$PUCSXDIR
 10
1.0
 20
0.0
 30
0.0
  9
$PUCSYDIR
 10
0.0
 20
1.0
 30
0.0
  9
$PUCSORTHOREF
  2

  9
$PUCSORTHOVIEW
 70
     0
  9
$PUCSORGTOP
 10
0.0
 20
0.0
 30
0.0
  9
$PUCSORGBOTTOM
 10
0.0
 20
0.0
 30
0.0
  9
$PUCSORGLEFT
 10
0.0
 20
0.0
 30
0.0
  9
$PUCSORGRIGHT
 10
0.0
 20
0.0
 30
0.0
  9
$PUCSORGFRONT
 10
0.0
 20
0.0
 30
0.0
  9
$PUCSORGBACK
 10
0.0
 20
0.0
 30
0.0
  9
$USERI1
 70
     0
  9
$USERI2
 70
     0
  9
$USERI3
 70
     0
  9
$USERI4
 70
     0
  9
$USERI5
 70
     0
  9
$USERR1
 40
0.0
  9
$USERR2
 40
0.0
  9
$USERR3
 40
0.0
  9
$USERR4
 40
0.0
  9
$USERR5
 40
0.0
  9
$WORLDVIEW
 70
     1
  9
$SHADEDGE
 70
     3
  9
$SHADEDIF
 70
    70
  9
$TILEMODE
 70
     1
  9
$MAXACTVP
 70
    64
  9
$PINSBASE
 10
0.0
 20
0.0
 30
0.0
  9
$PLIMCHECK
 70
     0
  9
$PEXTMIN
 10
0.0
 20
0.0
 30
0.0
  9
$PEXTMAX
 10
2100.0
 20
2970.0
 30
0.0
  9
$PLIMMIN
 10
0.0
 20
0.0
  9
$PLIMMAX
 10
2100.0
 20
2970.0
  9
$UNITMODE
 70
     0
  9
$VISRETAIN
 70
     1
  9
$PLINEGEN
 70
     0
  9
$PSLTSCALE
 70
     1
  9
$TREEDEPTH
 70
  3020
  9
$CMLSTYLE
  2
Standard
  9
$CMLJUST
 70
     0
  9
$CMLSCALE
 40
20.0
  9
$PROXYGRAPHICS
 70
     1
  9
$MEASUREMENT
 70
     1
  9
$CELWEIGHT
370
    -1
  9
$ENDCAPS
280
     0
  9
$JOINSTYLE
280
     0
  9
$LWDISPLAY
290
     0
  9
$INSUNITS
 70
     4
  9
$HYPERLINKBASE
  1

  9
$STYLESHEET
  1

  9
$XEDIT
290
     1
  9
$CEPSNTYPE
380
     0
  9
$PSTYLEMODE
290
     1
  9
$FINGERPRINTGUID
  2
{FAEB1C30-E019-11D5-929B-00C0DF256EC4}
  9
$VERSIONGUID
  2
{FAEB1C32-E019-11D5-929B-00C0DF256EC4}
  9
$EXTNAMES
290
     1
  9
$PSVPSCALE
 40
0.0
  9
$OLESTARTUP
290
     0
  0
ENDSEC
  0
SECTION
  2
CLASSES
  0
CLASS
  1
ACDBDICTIONARYWDFLT
  2
AcDbDictionaryWithDefault
  3
ObjectDBX Classes
 90
        0
280
     0
281
     0
  0
CLASS
  1
ACDBPLACEHOLDER
  2
AcDbPlaceHolder
  3
ObjectDBX Classes
 90
        0
280
     0
281
     0
  0
CLASS
  1
LAYOUT
  2
AcDbLayout
  3
ObjectDBX Classes
 90
        0
280
     0
281
     0
  0
ENDSEC
  0
SECTION
  2
TABLES
  0
TABLE
  2
VPORT
  5
8
330
0
100
AcDbSymbolTable
 70
     2
  0
VPORT
  5
29
330
8
100
AcDbSymbolTableRecord
100
AcDbViewportTableRecord
  2
*ACTIVE
 70
     0
 10
0.0
 20
0.0
 11
1.0
 21
1.0
 12
1050.0
 22
1485.0
 13
0.0
 23
0.0
 14
1.0
 24
1.0
 15
0.0
 25
0.0
 16
0.0
 26
0.0
 36
1.0
 17
0.0
 27
0.0
 37
0.0
 40
2970.0
 41
0.707071
 42
50.0
 43
0.0
 44
0.0
 50
0.0
 51
0.0
 71
    16
 72
   100
 73
     1
 74
     0
 75
     0
 76
     0
 77
     0
 78
     0
281
     0
 65
     0
110
0.0
120
0.0
130
0.0
111
1.0
121
0.0
131
0.0
112
0.0
122
1.0
132
0.0
 79
     0
146
0.0
  0
ENDTAB
  0
TABLE
  2
LTYPE
  5
5
330
0
100
AcDbSymbolTable
 70
     4
  0
LTYPE
  5
14
330
5
100
AcDbSymbolTableRecord
100
AcDbLinetypeTableRecord
  2
ByBlock
 70
     0
  3

 72
    65
 73
     0
 40
0.0
  0
LTYPE
  5
15
330
5
100
AcDbSymbolTableRecord
100
AcDbLinetypeTableRecord
  2
ByLayer
 70
     0
  3

 72
    65
 73
     0
 40
0.0
  0
LTYPE
  5
16
330
5
100
AcDbSymbolTableRecord
100
AcDbLinetypeTableRecord
  2
Continuous
 70
     0
  3
Solid line
 72
    65
 73
     0
 40
0.0
  0
LTYPE
  5
2A
330
5
100
AcDbSymbolTableRecord
100
AcDbLinetypeTableRecord
  2
DASHED
 70
     0
  3
__ __ __ __ __
 72
    65
 73
     2
 40
6.25
 49
5.0
 74
     4
 75
     0
340
0
 46
1.0
 50
0.0
 44
0.0
 45
0.0
 49
-1.25
 74
     4
 75
     0
340
0
 46
1.0
 50
0.0
 44
0.0
 45
0.0
  0
LTYPE
  5
10A
330
5
100
AcDbSymbolTableRecord
100
AcDbLinetypeTableRecord
  2
DASHDOT
 70
     0
  3
__ . __ . __ . __ . __
 72
    65
 73
     4
 40
7.5
 49
5.0
 74
     4
 75
     0
340
0
 46
1.0
 50
0.0
 44
0.0
 45
0.0
 49
-1.25
 74
     4
 75
     0
340
0
 46
1.0
 50
0.0
 44
0.0
 45
0.0
 49
0.0
 74
     4
 75
     0
340
0
 46
1.0
 50
0.0
 44
0.0
 45
0.0
 49
-1.25
 74
     4
 75
     0
340
0
 46
1.0
 50
0.0
 44
0.0
 45
0.0
  0
LTYPE
  5
110
330
5
100
AcDbSymbolTableRecord
100
AcDbLinetypeTableRecord
  2
CENTER
 70
     0
  3
__ . __ . __ . __ . __
 72
    65
 73
     4
 40
7.5
 49
5.0
 74
     4
 75
     0
340
0
 46
1.0
 50
0.0
 44
0.0
 45
0.0
 49
-1.25
 74
     4
 75
     0
340
0
 46
1.0
 50
0.0
 44
0.0
 45
0.0
 49
0.0
 74
     4
 75
     0
340
0
 46
1.0
 50
0.0
 44
0.0
 45
0.0
 49
-1.25
 74
     4
 75
     0
340
0
 46
1.0
 50
0.0
 44
0.0
 45
0.0
  0
ENDTAB
  0
TABLE
  2
LAYER
  5
2
330
0
100
AcDbSymbolTable
 70
    20
  0
LAYER
  5
10
330
2
100
AcDbSymbolTableRecord
100
AcDbLayerTableRecord
  2
0
 70
     0
 62
     7
  6
Continuous
370
    -3
390
F
  0
LAYER
  5
2B
330
2
100
AcDbSymbolTableRecord
100
AcDbLayerTableRecord
  2
LC-INFO-1-10-mm-A4H-0
 70
     1
 62
     7
  6
ByBlock
370
    -3
390
F
  0
LAYER
  5
2C
330
2
100
AcDbSymbolTableRecord
100
AcDbLayerTableRecord
  2
LC-CUT-HIDDEN
 70
     0
 62
     7
  6
DASHED
370
    -3
390
F
  0
LAYER
  5
2D
330
2
100
AcDbSymbolTableRecord
100
AcDbLayerTableRecord
  2
LC-VIEWPORT
 70
     0
 62
     7
  6
ByBlock
370
    -3
390
F
  0
LAYER
  5
2E
330
2
100
AcDbSymbolTableRecord
100
AcDbLayerTableRecord
  2
LC-3D-HIDDEN
 70
     0
 62
     9
  6
DASHED
370
    -3
390
F
  0
LAYER
  5
33
330
2
100
AcDbSymbolTableRecord
100
AcDbLayerTableRecord
  2
LC-001-111-----0
 70
     0
 62
   253
  6
ByBlock
370
    -3
390
F
  0
LAYER
  5
A0
330
2
100
AcDbSymbolTableRecord
100
AcDbLayerTableRecord
  2
LC-002-002-----0
 70
     0
 62
     1
  6
ByBlock
370
    -3
390
F
  0
LAYER
  5
101
330
2
100
AcDbSymbolTableRecord
100
AcDbLayerTableRecord
  2
LC-003-230-ZVN-0
 70
     0
 62
     7
  6
ByBlock
370
    -3
390
F
  0
LAYER
  5
105
330
2
100
AcDbSymbolTableRecord
100
AcDbLayerTableRecord
  2
LC-004-100-D01-0
 70
     0
 62
     2
  6
ByBlock
370
    -3
390
F
  0
LAYER
  5
111
330
2
100
AcDbSymbolTableRecord
100
AcDbLayerTableRecord
  2
LC-005-006-MLN-0
 70
     0
 62
     2
  6
CENTER
370
    -3
390
F
  0
LAYER
  5
118
330
2
100
AcDbSymbolTableRecord
100
AcDbLayerTableRecord
  2
LC-006-002-RND-0
 70
     0
 62
     1
  6
ByBlock
370
    -3
390
F
  0
LAYER
  5
122
330
2
100
AcDbSymbolTableRecord
100
AcDbLayerTableRecord
  2
LC-007-100-D02-0
 70
     0
 62
     1
  6
ByBlock
370
    -3
390
F
  0
LAYER
  5
147
330
2
100
AcDbSymbolTableRecord
100
AcDbLayerTableRecord
  2
LC-008-100-D07-0
 70
     0
 62
     2
  6
ByBlock
370
    -3
390
F
  0
LAYER
  5
245
330
2
100
AcDbSymbolTableRecord
100
AcDbLayerTableRecord
  2
LC-009-100-D03-0
 70
     0
 62
     2
  6
ByBlock
370
    -3
390
F
  0
LAYER
  5
2C9
330
2
100
AcDbSymbolTableRecord
100
AcDbLayerTableRecord
  2
LC-010-003-MTH-0
 70
     0
 62
     2
  6
ByBlock
370
    -3
390
F
  0
LAYER
  5
2CC
330
2
100
AcDbSymbolTableRecord
100
AcDbLayerTableRecord
  2
LC-011-003-MTG-0
 70
     0
 62
     2
  6
ByBlock
370
    -3
390
F
  0
LAYER
  5
2CE
330
2
100
AcDbSymbolTableRecord
100
AcDbLayerTableRecord
  2
LC-012-003-----0
 70
     0
 62
     2
  6
ByBlock
370
    -3
390
F
  0
LAYER
  5
362
330
2
100
AcDbSymbolTableRecord
100
AcDbLayerTableRecord
  2
LC-013-004-----0
 70
     0
 62
     7
  6
ByBlock
370
    -3
390
F
  0
LAYER
  5
3A0
330
2
100
AcDbSymbolTableRecord
100
AcDbLayerTableRecord
  2
LC-014-005-----0
 70
     0
 62
     2
  6
ByBlock
370
    -3
390
F
  0
LAYER
  5
454
330
2
100
AcDbSymbolTableRecord
100
AcDbLayerTableRecord
  2
LC-015-100-D00-0
 70
     0
 62
     6
  6
ByBlock
370
    -3
390
F
  0
ENDTAB
  0
TABLE
  2
STYLE
  5
3
330
0
100
AcDbSymbolTable
 70
     2
  0
STYLE
  5
11
330
3
100
AcDbSymbolTableRecord
100
AcDbTextStyleTableRecord
  2
Standard
 70
     0
 40
0.0
 41
1.0
 50
0.0
 71
     0
 42
2.5
  3
txt
  4

  0
STYLE
  5
2F
330
3
100
AcDbSymbolTableRecord
100
AcDbTextStyleTableRecord
  2
LCTX0-400-0-0pDIN-Schrift
 70
     0
 40
0.0
 41
0.7
 50
0.0
 71
     0
 42
3.5
  3
TXT
  4

  0
ENDTAB
  0
TABLE
  2
VIEW
  5
6
330
0
100
AcDbSymbolTable
 70
     0
  0
ENDTAB
  0
TABLE
  2
UCS
  5
7
330
0
100
AcDbSymbolTable
 70
     0
  0
ENDTAB
  0
TABLE
  2
APPID
  5
9
330
0
100
AcDbSymbolTable
 70
     1
  0
APPID
  5
12
330
9
100
AcDbSymbolTableRecord
100
AcDbRegAppTableRecord
  2
ACAD
 70
     0
  0
ENDTAB
  0
TABLE
  2
DIMSTYLE
  5
A
330
0
100
AcDbSymbolTable
 70
     1
100
AcDbDimStyleTable
  0
DIMSTYLE
105
27
330
A
100
AcDbSymbolTableRecord
100
AcDbDimStyleTableRecord
  2
ISO-25
 70
     0
 41
2.5
 42
0.625
 43
3.75
 44
1.25
 73
     0
 74
     0
 77
     1
 78
     8
140
2.5
141
2.5
143
0.03937
147
0.625
171
     3
172
     1
271
     2
272
     2
274
     3
278
    44
283
     0
284
     8
340
11
  0
ENDTAB
  0
TABLE
  2
BLOCK_RECORD
  5
1
330
0
100
AcDbSymbolTable
 70
    37
  0
BLOCK_RECORD
  5
1F
330
1
100
AcDbSymbolTableRecord
100
AcDbBlockTableRecord
  2
*Model_Space
340
22
  0
BLOCK_RECORD
  5
1B
330
1
100
AcDbSymbolTableRecord
100
AcDbBlockTableRecord
  2
*Paper_Space
340
1E
  0
BLOCK_RECORD
  5
23
330
1
100
AcDbSymbolTableRecord
100
AcDbBlockTableRecord
  2
*Paper_Space0
340
26
  0
BLOCK_RECORD
  5
30
330
1
100
AcDbSymbolTableRecord
100
AcDbBlockTableRecord
  2
SYM1
340
0
102
{BLKREFS
331
102
102
}
  0
BLOCK_RECORD
  5
2C6
330
1
100
AcDbSymbolTableRecord
100
AcDbBlockTableRecord
  2
LCDIM1
340
0
102
{BLKREFS
331
2E2
102
}
  0
BLOCK_RECORD
  5
2E3
330
1
100
AcDbSymbolTableRecord
100
AcDbBlockTableRecord
  2
LCDIM2
340
0
102
{BLKREFS
331
2FC
102
}
  0
BLOCK_RECORD
  5
2FD
330
1
100
AcDbSymbolTableRecord
100
AcDbBlockTableRecord
  2
LCDIM3
340
0
102
{BLKREFS
331
316
102
}
  0
BLOCK_RECORD
  5
317
330
1
100
AcDbSymbolTableRecord
100
AcDbBlockTableRecord
  2
LCDIM4
340
0
102
{BLKREFS
331
330
102
}
  0
BLOCK_RECORD
  5
339
330
1
100
AcDbSymbolTableRecord
100
AcDbBlockTableRecord
  2
LCDIM5
340
0
102
{BLKREFS
331
352
102
}
  0
BLOCK_RECORD
  5
353
330
1
100
AcDbSymbolTableRecord
100
AcDbBlockTableRecord
  2
LCDIM6
340
0
102
{BLKREFS
331
361
102
}
  0
BLOCK_RECORD
  5
364
330
1
100
AcDbSymbolTableRecord
100
AcDbBlockTableRecord
  2
LCDIM7
340
0
102
{BLKREFS
331
37D
102
}
  0
BLOCK_RECORD
  5
37E
330
1
100
AcDbSymbolTableRecord
100
AcDbBlockTableRecord
  2
LCDIM8
340
0
102
{BLKREFS
331
397
102
}
  0
BLOCK_RECORD
  5
39D
330
1
100
AcDbSymbolTableRecord
100
AcDbBlockTableRecord
  2
*X110
340
0
102
{BLKREFS
331
3A3
102
}
  0
BLOCK_RECORD
  5
3AF
330
1
100
AcDbSymbolTableRecord
100
AcDbBlockTableRecord
  2
LCDIM9
340
0
102
{BLKREFS
331
3C8
102
}
  0
BLOCK_RECORD
  5
3C9
330
1
100
AcDbSymbolTableRecord
100
AcDbBlockTableRecord
  2
LCDIM10
340
0
102
{BLKREFS
331
3E2
102
}
  0
BLOCK_RECORD
  5
3EA
330
1
100
AcDbSymbolTableRecord
100
AcDbBlockTableRecord
  2
LCDIM11
340
0
102
{BLKREFS
331
403
102
}
  0
BLOCK_RECORD
  5
410
330
1
100
AcDbSymbolTableRecord
100
AcDbBlockTableRecord
  2
*X214
340
0
102
{BLKREFS
331
417
102
}
  0
BLOCK_RECORD
  5
418
330
1
100
AcDbSymbolTableRecord
100
AcDbBlockTableRecord
  2
LCDIM12
340
0
102
{BLKREFS
331
431
102
}
  0
BLOCK_RECORD
  5
432
330
1
100
AcDbSymbolTableRecord
100
AcDbBlockTableRecord
  2
LCDIM13
340
0
102
{BLKREFS
331
44B
102
}
  0
BLOCK_RECORD
  5
451
330
1
100
AcDbSymbolTableRecord
100
AcDbBlockTableRecord
  2
POLY1
340
0
102
{BLKREFS
331
45B
102
}
  0
BLOCK_RECORD
  5
463
330
1
100
AcDbSymbolTableRecord
100
AcDbBlockTableRecord
  2
POLY2
340
0
102
{BLKREFS
331
472
102
}
  0
BLOCK_RECORD
  5
497
330
1
100
AcDbSymbolTableRecord
100
AcDbBlockTableRecord
  2
POLY3
340
0
102
{BLKREFS
331
4A0
102
}
  0
BLOCK_RECORD
  5
4A1
330
1
100
AcDbSymbolTableRecord
100
AcDbBlockTableRecord
  2
POLY4
340
0
102
{BLKREFS
331
4AA
102
}
  0
BLOCK_RECORD
  5
4AB
330
1
100
AcDbSymbolTableRecord
100
AcDbBlockTableRecord
  2
POLY5
340
0
102
{BLKREFS
331
4B8
102
}
  0
BLOCK_RECORD
  5
4B9
330
1
100
AcDbSymbolTableRecord
100
AcDbBlockTableRecord
  2
POLY6
340
0
102
{BLKREFS
331
4C6
102
}
  0
BLOCK_RECORD
  5
4C7
330
1
100
AcDbSymbolTableRecord
100
AcDbBlockTableRecord
  2
POLY7
340
0
102
{BLKREFS
331
4D6
102
}
  0
BLOCK_RECORD
  5
4D7
330
1
100
AcDbSymbolTableRecord
100
AcDbBlockTableRecord
  2
POLY8
340
0
102
{BLKREFS
331
4E4
102
}
  0
BLOCK_RECORD
  5
50B
330
1
100
AcDbSymbolTableRecord
100
AcDbBlockTableRecord
  2
POLY9
340
0
102
{BLKREFS
331
534
102
}
  0
BLOCK_RECORD
  5
59D
330
1
100
AcDbSymbolTableRecord
100
AcDbBlockTableRecord
  2
POLY10
340
0
102
{BLKREFS
331
5AC
102
}
  0
BLOCK_RECORD
  5
5C0
330
1
100
AcDbSymbolTableRecord
100
AcDbBlockTableRecord
  2
POLY11
340
0
102
{BLKREFS
331
5CF
102
}
  0
BLOCK_RECORD
  5
5FA
330
1
100
AcDbSymbolTableRecord
100
AcDbBlockTableRecord
  2
*X328
340
0
102
{BLKREFS
331
601
102
}
  0
BLOCK_RECORD
  5
602
330
1
100
AcDbSymbolTableRecord
100
AcDbBlockTableRecord
  2
*X429
340
0
102
{BLKREFS
331
609
102
}
  0
BLOCK_RECORD
  5
617
330
1
100
AcDbSymbolTableRecord
100
AcDbBlockTableRecord
  2
POLY12
340
0
102
{BLKREFS
331
626
102
}
  0
BLOCK_RECORD
  5
63D
330
1
100
AcDbSymbolTableRecord
100
AcDbBlockTableRecord
  2
LCDIM14
340
0
102
{BLKREFS
331
656
102
}
  0
BLOCK_RECORD
  5
65B
330
1
100
AcDbSymbolTableRecord
100
AcDbBlockTableRecord
  2
LCDIM15
340
0
102
{BLKREFS
331
674
102
}
  0
BLOCK_RECORD
  5
681
330
1
100
AcDbSymbolTableRecord
100
AcDbBlockTableRecord
  2
LCDIM16
340
0
102
{BLKREFS
331
69A
102
}
  0
BLOCK_RECORD
  5
69F
330
1
100
AcDbSymbolTableRecord
100
AcDbBlockTableRecord
  2
LCDIM17
340
0
102
{BLKREFS
331
6B8
102
}
  0
BLOCK_RECORD
  5
6B9
330
1
100
AcDbSymbolTableRecord
100
AcDbBlockTableRecord
  2
LCDIM18
340
0
102
{BLKREFS
331
6D2
102
}
  0
BLOCK_RECORD
  5
6D3
330
1
100
AcDbSymbolTableRecord
100
AcDbBlockTableRecord
  2
LCDIM19
340
0
102
{BLKREFS
331
6E1
102
}
  0
ENDTAB
  0
ENDSEC
  0
SECTION
  2
BLOCKS
  0
BLOCK
  5
20
330
1F
100
AcDbEntity
  8
0
100
AcDbBlockBegin
  2
*Model_Space
 70
     0
 71
     0
 10
0.0
 20
0.0
 30
0.0
  3
*Model_Space
  1

  0
ENDBLK
  5
21
330
1F
100
AcDbEntity
  8
0
100
AcDbBlockEnd
  0
BLOCK
  5
1C
330
1B
100
AcDbEntity
 67
     1
  8
0
100
AcDbBlockBegin
  2
*Paper_Space
 70
     0
 71
     0
 10
0.0
 20
0.0
 30
0.0
  3
*Paper_Space
  1

  0
ENDBLK
  5
1D
330
1B
100
AcDbEntity
 67
     1
  8
0
100
AcDbBlockEnd
  0
BLOCK
  5
24
330
23
100
AcDbEntity
  8
0
100
AcDbBlockBegin
  2
*Paper_Space0
 70
     0
 71
     0
 10
0.0
 20
0.0
 30
0.0
  3
*Paper_Space0
  1

  0
ENDBLK
  5
25
330
23
100
AcDbEntity
  8
0
100
AcDbBlockEnd
  0
BLOCK
  5
31
330
30
100
AcDbEntity
  8
0
100
AcDbBlockBegin
  2
SYM1
 70
     0
 71
     0
 10
0.0
 20
0.0
 30
0.0
  3
SYM1
  1

  4
SYM1
  0
LINE
  5
34
330
30
100
AcDbEntity
  8
LC-001-111-----0
 62
   253
370
    50
100
AcDbLine
 10
2050.0
 20
50.0
 30
0.0
 11
2050.0
 21
2920.0
 31
0.0
  0
LINE
  5
35
330
30
100
AcDbEntity
  8
LC-001-111-----0
 62
   253
370
    25
100
AcDbLine
 10
178.0
 20
220.0
 30
0.0
 11
724.0
 21
220.0
 31
0.0
  0
LINE
  5
36
330
30
100
AcDbEntity
  8
LC-001-111-----0
 62
   253
370
    35
100
AcDbLine
 10
724.0
 20
220.0
 30
0.0
 11
2050.0
 21
220.0
 31
0.0
  0
LINE
  5
37
330
30
100
AcDbEntity
  8
LC-001-111-----0
 62
   253
370
    50
100
AcDbLine
 10
178.0
 20
602.5
 30
0.0
 11
2050.0
 21
602.5
 31
0.0
  0
LINE
  5
38
330
30
100
AcDbEntity
  8
LC-001-111-----0
 62
   253
370
    25
100
AcDbLine
 10
178.0
 20
92.5
 30
0.0
 11
2050.0
 21
92.5
 31
0.0
  0
LINE
  5
39
330
30
100
AcDbEntity
  8
LC-001-111-----0
 62
   253
370
    25
100
AcDbLine
 10
178.0
 20
135.0
 30
0.0
 11
724.0
 21
135.0
 31
0.0
  0
LINE
  5
3A
330
30
100
AcDbEntity
  8
LC-001-111-----0
 62
   253
370
    25
100
AcDbLine
 10
178.0
 20
177.5
 30
0.0
 11
724.0
 21
177.5
 31
0.0
  0
LINE
  5
3B
330
30
100
AcDbEntity
  8
LC-001-111-----0
 62
   253
370
    25
100
AcDbLine
 10
178.0
 20
262.5
 30
0.0
 11
1166.0
 21
262.5
 31
0.0
  0
LINE
  5
3C
330
30
100
AcDbEntity
  8
LC-001-111-----0
 62
   253
370
    25
100
AcDbLine
 10
178.0
 20
305.0
 30
0.0
 11
1166.0
 21
305.0
 31
0.0
  0
LINE
  5
3D
330
30
100
AcDbEntity
  8
LC-001-111-----0
 62
   253
370
    25
100
AcDbLine
 10
178.0
 20
347.5
 30
0.0
 11
1166.0
 21
347.5
 31
0.0
  0
LINE
  5
3E
330
30
100
AcDbEntity
  8
LC-001-111-----0
 62
   253
370
    25
100
AcDbLine
 10
178.0
 20
390.0
 30
0.0
 11
1166.0
 21
390.0
 31
0.0
  0
LINE
  5
3F
330
30
100
AcDbEntity
  8
LC-001-111-----0
 62
   253
370
    35
100
AcDbLine
 10
178.0
 20
432.5
 30
0.0
 11
2050.0
 21
432.5
 31
0.0
  0
LINE
  5
40
330
30
100
AcDbEntity
  8
LC-001-111-----0
 62
   253
370
    25
100
AcDbLine
 10
828.0
 20
262.5
 30
0.0
 11
828.0
 21
432.5
 31
0.0
  0
LINE
  5
41
330
30
100
AcDbEntity
  8
LC-001-111-----0
 62
   253
370
    35
100
AcDbLine
 10
1920.0
 20
92.5
 30
0.0
 11
1920.0
 21
220.0
 31
0.0
  0
LINE
  5
42
330
30
100
AcDbEntity
  8
LC-001-111-----0
 62
   253
370
    25
100
AcDbLine
 10
1166.0
 20
538.75
 30
0.0
 11
2050.0
 21
538.75
 31
0.0
  0
LINE
  5
43
330
30
100
AcDbEntity
  8
LC-001-111-----0
 62
   253
370
    25
100
AcDbLine
 10
256.0
 20
50.0
 30
0.0
 11
256.0
 21
432.5
 31
0.0
  0
LINE
  5
44
330
30
100
AcDbEntity
  8
LC-001-111-----0
 62
   253
370
    25
100
AcDbLine
 10
516.0
 20
50.0
 30
0.0
 11
516.0
 21
432.5
 31
0.0
  0
LINE
  5
45
330
30
100
AcDbEntity
  8
LC-001-111-----0
 62
   253
370
    25
100
AcDbLine
 10
646.0
 20
50.0
 30
0.0
 11
646.0
 21
432.5
 31
0.0
  0
LINE
  5
46
330
30
100
AcDbEntity
  8
LC-001-111-----0
 62
   253
370
    35
100
AcDbLine
 10
724.0
 20
50.0
 30
0.0
 11
724.0
 21
602.5
 31
0.0
  0
LINE
  5
47
330
30
100
AcDbEntity
  8
LC-001-111-----0
 62
   253
370
    35
100
AcDbLine
 10
1166.0
 20
50.0
 30
0.0
 11
1166.0
 21
602.5
 31
0.0
  0
LINE
  5
48
330
30
100
AcDbEntity
  8
LC-001-111-----0
 62
   253
370
    25
100
AcDbLine
 10
1920.0
 20
135.0
 30
0.0
 11
2050.0
 21
135.0
 31
0.0
  0
LINE
  5
49
330
30
100
AcDbEntity
  8
LC-001-111-----0
 62
   253
370
    25
100
AcDbLine
 10
984.0
 20
220.0
 30
0.0
 11
984.0
 21
602.5
 31
0.0
  0
LINE
  5
4A
330
30
100
AcDbEntity
  8
LC-001-111-----0
 62
   253
370
    25
100
AcDbLine
 10
1686.0
 20
538.75
 30
0.0
 11
1686.0
 21
602.5
 31
0.0
  0
LINE
  5
4B
330
30
100
AcDbEntity
  8
LC-001-111-----0
 62
   253
370
    25
100
AcDbLine
 10
1608.0
 20
50.0
 30
0.0
 11
1608.0
 21
92.5
 31
0.0
  0
LINE
  5
4C
330
30
100
AcDbEntity
  8
LC-001-111-----0
 62
   253
370
    50
100
AcDbLine
 10
178.0
 20
50.0
 30
0.0
 11
178.0
 21
2920.0
 31
0.0
  0
LINE
  5
4D
330
30
100
AcDbEntity
  8
LC-001-111-----0
 62
   253
370
    50
100
AcDbLine
 10
178.0
 20
2920.0
 30
0.0
 11
2050.0
 21
2920.0
 31
0.0
  0
TEXT
  5
4E
330
30
100
AcDbEntity
  8
LC-001-111-----0
 62
     7
370
    25
100
AcDbText
 10
1471.410714
 20
558.125
 30
0.0
 40
25.0
  1
1:10
 41
0.75
  7
LCTX0-400-0-0pDIN-Schrift
 72
     1
 11
1504.0
 21
558.125
 31
0.0
100
AcDbText
  0
TEXT
  5
4F
330
30
100
AcDbEntity
  8
LC-001-111-----0
 62
     7
370
    25
100
AcDbText
 10
740.285714
 20
398.75
 30
0.0
 40
25.0
  1
2000
 41
0.75
  7
LCTX0-400-0-0pDIN-Schrift
 72
     1
 11
776.0
 21
398.75
 31
0.0
100
AcDbText
  0
TEXT
  5
50
330
30
100
AcDbEntity
  8
LC-001-111-----0
 62
     7
370
    25
100
AcDbText
 10
860.464286
 20
356.25
 30
0.0
 40
25.0
  1
16.08.
 41
0.75
  7
LCTX0-400-0-0pDIN-Schrift
 72
     1
 11
906.0
 21
356.25
 31
0.0
100
AcDbText
  0
TEXT
  5
51
330
30
100
AcDbEntity
  8
LC-001-111-----0
 62
     7
370
    25
100
AcDbText
 10
1056.696429
 20
356.25
 30
0.0
 40
25.0
  1
HÄ
 41
0.75
  7
LCTX0-400-0-0pDIN-Schrift
 72
     1
 11
1075.0
 21
356.25
 31
0.0
100
AcDbText
  0
TEXT
  5
52
330
30
100
AcDbEntity
  8
LC-001-111-----0
 62
   253
370
    20
100
AcDbText
 10
1183.923077
 20
560.625
 30
0.0
 40
20.0
  1
Maßstab
 41
0.75
  7
LCTX0-400-0-0pDIN-Schrift
100
AcDbText
  0
TEXT
  5
53
330
30
100
AcDbEntity
  8
LC-001-111-----0
 62
   253
370
    20
100
AcDbText
 10
869.928571
 20
401.25
 30
0.0
 40
20.0
  1
Datum
 41
0.75
  7
LCTX0-400-0-0pDIN-Schrift
 72
     1
 11
906.0
 21
401.25
 31
0.0
100
AcDbText
  0
TEXT
  5
54
330
30
100
AcDbEntity
  8
LC-001-111-----0
 62
   253
370
    20
100
AcDbText
 10
1042.857143
 20
401.25
 30
0.0
 40
20.0
  1
Name
 41
0.75
  7
LCTX0-400-0-0pDIN-Schrift
 72
     1
 11
1075.0
 21
401.25
 31
0.0
100
AcDbText
  0
TEXT
  5
55
330
30
100
AcDbEntity
  8
LC-001-111-----0
 62
   253
370
    20
100
AcDbText
 10
741.923077
 20
358.75
 30
0.0
 40
20.0
  1
Bearb.
 41
0.75
  7
LCTX0-400-0-0pDIN-Schrift
100
AcDbText
  0
TEXT
  5
56
330
30
100
AcDbEntity
  8
LC-001-111-----0
 62
   253
370
    20
100
AcDbText
 10
741.923077
 20
316.25
 30
0.0
 40
20.0
  1
Gepr.
 41
0.75
  7
LCTX0-400-0-0pDIN-Schrift
100
AcDbText
  0
TEXT
  5
57
330
30
100
AcDbEntity
  8
LC-001-111-----0
 62
   253
370
    20
100
AcDbText
 10
741.923077
 20
273.75
 30
0.0
 40
20.0
  1
Norm
 41
0.75
  7
LCTX0-400-0-0pDIN-Schrift
100
AcDbText
  0
TEXT
  5
58
330
30
100
AcDbEntity
  8
LC-001-111-----0
 62
   253
370
    20
100
AcDbText
 10
1937.923077
 20
188.75
 30
0.0
 40
20.0
  1
Blatt
 41
0.75
  7
LCTX0-400-0-0pDIN-Schrift
100
AcDbText
  0
TEXT
  5
59
330
30
100
AcDbEntity
  8
LC-001-111-----0
 62
   253
370
    20
100
AcDbText
 10
2012.076923
 20
103.75
 30
0.0
 40
20.0
  1
Bl.
 41
0.75
  7
LCTX0-400-0-0pDIN-Schrift
 72
     2
 11
2037.076923
 21
103.75
 31
0.0
100
AcDbText
  0
TEXT
  5
5A
330
30
100
AcDbEntity
  8
LC-001-111-----0
 62
   253
370
    20
100
AcDbText
 10
200.0
 20
61.25
 30
0.0
 40
20.0
  1
Zust.
 41
0.6
  7
LCTX0-400-0-0pDIN-Schrift
 72
     1
 11
222.0
 21
61.25
 31
0.0
100
AcDbText
  0
TEXT
  5
5B
330
30
100
AcDbEntity
  8
LC-001-111-----0
 62
   253
370
    20
100
AcDbText
 10
334.928571
 20
61.25
 30
0.0
 40
20.0
  1
Änderung
 41
0.75
  7
LCTX0-400-0-0pDIN-Schrift
 72
     1
 11
386.0
 21
61.25
 31
0.0
100
AcDbText
  0
TEXT
  5
5C
330
30
100
AcDbEntity
  8
LC-001-111-----0
 62
   253
370
    20
100
AcDbText
 10
544.928571
 20
61.25
 30
0.0
 40
20.0
  1
Datum
 41
0.75
  7
LCTX0-400-0-0pDIN-Schrift
 72
     1
 11
581.0
 21
61.25
 31
0.0
100
AcDbText
  0
TEXT
  5
5D
330
30
100
AcDbEntity
  8
LC-001-111-----0
 62
   253
370
    20
100
AcDbText
 10
652.857143
 20
61.25
 30
0.0
 40
20.0
  1
Name
 41
0.75
  7
LCTX0-400-0-0pDIN-Schrift
 72
     1
 11
685.0
 21
61.25
 31
0.0
100
AcDbText
  0
TEXT
  5
5E
330
30
100
AcDbEntity
  8
LC-001-111-----0
 62
     7
370
    50
100
AcDbText
 10
1410.678571
 20
343.75
 30
0.0
 40
50.0
  1
Lithos D-150
 41
0.75
  7
LCTX0-400-0-0pDIN-Schrift
 72
     1
 11
1608.0
 21
343.75
 31
0.0
100
AcDbText
  0
TEXT
  5
5F
330
30
100
AcDbEntity
  8
LC-001-111-----0
 62
     7
370
    50
100
AcDbText
 10
1328.714286
 20
131.25
 30
0.0
 40
50.0
  1
4.96.596.04.00
 41
0.75
  7
LCTX0-400-0-0pDIN-Schrift
 72
     1
 11
1543.0
 21
131.25
 31
0.0
100
AcDbText
  0
ARC
  5
60
330
30
100
AcDbEntity
  8
LC-001-111-----0
 62
   253
370
    25
100
AcDbCircle
 10
758.903191
 20
174.567744
 30
0.0
 40
20.81533311668208
100
AcDbArc
 50
62.408264
 51
94.48185
  0
LINE
  5
61
330
30
100
AcDbEntity
  8
LC-001-111-----0
 62
   253
370
    50
100
AcDbLine
 10
178.0
 20
50.0
 30
0.0
 11
2050.0
 21
50.0
 31
0.0
  0
LINE
  5
62
330
30
100
AcDbEntity
  8
LC-001-111-----0
 62
   253
370
    25
100
AcDbLine
 10
50.0
 20
1485.0
 30
0.0
 11
0.0
 21
1485.0
 31
0.0
  0
LINE
  5
63
330
30
100
AcDbEntity
  8
LC-001-111-----0
 62
   253
370
    25
100
AcDbLine
 10
1063.835603
 20
195.169147
 30
0.0
 11
1063.835603
 21
157.149147
 31
0.0
  0
LINE
  5
64
330
30
100
AcDbEntity
  8
LC-001-111-----0
 62
   253
370
    25
100
AcDbLine
 10
2100.0
 20
2970.0
 30
0.0
 11
2100.0
 21
0.0
 31
0.0
  0
LINE
  5
65
330
30
100
AcDbEntity
  8
LC-001-111-----0
 62
   253
370
    25
100
AcDbLine
 10
2100.0
 20
0.0
 30
0.0
 11
0.0
 21
0.0
 31
0.0
  0
LINE
  5
66
330
30
100
AcDbEntity
  8
LC-001-111-----0
 62
   253
370
    25
100
AcDbLine
 10
0.0
 20
0.0
 30
0.0
 11
0.0
 21
2970.0
 31
0.0
  0
LINE
  5
67
330
30
100
AcDbEntity
  8
LC-001-111-----0
 62
   253
370
    25
100
AcDbLine
 10
2100.0
 20
2970.0
 30
0.0
 11
0.0
 21
2970.0
 31
0.0
  0
TEXT
  5
68
330
30
100
AcDbEntity
  8
LC-001-111-----0
 62
   253
370
    20
100
AcDbText
 10
763.0
 20
111.159147
 30
0.0
 40
20.0
  1
Hofbauerstraße1 · D-94209 REGEN
 41
0.65
  7
LCTX0-400-0-0pDIN-Schrift
 72
     1
 11
945.0
 21
111.159147
 31
0.0
100
AcDbText
  0
ARC
  5
69
330
30
100
AcDbEntity
  8
LC-001-111-----0
 62
   253
370
    25
100
AcDbCircle
 10
758.032826
 20
185.671748
 30
0.0
 40
9.677270814709853
100
AcDbArc
 50
94.48185
 51
252.731329
  0
ARC
  5
6A
330
30
100
AcDbEntity
  8
LC-001-111-----0
 62
   253
370
    25
100
AcDbCircle
 10
823.845603
 20
176.159147
 30
0.0
 40
19.01000000000008
100
AcDbArc
 50
74.719456
 51
285.280544
  0
LINE
  5
6B
330
30
100
AcDbEntity
  8
LC-001-111-----0
 62
   253
370
    25
100
AcDbLine
 10
828.855603
 20
157.821208
 30
0.0
 11
828.855603
 21
163.204148
 31
0.0
  0
ARC
  5
6C
330
30
100
AcDbEntity
  8
LC-001-111-----0
 62
   253
370
    25
100
AcDbCircle
 10
823.845603
 20
176.159147
 30
0.0
 40
13.88999999999995
100
AcDbArc
 50
68.857352
 51
291.142648
  0
ARC
  5
6D
330
30
100
AcDbEntity
  8
LC-001-111-----0
 62
   253
370
    25
100
AcDbCircle
 10
823.845603
 20
176.159147
 30
0.0
 40
12.39000000000002
100
AcDbArc
 50
58.303227
 51
301.696773
  0
ARC
  5
6E
330
30
100
AcDbEntity
  8
LC-001-111-----0
 62
   253
370
    25
100
AcDbCircle
 10
1019.845603
 20
176.159147
 30
0.0
 40
19.01000000000008
100
AcDbArc
 50
74.719456
 51
285.280544
  0
LINE
  5
6F
330
30
100
AcDbEntity
  8
LC-001-111-----0
 62
   253
370
    25
100
AcDbLine
 10
830.355603
 20
165.617231
 30
0.0
 11
830.355603
 21
156.709726
 31
0.0
  0
LINE
  5
70
330
30
100
AcDbEntity
  8
LC-001-111-----0
 62
   253
370
    25
100
AcDbLine
 10
755.160101
 20
176.430697
 30
0.0
 11
762.683613
 21
174.091896
 31
0.0
  0
ARC
  5
71
330
30
100
AcDbEntity
  8
LC-001-111-----0
 62
   253
370
    25
100
AcDbCircle
 10
823.845603
 20
176.159147
 30
0.0
 40
20.51000000000012
100
AcDbArc
 50
71.493868
 51
288.506132
  0
LINE
  5
72
330
30
100
AcDbEntity
  8
LC-001-111-----0
 62
   253
370
    25
100
AcDbLine
 10
1024.855603
 20
157.821208
 30
0.0
 11
1024.855603
 21
163.204148
 31
0.0
  0
LINE
  5
73
330
30
100
AcDbEntity
  8
LC-001-111-----0
 62
   253
370
    25
100
AcDbLine
 10
830.355603
 20
195.608569
 30
0.0
 11
830.355603
 21
186.701063
 31
0.0
  0
ARC
  5
74
330
30
100
AcDbEntity
  8
LC-001-111-----0
 62
   253
370
    25
100
AcDbCircle
 10
1019.845603
 20
176.159147
 30
0.0
 40
13.88999999999995
100
AcDbArc
 50
68.857352
 51
291.142648
  0
LINE
  5
75
330
30
100
AcDbEntity
  8
LC-001-111-----0
 62
   253
370
    25
100
AcDbLine
 10
862.835603
 20
155.649147
 30
0.0
 11
862.835603
 21
196.669147
 31
0.0
  0
LINE
  5
76
330
30
100
AcDbEntity
  8
LC-001-111-----0
 62
   253
370
    25
100
AcDbLine
 10
862.835603
 20
196.669147
 30
0.0
 11
872.355603
 21
196.669147
 31
0.0
  0
LINE
  5
77
330
30
100
AcDbEntity
  8
LC-001-111-----0
 62
   253
370
    25
100
AcDbLine
 10
872.355603
 20
196.669147
 30
0.0
 11
872.355603
 21
179.519147
 31
0.0
  0
LINE
  5
78
330
30
100
AcDbEntity
  8
LC-001-111-----0
 62
   253
370
    25
100
AcDbLine
 10
872.355603
 20
179.519147
 30
0.0
 11
887.335603
 21
179.519147
 31
0.0
  0
LINE
  5
79
330
30
100
AcDbEntity
  8
LC-001-111-----0
 62
   253
370
    25
100
AcDbLine
 10
887.335603
 20
179.519147
 30
0.0
 11
887.335603
 21
196.669147
 31
0.0
  0
LINE
  5
7A
330
30
100
AcDbEntity
  8
LC-001-111-----0
 62
   253
370
    25
100
AcDbLine
 10
887.335603
 20
196.669147
 30
0.0
 11
896.855603
 21
196.669147
 31
0.0
  0
LINE
  5
7B
330
30
100
AcDbEntity
  8
LC-001-111-----0
 62
   253
370
    25
100
AcDbLine
 10
896.855603
 20
196.669147
 30
0.0
 11
896.855603
 21
155.649147
 31
0.0
  0
LINE
  5
7C
330
30
100
AcDbEntity
  8
LC-001-111-----0
 62
   253
370
    25
100
AcDbLine
 10
896.855603
 20
155.649147
 30
0.0
 11
887.335603
 21
155.649147
 31
0.0
  0
LINE
  5
7D
330
30
100
AcDbEntity
  8
LC-001-111-----0
 62
   253
370
    25
100
AcDbLine
 10
887.335603
 20
155.649147
 30
0.0
 11
887.335603
 21
172.799147
 31
0.0
  0
LINE
  5
7E
330
30
100
AcDbEntity
  8
LC-001-111-----0
 62
   253
370
    25
100
AcDbLine
 10
887.335603
 20
172.799147
 30
0.0
 11
872.355603
 21
172.799147
 31
0.0
  0
LINE
  5
7F
330
30
100
AcDbEntity
  8
LC-001-111-----0
 62
   253
370
    25
100
AcDbLine
 10
872.355603
 20
172.799147
 30
0.0
 11
872.355603
 21
155.649147
 31
0.0
  0
LINE
  5
80
330
30
100
AcDbEntity
  8
LC-001-111-----0
 62
   253
370
    25
100
AcDbLine
 10
872.355603
 20
155.649147
 30
0.0
 11
862.835603
 21
155.649147
 31
0.0
  0
CIRCLE
  5
81
330
30
100
AcDbEntity
  8
LC-001-111-----0
 62
   253
370
    25
100
AcDbCircle
 10
946.345603
 20
176.159147
 30
0.0
 40
12.39000000000044
  0
CIRCLE
  5
82
330
30
100
AcDbEntity
  8
LC-001-111-----0
 62
   253
370
    25
100
AcDbCircle
 10
946.345603
 20
176.159147
 30
0.0
 40
20.51000000000049
  0
ARC
  5
83
330
30
100
AcDbEntity
  8
LC-001-111-----0
 62
   253
370
    25
100
AcDbCircle
 10
1019.845603
 20
176.159147
 30
0.0
 40
12.39000000000002
100
AcDbArc
 50
58.303227
 51
301.696773
  0
LINE
  5
84
330
30
100
AcDbEntity
  8
LC-001-111-----0
 62
   253
370
    25
100
AcDbLine
 10
864.335603
 20
195.169147
 30
0.0
 11
864.335603
 21
157.149147
 31
0.0
  0
LINE
  5
85
330
30
100
AcDbEntity
  8
LC-001-111-----0
 62
   253
370
    25
100
AcDbLine
 10
1026.355603
 20
165.617231
 30
0.0
 11
1026.355603
 21
156.709726
 31
0.0
  0
LINE
  5
86
330
30
100
AcDbEntity
  8
LC-001-111-----0
 62
   253
370
    25
100
AcDbLine
 10
864.335603
 20
157.149147
 30
0.0
 11
870.855603
 21
157.149147
 31
0.0
  0
LINE
  5
87
330
30
100
AcDbEntity
  8
LC-001-111-----0
 62
   253
370
    25
100
AcDbLine
 10
870.855603
 20
157.149147
 30
0.0
 11
870.855603
 21
174.299147
 31
0.0
  0
LINE
  5
88
330
30
100
AcDbEntity
  8
LC-001-111-----0
 62
   253
370
    25
100
AcDbLine
 10
870.855603
 20
174.299147
 30
0.0
 11
888.835603
 21
174.299147
 31
0.0
  0
LINE
  5
89
330
30
100
AcDbEntity
  8
LC-001-111-----0
 62
   253
370
    25
100
AcDbLine
 10
888.835603
 20
174.299147
 30
0.0
 11
888.835603
 21
157.149147
 31
0.0
  0
LINE
  5
8A
330
30
100
AcDbEntity
  8
LC-001-111-----0
 62
   253
370
    25
100
AcDbLine
 10
888.835603
 20
157.149147
 30
0.0
 11
895.355603
 21
157.149147
 31
0.0
  0
LINE
  5
8B
330
30
100
AcDbEntity
  8
LC-001-111-----0
 62
   253
370
    25
100
AcDbLine
 10
895.355603
 20
157.149147
 30
0.0
 11
895.355603
 21
195.169147
 31
0.0
  0
LINE
  5
8C
330
30
100
AcDbEntity
  8
LC-001-111-----0
 62
   253
370
    25
100
AcDbLine
 10
895.355603
 20
195.169147
 30
0.0
 11
888.835603
 21
195.169147
 31
0.0
  0
LINE
  5
8D
330
30
100
AcDbEntity
  8
LC-001-111-----0
 62
   253
370
    25
100
AcDbLine
 10
888.835603
 20
195.169147
 30
0.0
 11
888.835603
 21
178.019147
 31
0.0
  0
LINE
  5
8E
330
30
100
AcDbEntity
  8
LC-001-111-----0
 62
   253
370
    25
100
AcDbLine
 10
888.835603
 20
178.019147
 30
0.0
 11
870.855603
 21
178.019147
 31
0.0
  0
LINE
  5
8F
330
30
100
AcDbEntity
  8
LC-001-111-----0
 62
   253
370
    25
100
AcDbLine
 10
870.855603
 20
178.019147
 30
0.0
 11
870.855603
 21
195.169147
 31
0.0
  0
CIRCLE
  5
90
330
30
100
AcDbEntity
  8
LC-001-111-----0
 62
   253
370
    25
100
AcDbCircle
 10
946.345603
 20
176.159147
 30
0.0
 40
19.01000000000055
  0
ARC
  5
91
330
30
100
AcDbEntity
  8
LC-001-111-----0
 62
   253
370
    25
100
AcDbCircle
 10
760.836588
 20
168.15034
 30
0.0
 40
6.222024781007809
100
AcDbArc
 50
268.246912
 51
72.731329
  0
ARC
  5
92
330
30
100
AcDbEntity
  8
LC-001-111-----0
 62
   253
370
    25
100
AcDbCircle
 10
761.412387
 20
186.963179
 30
0.0
 40
25.04367341134793
100
AcDbArc
 50
239.19233
 51
268.246912
  0
LINE
  5
93
330
30
100
AcDbEntity
  8
LC-001-111-----0
 62
   253
370
    25
100
AcDbLine
 10
748.586073
 20
165.453385
 30
0.0
 11
748.586073
 21
160.350534
 31
0.0
  0
ARC
  5
94
330
30
100
AcDbEntity
  8
LC-001-111-----0
 62
   253
370
    25
100
AcDbCircle
 10
760.81067
 20
180.45076
 30
0.0
 40
23.52572762426598
100
AcDbArc
 50
238.692783
 51
274.343327
  0
ARC
  5
95
330
30
100
AcDbEntity
  8
LC-001-111-----0
 62
   253
370
    25
100
AcDbCircle
 10
1019.845603
 20
176.159147
 30
0.0
 40
20.51000000000012
100
AcDbArc
 50
71.493868
 51
288.506132
  0
ARC
  5
96
330
30
100
AcDbEntity
  8
LC-001-111-----0
 62
   253
370
    25
100
AcDbCircle
 10
761.779647
 20
167.692822
 30
0.0
 40
10.73104525444839
100
AcDbArc
 50
274.343327
 51
74.255463
  0
LINE
  5
97
330
30
100
AcDbEntity
  8
LC-001-111-----0
 62
   253
370
    25
100
AcDbLine
 10
1026.355603
 20
195.608569
 30
0.0
 11
1026.355603
 21
186.701063
 31
0.0
  0
LINE
  5
98
330
30
100
AcDbEntity
  8
LC-001-111-----0
 62
   253
370
    25
100
AcDbLine
 10
764.691502
 20
178.02125
 30
0.0
 11
757.135251
 21
180.151556
 31
0.0
  0
LINE
  5
99
330
30
100
AcDbEntity
  8
LC-001-111-----0
 62
   253
370
    25
100
AcDbLine
 10
1024.855603
 20
189.114146
 30
0.0
 11
1024.855603
 21
194.497086
 31
0.0
  0
ARC
  5
9A
330
30
100
AcDbEntity
  8
LC-001-111-----0
 62
   253
370
    25
100
AcDbCircle
 10
758.632108
 20
185.460948
 30
0.0
 40
5.51636013010035
100
AcDbArc
 50
90.951212
 51
254.255463
  0
ARC
  5
9B
330
30
100
AcDbEntity
  8
LC-001-111-----0
 62
   253
370
    25
100
AcDbCircle
 10
758.906662
 20
168.924866
 30
0.0
 40
22.05472179307849
100
AcDbArc
 50
64.088485
 51
90.951212
  0
LINE
  5
9C
330
30
100
AcDbEntity
  8
LC-001-111-----0
 62
   253
370
    25
100
AcDbLine
 10
768.544191
 20
188.762426
 30
0.0
 11
768.544191
 21
193.015758
 31
0.0
  0
LINE
  5
9D
330
30
100
AcDbEntity
  8
LC-001-111-----0
 62
   253
370
    25
100
AcDbLine
 10
1071.855603
 20
177.513832
 30
0.0
 11
1087.818366
 21
196.669147
 31
0.0
  0
LINE
  5
9E
330
30
100
AcDbEntity
  8
LC-001-111-----0
 62
   253
370
    25
100
AcDbLine
 10
1087.818366
 20
196.669147
 30
0.0
 11
1099.299433
 21
196.669147
 31
0.0
  0
LINE
  5
9F
330
30
100
AcDbEntity
  8
LC-001-111-----0
 62
   253
370
    25
100
AcDbLine
 10
1099.299433
 20
196.669147
 30
0.0
 11
1082.207766
 21
176.159147
 31
0.0
  0
LINE
  5
A1
330
30
100
AcDbEntity
  8
LC-002-002-----0
 62
     1
370
    25
100
AcDbLine
 10
1143.855603
 20
159.963432
 30
0.0
 11
1143.855603
 21
192.354862
 31
0.0
  0
LINE
  5
A2
330
30
100
AcDbEntity
  8
LC-002-002-----0
 62
     1
370
    25
100
AcDbLine
 10
1143.855603
 20
192.354862
 30
0.0
 11
1127.659888
 21
176.159147
 31
0.0
  0
LINE
  5
A3
330
30
100
AcDbEntity
  8
LC-002-002-----0
 62
     1
370
    25
100
AcDbLine
 10
1127.659888
 20
176.159147
 30
0.0
 11
1143.855603
 21
159.963432
 31
0.0
  0
LINE
  5
A4
330
30
100
AcDbEntity
  8
LC-002-002-----0
 62
     1
370
    25
100
AcDbLine
 10
1142.355603
 20
163.584752
 30
0.0
 11
1142.355603
 21
188.733542
 31
0.0
  0
LINE
  5
A5
330
30
100
AcDbEntity
  8
LC-001-111-----0
 62
   253
370
    25
100
AcDbLine
 10
1082.207766
 20
176.159147
 30
0.0
 11
1099.299433
 21
155.649147
 31
0.0
  0
LINE
  5
A6
330
30
100
AcDbEntity
  8
LC-001-111-----0
 62
   253
370
    25
100
AcDbLine
 10
1099.299433
 20
155.649147
 30
0.0
 11
1087.818366
 21
155.649147
 31
0.0
  0
LINE
  5
A7
330
30
100
AcDbEntity
  8
LC-001-111-----0
 62
   253
370
    25
100
AcDbLine
 10
1087.818366
 20
155.649147
 30
0.0
 11
1071.855603
 21
174.804462
 31
0.0
  0
LINE
  5
A8
330
30
100
AcDbEntity
  8
LC-001-111-----0
 62
   253
370
    25
100
AcDbLine
 10
1062.335603
 20
155.649147
 30
0.0
 11
1062.335603
 21
196.669147
 31
0.0
  0
LINE
  5
A9
330
30
100
AcDbEntity
  8
LC-001-111-----0
 62
   253
370
    25
100
AcDbLine
 10
828.855603
 20
189.114146
 30
0.0
 11
828.855603
 21
194.497086
 31
0.0
  0
ARC
  5
AA
330
30
100
AcDbEntity
  8
LC-001-111-----0
 62
   253
370
    25
100
AcDbCircle
 10
758.903191
 20
174.567744
 30
0.0
 40
19.31533311668209
100
AcDbArc
 50
65.072024
 51
94.48185
  0
LINE
  5
AB
330
30
100
AcDbEntity
  8
LC-001-111-----0
 62
   253
370
    25
100
AcDbLine
 10
1063.835603
 20
157.149147
 30
0.0
 11
1070.355603
 21
157.149147
 31
0.0
  0
LINE
  5
AC
330
30
100
AcDbEntity
  8
LC-001-111-----0
 62
   253
370
    25
100
AcDbLine
 10
1070.355603
 20
157.149147
 30
0.0
 11
1070.355603
 21
195.169147
 31
0.0
  0
LINE
  5
AD
330
30
100
AcDbEntity
  8
LC-001-111-----0
 62
   253
370
    25
100
AcDbLine
 10
1070.355603
 20
195.169147
 30
0.0
 11
1063.835603
 21
195.169147
 31
0.0
  0
LINE
  5
AE
330
30
100
AcDbEntity
  8
LC-001-111-----0
 62
   253
370
    25
100
AcDbLine
 10
1065.335603
 20
193.669147
 30
0.0
 11
1065.335603
 21
158.649147
 31
0.0
  0
LINE
  5
AF
330
30
100
AcDbEntity
  8
LC-002-002-----0
 62
     1
370
    25
100
AcDbLine
 10
1142.355603
 20
188.733542
 30
0.0
 11
1129.781208
 21
176.159147
 31
0.0
  0
LINE
  5
B0
330
30
100
AcDbEntity
  8
LC-002-002-----0
 62
     1
370
    25
100
AcDbLine
 10
1129.781208
 20
176.159147
 30
0.0
 11
1142.355603
 21
163.584752
 31
0.0
  0
LINE
  5
B1
330
30
100
AcDbEntity
  8
LC-001-111-----0
 62
   253
370
    25
100
AcDbLine
 10
1062.335603
 20
196.669147
 30
0.0
 11
1071.855603
 21
196.669147
 31
0.0
  0
LINE
  5
B2
330
30
100
AcDbEntity
  8
LC-001-111-----0
 62
   253
370
    25
100
AcDbLine
 10
1071.855603
 20
196.669147
 30
0.0
 11
1071.855603
 21
155.649147
 31
0.0
  0
LINE
  5
B3
330
30
100
AcDbEntity
  8
LC-001-111-----0
 62
   253
370
    25
100
AcDbLine
 10
1071.855603
 20
155.649147
 30
0.0
 11
1062.335603
 21
155.649147
 31
0.0
  0
ARC
  5
B4
330
30
100
AcDbEntity
  8
LC-001-111-----0
 62
   253
370
    25
100
AcDbCircle
 10
758.032826
 20
185.671748
 30
0.0
 40
8.177270814709827
100
AcDbArc
 50
94.48185
 51
252.731329
  0
LINE
  5
B5
330
30
100
AcDbEntity
  8
LC-001-111-----0
 62
   253
370
    25
100
AcDbLine
 10
755.60538
 20
177.863082
 30
0.0
 11
763.128892
 21
175.524281
 31
0.0
  0
ARC
  5
B6
330
30
100
AcDbEntity
  8
LC-001-111-----0
 62
   253
370
    25
100
AcDbCircle
 10
760.836588
 20
168.15034
 30
0.0
 40
7.72202478100773
100
AcDbArc
 50
268.246912
 51
72.731329
  0
LINE
  5
B7
330
30
100
AcDbEntity
  8
LC-001-111-----0
 62
   253
370
    25
100
AcDbLine
 10
827.355603
 20
191.143539
 30
0.0
 11
827.355603
 21
193.313738
 31
0.0
  0
ARC
  5
B8
330
30
100
AcDbEntity
  8
LC-001-111-----0
 62
   253
370
    25
100
AcDbCircle
 10
823.845603
 20
176.159147
 30
0.0
 40
17.50999999999996
100
AcDbArc
 50
78.436322
 51
281.563678
  0
LINE
  5
B9
330
30
100
AcDbEntity
  8
LC-001-111-----0
 62
   253
370
    25
100
AcDbLine
 10
827.355603
 20
159.004556
 30
0.0
 11
827.355603
 21
161.174755
 31
0.0
  0
LINE
  5
BA
330
30
100
AcDbEntity
  8
LC-002-002-----0
 62
     1
370
    25
100
AcDbLine
 10
1145.355603
 20
195.976182
 30
0.0
 11
1145.355603
 21
156.342112
 31
0.0
  0
LINE
  5
BB
330
30
100
AcDbEntity
  8
LC-002-002-----0
 62
     1
370
    25
100
AcDbLine
 10
1145.355603
 20
156.342112
 30
0.0
 11
1125.538568
 21
176.159147
 31
0.0
  0
LINE
  5
BC
330
30
100
AcDbEntity
  8
LC-002-002-----0
 62
     1
370
    25
100
AcDbLine
 10
1125.538568
 20
176.159147
 30
0.0
 11
1145.355603
 21
195.976182
 31
0.0
  0
LINE
  5
BD
330
30
100
AcDbEntity
  8
LC-001-111-----0
 62
   253
370
    25
100
AcDbLine
 10
1065.335603
 20
158.649147
 30
0.0
 11
1068.855603
 21
158.649147
 31
0.0
  0
LINE
  5
BE
330
30
100
AcDbEntity
  8
LC-001-111-----0
 62
   253
370
    25
100
AcDbLine
 10
1068.855603
 20
158.649147
 30
0.0
 11
1068.855603
 21
193.669147
 31
0.0
  0
LINE
  5
BF
330
30
100
AcDbEntity
  8
LC-001-111-----0
 62
   253
370
    25
100
AcDbLine
 10
1068.855603
 20
193.669147
 30
0.0
 11
1065.335603
 21
193.669147
 31
0.0
  0
LINE
  5
C0
330
30
100
AcDbEntity
  8
LC-001-111-----0
 62
   253
370
    25
100
AcDbLine
 10
1067.095603
 20
192.169147
 30
0.0
 11
1067.095603
 21
160.149147
 31
0.0
  0
ARC
  5
C1
330
30
100
AcDbEntity
  8
LC-001-111-----0
 62
   253
370
    25
100
AcDbCircle
 10
823.845603
 20
176.159147
 30
0.0
 40
15.38999999999992
100
AcDbArc
 50
76.816519
 51
283.183481
  0
LINE
  5
C2
330
30
100
AcDbEntity
  8
LC-001-111-----0
 62
   253
370
    25
100
AcDbLine
 10
870.855603
 20
195.169147
 30
0.0
 11
864.335603
 21
195.169147
 31
0.0
  0
LINE
  5
C3
330
30
100
AcDbEntity
  8
LC-001-111-----0
 62
   253
370
    25
100
AcDbLine
 10
1096.09687
 20
195.169147
 30
0.0
 11
1088.520928
 21
195.169147
 31
0.0
  0
LINE
  5
C4
330
30
100
AcDbEntity
  8
LC-001-111-----0
 62
   253
370
    25
100
AcDbLine
 10
865.835603
 20
158.649147
 30
0.0
 11
869.355603
 21
158.649147
 31
0.0
  0
LINE
  5
C5
330
30
100
AcDbEntity
  8
LC-001-111-----0
 62
   253
370
    25
100
AcDbLine
 10
1023.355603
 20
191.143539
 30
0.0
 11
1023.355603
 21
193.313738
 31
0.0
  0
LINE
  5
C6
330
30
100
AcDbEntity
  8
LC-001-111-----0
 62
   253
370
    25
100
AcDbLine
 10
892.095603
 20
192.169147
 30
0.0
 11
892.095603
 21
160.149147
 31
0.0
  0
TEXT
  5
C7
330
30
100
AcDbEntity
  8
LC-001-111-----0
 62
     1
370
    15
100
AcDbText
 10
1904.428571
 20
21.25
 30
0.0
 40
15.0
  1
Lithos-D150
 41
0.75
  7
LCTX0-400-0-0pDIN-Schrift
 72
     1
 11
1958.0
 21
21.25
 31
0.0
100
AcDbText
  0
CIRCLE
  5
C8
330
30
100
AcDbEntity
  8
LC-001-111-----0
 62
   253
370
    25
100
AcDbCircle
 10
946.345603
 20
176.159147
 30
0.0
 40
17.51000000000047
  0
LINE
  5
C9
330
30
100
AcDbEntity
  8
LC-001-111-----0
 62
   253
370
    25
100
AcDbLine
 10
1088.520928
 20
195.169147
 30
0.0
 11
1072.679261
 21
176.159147
 31
0.0
  0
ARC
  5
CA
330
30
100
AcDbEntity
  8
LC-001-111-----0
 62
   253
370
    25
100
AcDbCircle
 10
1019.845603
 20
176.159147
 30
0.0
 40
17.50999999999996
100
AcDbArc
 50
78.436322
 51
281.563678
  0
ARC
  5
CB
330
30
100
AcDbEntity
  8
LC-001-111-----0
 62
   253
370
    25
100
AcDbCircle
 10
761.412387
 20
186.963179
 30
0.0
 40
26.54367341134783
100
AcDbArc
 50
244.741378
 51
268.246912
  0
LINE
  5
CC
330
30
100
AcDbEntity
  8
LC-001-111-----0
 62
   253
370
    25
100
AcDbLine
 10
1023.355603
 20
159.004556
 30
0.0
 11
1023.355603
 21
161.174755
 31
0.0
  0
LINE
  5
CD
330
30
100
AcDbEntity
  8
LC-002-002-----0
 62
     1
370
    25
100
AcDbLine
 10
1140.855603
 20
167.206073
 30
0.0
 11
1140.855603
 21
185.112221
 31
0.0
  0
LINE
  5
CE
330
30
100
AcDbEntity
  8
LC-002-002-----0
 62
     1
370
    25
100
AcDbLine
 10
1140.855603
 20
185.112221
 30
0.0
 11
1131.902529
 21
176.159147
 31
0.0
  0
LINE
  5
CF
330
30
100
AcDbEntity
  8
LC-002-002-----0
 62
     1
370
    25
100
AcDbLine
 10
1131.902529
 20
176.159147
 30
0.0
 11
1140.855603
 21
167.206073
 31
0.0
  0
CIRCLE
  5
D0
330
30
100
AcDbEntity
  8
LC-001-111-----0
 62
   253
370
    25
100
AcDbCircle
 10
946.345603
 20
176.159147
 30
0.0
 40
13.89000000000002
  0
LINE
  5
D1
330
30
100
AcDbEntity
  8
LC-001-111-----0
 62
   253
370
    25
100
AcDbLine
 10
890.335603
 20
158.649147
 30
0.0
 11
893.855603
 21
158.649147
 31
0.0
  0
LINE
  5
D2
330
30
100
AcDbEntity
  8
LC-001-111-----0
 62
   253
370
    25
100
AcDbLine
 10
893.855603
 20
158.649147
 30
0.0
 11
893.855603
 21
193.669147
 31
0.0
  0
ARC
  5
D3
330
30
100
AcDbEntity
  8
LC-001-111-----0
 62
   253
370
    25
100
AcDbCircle
 10
758.906662
 20
168.924866
 30
0.0
 40
20.55472179307891
100
AcDbArc
 50
57.190491
 51
90.951212
  0
ARC
  5
D4
330
30
100
AcDbEntity
  8
LC-001-111-----0
 62
   253
370
    25
100
AcDbCircle
 10
761.779647
 20
167.692822
 30
0.0
 40
12.23104525444841
100
AcDbArc
 50
274.343327
 51
74.255463
  0
LINE
  5
D5
330
30
100
AcDbEntity
  8
LC-001-111-----0
 62
   253
370
    25
100
AcDbLine
 10
893.855603
 20
193.669147
 30
0.0
 11
890.335603
 21
193.669147
 31
0.0
  0
LINE
  5
D6
330
30
100
AcDbEntity
  8
LC-001-111-----0
 62
   253
370
    25
100
AcDbLine
 10
890.335603
 20
193.669147
 30
0.0
 11
890.335603
 21
158.649147
 31
0.0
  0
LINE
  5
D7
330
30
100
AcDbEntity
  8
LC-001-111-----0
 62
   253
370
    25
100
AcDbLine
 10
890.335603
 20
176.159147
 30
0.0
 11
869.355603
 21
176.159147
 31
0.0
  0
LINE
  5
D8
330
30
100
AcDbEntity
  8
LC-001-111-----0
 62
   253
370
    25
100
AcDbLine
 10
869.355603
 20
158.649147
 30
0.0
 11
869.355603
 21
193.669147
 31
0.0
  0
LINE
  5
D9
330
30
100
AcDbEntity
  8
LC-001-111-----0
 62
   253
370
    25
100
AcDbLine
 10
869.355603
 20
193.669147
 30
0.0
 11
865.835603
 21
193.669147
 31
0.0
  0
LINE
  5
DA
330
30
100
AcDbEntity
  8
LC-001-111-----0
 62
   253
370
    25
100
AcDbLine
 10
865.835603
 20
193.669147
 30
0.0
 11
865.835603
 21
158.649147
 31
0.0
  0
LINE
  5
DB
330
30
100
AcDbEntity
  8
LC-001-111-----0
 62
   253
370
    25
100
AcDbLine
 10
867.595603
 20
192.169147
 30
0.0
 11
867.595603
 21
160.149147
 31
0.0
  0
CIRCLE
  5
DC
330
30
100
AcDbEntity
  8
LC-001-111-----0
 62
   253
370
    25
100
AcDbCircle
 10
946.345603
 20
176.159147
 30
0.0
 40
15.38999999999984
  0
LINE
  5
DD
330
30
100
AcDbEntity
  8
LC-001-111-----0
 62
   253
370
    25
100
AcDbLine
 10
1072.679261
 20
176.159147
 30
0.0
 11
1088.520928
 21
157.149147
 31
0.0
  0
LINE
  5
DE
330
30
100
AcDbEntity
  8
LC-001-111-----0
 62
   253
370
    25
100
AcDbLine
 10
1088.520928
 20
157.149147
 30
0.0
 11
1096.09687
 21
157.149147
 31
0.0
  0
LINE
  5
DF
330
30
100
AcDbEntity
  8
LC-001-111-----0
 62
   253
370
    25
100
AcDbLine
 10
1096.09687
 20
157.149147
 30
0.0
 11
1080.255204
 21
176.159147
 31
0.0
  0
LINE
  5
E0
330
30
100
AcDbEntity
  8
LC-001-111-----0
 62
   253
370
    25
100
AcDbLine
 10
770.044191
 20
186.20063
 30
0.0
 11
770.044191
 21
193.903002
 31
0.0
  0
ARC
  5
E1
330
30
100
AcDbEntity
  8
LC-001-111-----0
 62
   253
370
    25
100
AcDbCircle
 10
761.412387
 20
186.963179
 30
0.0
 40
23.54367341134796
100
AcDbArc
 50
232.518913
 51
268.246912
  0
ARC
  5
E2
330
30
100
AcDbEntity
  8
LC-001-111-----0
 62
   253
370
    25
100
AcDbCircle
 10
760.836588
 20
168.15034
 30
0.0
 40
4.722024781007908
100
AcDbArc
 50
268.246912
 51
72.731329
  0
LINE
  5
E3
330
30
100
AcDbEntity
  8
LC-001-111-----0
 62
   253
370
    25
100
AcDbLine
 10
757.542274
 20
181.595277
 30
0.0
 11
765.098525
 21
179.464972
 31
0.0
  0
ARC
  5
E4
330
30
100
AcDbEntity
  8
LC-001-111-----0
 62
   253
370
    25
100
AcDbCircle
 10
758.632108
 20
185.460948
 30
0.0
 40
4.016360130100384
100
AcDbArc
 50
90.951212
 51
254.255463
  0
ARC
  5
E5
330
30
100
AcDbEntity
  8
LC-001-111-----0
 62
   253
370
    25
100
AcDbCircle
 10
758.032826
 20
185.671748
 30
0.0
 40
11.17727081470983
100
AcDbArc
 50
94.48185
 51
252.731329
  0
LINE
  5
E6
330
30
100
AcDbEntity
  8
LC-001-111-----0
 62
   253
370
    25
100
AcDbLine
 10
762.238334
 20
172.659511
 30
0.0
 11
754.714822
 21
174.998312
 31
0.0
  0
LINE
  5
E7
330
30
100
AcDbEntity
  8
LC-001-111-----0
 62
   253
370
    25
100
AcDbLine
 10
747.086073
 20
168.279997
 30
0.0
 11
747.086073
 21
159.524163
 31
0.0
  0
ARC
  5
E8
330
30
100
AcDbEntity
  8
LC-001-111-----0
 62
   253
370
    25
100
AcDbCircle
 10
758.903191
 20
174.567744
 30
0.0
 40
22.31533311668187
100
AcDbArc
 50
60.049399
 51
94.48185
  0
ARC
  5
E9
330
30
100
AcDbEntity
  8
LC-001-111-----0
 62
   253
370
    25
100
AcDbCircle
 10
760.81067
 20
180.45076
 30
0.0
 40
25.02572762426604
100
AcDbArc
 50
236.741348
 51
274.343327
  0
LINE
  5
EA
330
30
100
AcDbEntity
  8
LC-001-111-----0
 62
   253
370
    25
100
AcDbLine
 10
1080.255204
 20
176.159147
 30
0.0
 11
1096.09687
 21
195.169147
 31
0.0
  0
LINE
  5
EB
330
30
100
AcDbEntity
  8
LC-001-111-----0
 62
   253
370
    25
100
AcDbLine
 10
750.086073
 20
162.957321
 30
0.0
 11
750.086073
 21
161.212369
 31
0.0
  0
LINE
  5
EC
330
30
100
AcDbEntity
  8
LC-001-111-----0
 62
   253
370
    25
100
AcDbLine
 10
1078.302641
 20
176.159147
 30
0.0
 11
1092.894308
 21
193.669147
 31
0.0
  0
LINE
  5
ED
330
30
100
AcDbEntity
  8
LC-002-002-----0
 62
     1
370
    25
100
AcDbLine
 10
1139.355603
 20
170.827393
 30
0.0
 11
1139.355603
 21
181.490901
 31
0.0
  0
LINE
  5
EE
330
30
100
AcDbEntity
  8
LC-002-002-----0
 62
     1
370
    25
100
AcDbLine
 10
1139.355603
 20
181.490901
 30
0.0
 11
1134.023849
 21
176.159147
 31
0.0
  0
LINE
  5
EF
330
30
100
AcDbEntity
  8
LC-002-002-----0
 62
     1
370
    25
100
AcDbLine
 10
1134.023849
 20
176.159147
 30
0.0
 11
1139.355603
 21
170.827393
 31
0.0
  0
LINE
  5
F0
330
30
100
AcDbEntity
  8
LC-002-002-----0
 62
     1
370
    25
100
AcDbLine
 10
1137.855603
 20
174.448713
 30
0.0
 11
1137.855603
 21
177.869581
 31
0.0
  0
LINE
  5
F1
330
30
100
AcDbEntity
  8
LC-002-002-----0
 62
     1
370
    25
100
AcDbLine
 10
1137.855603
 20
177.869581
 30
0.0
 11
1136.145169
 21
176.159147
 31
0.0
  0
LINE
  5
F2
330
30
100
AcDbEntity
  8
LC-002-002-----0
 62
     1
370
    25
100
AcDbLine
 10
1136.145169
 20
176.159147
 30
0.0
 11
1137.855603
 21
174.448713
 31
0.0
  0
LINE
  5
F3
330
30
100
AcDbEntity
  8
LC-001-111-----0
 62
   253
370
    25
100
AcDbLine
 10
1092.894308
 20
193.669147
 30
0.0
 11
1089.22349
 21
193.669147
 31
0.0
  0
LINE
  5
F4
330
30
100
AcDbEntity
  8
LC-001-111-----0
 62
   253
370
    25
100
AcDbLine
 10
1089.22349
 20
193.669147
 30
0.0
 11
1074.631824
 21
176.159147
 31
0.0
  0
ARC
  5
F5
330
30
100
AcDbEntity
  8
LC-001-111-----0
 62
   253
370
    25
100
AcDbCircle
 10
1019.845603
 20
176.159147
 30
0.0
 40
15.38999999999992
100
AcDbArc
 50
76.816519
 51
283.183481
  0
LINE
  5
F6
330
30
100
AcDbEntity
  8
LC-001-111-----0
 62
   253
370
    25
100
AcDbLine
 10
1074.631824
 20
176.159147
 30
0.0
 11
1089.22349
 21
158.649147
 31
0.0
  0
LINE
  5
F7
330
30
100
AcDbEntity
  8
LC-001-111-----0
 62
   253
370
    25
100
AcDbLine
 10
1089.22349
 20
158.649147
 30
0.0
 11
1092.894308
 21
158.649147
 31
0.0
  0
LINE
  5
F8
330
30
100
AcDbEntity
  8
LC-001-111-----0
 62
   253
370
    25
100
AcDbLine
 10
1092.894308
 20
158.649147
 30
0.0
 11
1078.302641
 21
176.159147
 31
0.0
  0
LINE
  5
F9
330
30
100
AcDbEntity
  8
LC-001-111-----0
 62
   253
370
    25
100
AcDbLine
 10
1076.467232
 20
176.159147
 30
0.0
 11
1090.098623
 21
192.516815
 31
0.0
  0
LINE
  5
FA
330
30
100
AcDbEntity
  8
LC-001-111-----0
 62
   253
370
    25
100
AcDbLine
 10
1076.467232
 20
176.159147
 30
0.0
 11
1090.098623
 21
159.801479
 31
0.0
  0
ARC
  5
FB
330
30
100
AcDbEntity
  8
LC-001-111-----0
 62
   253
370
    25
100
AcDbCircle
 10
760.81067
 20
180.45076
 30
0.0
 40
22.02572762426587
100
AcDbArc
 50
240.862164
 51
274.343327
  0
ARC
  5
FC
330
30
100
AcDbEntity
  8
LC-001-111-----0
 62
   253
370
    25
100
AcDbCircle
 10
761.779647
 20
167.692822
 30
0.0
 40
9.231045254448425
100
AcDbArc
 50
274.343327
 51
74.255463
  0
LINE
  5
FD
330
30
100
AcDbEntity
  8
LC-001-111-----0
 62
   253
370
    25
100
AcDbLine
 10
764.284479
 20
176.577529
 30
0.0
 11
756.728228
 21
178.707834
 31
0.0
  0
ARC
  5
FE
330
30
100
AcDbEntity
  8
LC-001-111-----0
 62
   253
370
    25
100
AcDbCircle
 10
758.632108
 20
185.460948
 30
0.0
 40
7.016360130100396
100
AcDbArc
 50
90.951212
 51
254.255463
  0
ARC
  5
FF
330
30
100
AcDbEntity
  8
LC-001-111-----0
 62
   253
370
    25
100
AcDbCircle
 10
758.906662
 20
168.924866
 30
0.0
 40
23.55472179307856
100
AcDbArc
 50
69.789306
 51
90.951212
  0
LINE
  5
100
330
30
100
AcDbEntity
  8
LC-001-111-----0
 62
   253
370
    25
100
AcDbLine
 10
767.044191
 20
191.029289
 30
0.0
 11
767.044191
 21
192.083629
 31
0.0
  0
ENDBLK
  5
32
330
30
100
AcDbEntity
  8
0
100
AcDbBlockEnd
  0
BLOCK
  5
2C7
330
2C6
100
AcDbEntity
  8
0
100
AcDbBlockBegin
  2
LCDIM1
 70
     0
 71
     0
 10
0.0
 20
0.0
 30
0.0
  3
LCDIM1
  1

  4
LCDIM1
  0
LINE
  5
2CA
330
2C6
100
AcDbEntity
  8
LC-010-003-MTH-0
 62
     7
370
    25
100
AcDbLine
 10
902.496242
 20
2712.177171
 30
0.0
 11
902.496242
 21
2815.0
 31
0.0
  0
LINE
  5
2CB
330
2C6
100
AcDbEntity
  8
LC-010-003-MTH-0
 62
     7
370
    25
100
AcDbLine
 10
1242.261724
 20
2712.177171
 30
0.0
 11
1242.261724
 21
2815.0
 31
0.0
  0
LINE
  5
2CD
330
2C6
100
AcDbEntity
  8
LC-011-003-MTG-0
 62
     7
370
    25
100
AcDbLine
 10
902.496242
 20
2800.0
 30
0.0
 11
1242.261724
 21
2800.0
 31
0.0
  0
LINE
  5
2CF
330
2C6
100
AcDbEntity
  8
LC-012-003-----0
 62
     7
370
    25
100
AcDbLine
 10
927.282364
 20
2803.263155
 30
0.0
 11
902.496242
 21
2800.0
 31
0.0
  0
LINE
  5
2D0
330
2C6
100
AcDbEntity
  8
LC-012-003-----0
 62
     7
370
    25
100
AcDbLine
 10
902.496242
 20
2800.0
 30
0.0
 11
927.282364
 21
2796.736845
 31
0.0
  0
LINE
  5
2D1
330
2C6
100
AcDbEntity
  8
LC-012-003-----0
 62
     7
370
    25
100
AcDbLine
 10
927.282364
 20
2796.736845
 30
0.0
 11
927.282364
 21
2803.263155
 31
0.0
  0
LINE
  5
2D2
330
2C6
100
AcDbEntity
  8
LC-012-003-----0
 62
     7
370
    25
100
AcDbLine
 10
927.337973
 20
2802.414735
 30
0.0
 11
908.996242
 21
2800.0
 31
0.0
  0
LINE
  5
2D3
330
2C6
100
AcDbEntity
  8
LC-012-003-----0
 62
     7
370
    25
100
AcDbLine
 10
908.996242
 20
2800.0
 30
0.0
 11
927.337973
 21
2797.585265
 31
0.0
  0
LINE
  5
2D4
330
2C6
100
AcDbEntity
  8
LC-012-003-----0
 62
     7
370
    25
100
AcDbLine
 10
927.393581
 20
2801.566314
 30
0.0
 11
915.496243
 21
2800.0
 31
0.0
  0
LINE
  5
2D5
330
2C6
100
AcDbEntity
  8
LC-012-003-----0
 62
     7
370
    25
100
AcDbLine
 10
915.496243
 20
2800.0
 30
0.0
 11
927.393581
 21
2798.433686
 31
0.0
  0
LINE
  5
2D6
330
2C6
100
AcDbEntity
  8
LC-012-003-----0
 62
     7
370
    25
100
AcDbLine
 10
927.449189
 20
2800.717894
 30
0.0
 11
921.996243
 21
2800.0
 31
0.0
  0
LINE
  5
2D7
330
2C6
100
AcDbEntity
  8
LC-012-003-----0
 62
     7
370
    25
100
AcDbLine
 10
921.996243
 20
2800.0
 30
0.0
 11
927.449189
 21
2799.282106
 31
0.0
  0
LINE
  5
2D8
330
2C6
100
AcDbEntity
  8
LC-012-003-----0
 62
     7
370
    25
100
AcDbLine
 10
1217.475602
 20
2796.736845
 30
0.0
 11
1242.261724
 21
2800.0
 31
0.0
  0
LINE
  5
2D9
330
2C6
100
AcDbEntity
  8
LC-012-003-----0
 62
     7
370
    25
100
AcDbLine
 10
1242.261724
 20
2800.0
 30
0.0
 11
1217.475602
 21
2803.263155
 31
0.0
  0
LINE
  5
2DA
330
2C6
100
AcDbEntity
  8
LC-012-003-----0
 62
     7
370
    25
100
AcDbLine
 10
1217.475602
 20
2803.263155
 30
0.0
 11
1217.475602
 21
2796.736845
 31
0.0
  0
LINE
  5
2DB
330
2C6
100
AcDbEntity
  8
LC-012-003-----0
 62
     7
370
    25
100
AcDbLine
 10
1217.419994
 20
2797.585265
 30
0.0
 11
1235.761724
 21
2800.0
 31
0.0
  0
LINE
  5
2DC
330
2C6
100
AcDbEntity
  8
LC-012-003-----0
 62
     7
370
    25
100
AcDbLine
 10
1235.761724
 20
2800.0
 30
0.0
 11
1217.419994
 21
2802.414735
 31
0.0
  0
LINE
  5
2DD
330
2C6
100
AcDbEntity
  8
LC-012-003-----0
 62
     7
370
    25
100
AcDbLine
 10
1217.364385
 20
2798.433686
 30
0.0
 11
1229.261724
 21
2800.0
 31
0.0
  0
LINE
  5
2DE
330
2C6
100
AcDbEntity
  8
LC-012-003-----0
 62
     7
370
    25
100
AcDbLine
 10
1229.261724
 20
2800.0
 30
0.0
 11
1217.364385
 21
2801.566314
 31
0.0
  0
LINE
  5
2DF
330
2C6
100
AcDbEntity
  8
LC-012-003-----0
 62
     7
370
    25
100
AcDbLine
 10
1217.308777
 20
2799.282106
 30
0.0
 11
1222.761724
 21
2800.0
 31
0.0
  0
LINE
  5
2E0
330
2C6
100
AcDbEntity
  8
LC-012-003-----0
 62
     7
370
    25
100
AcDbLine
 10
1222.761724
 20
2800.0
 30
0.0
 11
1217.308777
 21
2800.717894
 31
0.0
  0
TEXT
  5
2E1
330
2C6
100
AcDbEntity
  8
LC-012-003-----0
 62
     7
370
    25
100
AcDbText
 10
1050.913898
 20
2815.0
 30
0.0
 40
25.0
  1
340
 41
0.7
  7
LCTX0-400-0-0pDIN-Schrift
 72
     1
 11
1075.913898
 21
2815.0
 31
0.0
100
AcDbText
  0
ENDBLK
  5
2C8
330
2C6
100
AcDbEntity
  8
0
100
AcDbBlockEnd
  0
BLOCK
  5
2E4
330
2E3
100
AcDbEntity
  8
0
100
AcDbBlockBegin
  2
LCDIM2
 70
     0
 71
     0
 10
0.0
 20
0.0
 30
0.0
  3
LCDIM2
  1

  4
LCDIM2
  0
LINE
  5
2E6
330
2E3
100
AcDbEntity
  8
LC-010-003-MTH-0
 62
     7
370
    25
100
AcDbLine
 10
706.448427
 20
2712.181877
 30
0.0
 11
706.448427
 21
2815.0
 31
0.0
  0
LINE
  5
2E7
330
2E3
100
AcDbEntity
  8
LC-010-003-MTH-0
 62
     7
370
    25
100
AcDbLine
 10
867.409174
 20
2712.125075
 30
0.0
 11
867.409174
 21
2815.0
 31
0.0
  0
LINE
  5
2E8
330
2E3
100
AcDbEntity
  8
LC-011-003-MTG-0
 62
     7
370
    25
100
AcDbLine
 10
706.448427
 20
2800.0
 30
0.0
 11
867.409174
 21
2800.0
 31
0.0
  0
LINE
  5
2E9
330
2E3
100
AcDbEntity
  8
LC-012-003-----0
 62
     7
370
    25
100
AcDbLine
 10
731.234549
 20
2803.263155
 30
0.0
 11
706.448427
 21
2800.0
 31
0.0
  0
LINE
  5
2EA
330
2E3
100
AcDbEntity
  8
LC-012-003-----0
 62
     7
370
    25
100
AcDbLine
 10
706.448427
 20
2800.0
 30
0.0
 11
731.234549
 21
2796.736845
 31
0.0
  0
LINE
  5
2EB
330
2E3
100
AcDbEntity
  8
LC-012-003-----0
 62
     7
370
    25
100
AcDbLine
 10
731.234549
 20
2796.736845
 30
0.0
 11
731.234549
 21
2803.263155
 31
0.0
  0
LINE
  5
2EC
330
2E3
100
AcDbEntity
  8
LC-012-003-----0
 62
     7
370
    25
100
AcDbLine
 10
731.290157
 20
2802.414735
 30
0.0
 11
712.948427
 21
2800.0
 31
0.0
  0
LINE
  5
2ED
330
2E3
100
AcDbEntity
  8
LC-012-003-----0
 62
     7
370
    25
100
AcDbLine
 10
712.948427
 20
2800.0
 30
0.0
 11
731.290157
 21
2797.585265
 31
0.0
  0
LINE
  5
2EE
330
2E3
100
AcDbEntity
  8
LC-012-003-----0
 62
     7
370
    25
100
AcDbLine
 10
731.345765
 20
2801.566314
 30
0.0
 11
719.448427
 21
2800.0
 31
0.0
  0
LINE
  5
2EF
330
2E3
100
AcDbEntity
  8
LC-012-003-----0
 62
     7
370
    25
100
AcDbLine
 10
719.448427
 20
2800.0
 30
0.0
 11
731.345765
 21
2798.433686
 31
0.0
  0
LINE
  5
2F0
330
2E3
100
AcDbEntity
  8
LC-012-003-----0
 62
     7
370
    25
100
AcDbLine
 10
731.401374
 20
2800.717894
 30
0.0
 11
725.948427
 21
2800.0
 31
0.0
  0
LINE
  5
2F1
330
2E3
100
AcDbEntity
  8
LC-012-003-----0
 62
     7
370
    25
100
AcDbLine
 10
725.948427
 20
2800.0
 30
0.0
 11
731.401374
 21
2799.282106
 31
0.0
  0
LINE
  5
2F2
330
2E3
100
AcDbEntity
  8
LC-012-003-----0
 62
     7
370
    25
100
AcDbLine
 10
842.623052
 20
2796.736845
 30
0.0
 11
867.409174
 21
2800.0
 31
0.0
  0
LINE
  5
2F3
330
2E3
100
AcDbEntity
  8
LC-012-003-----0
 62
     7
370
    25
100
AcDbLine
 10
867.409174
 20
2800.0
 30
0.0
 11
842.623052
 21
2803.263155
 31
0.0
  0
LINE
  5
2F4
330
2E3
100
AcDbEntity
  8
LC-012-003-----0
 62
     7
370
    25
100
AcDbLine
 10
842.623052
 20
2803.263155
 30
0.0
 11
842.623052
 21
2796.736845
 31
0.0
  0
LINE
  5
2F5
330
2E3
100
AcDbEntity
  8
LC-012-003-----0
 62
     7
370
    25
100
AcDbLine
 10
842.567444
 20
2797.585265
 30
0.0
 11
860.909174
 21
2800.0
 31
0.0
  0
LINE
  5
2F6
330
2E3
100
AcDbEntity
  8
LC-012-003-----0
 62
     7
370
    25
100
AcDbLine
 10
860.909174
 20
2800.0
 30
0.0
 11
842.567444
 21
2802.414735
 31
0.0
  0
LINE
  5
2F7
330
2E3
100
AcDbEntity
  8
LC-012-003-----0
 62
     7
370
    25
100
AcDbLine
 10
842.511836
 20
2798.433686
 30
0.0
 11
854.409174
 21
2800.0
 31
0.0
  0
LINE
  5
2F8
330
2E3
100
AcDbEntity
  8
LC-012-003-----0
 62
     7
370
    25
100
AcDbLine
 10
854.409174
 20
2800.0
 30
0.0
 11
842.511836
 21
2801.566314
 31
0.0
  0
LINE
  5
2F9
330
2E3
100
AcDbEntity
  8
LC-012-003-----0
 62
     7
370
    25
100
AcDbLine
 10
842.456227
 20
2799.282106
 30
0.0
 11
847.909174
 21
2800.0
 31
0.0
  0
LINE
  5
2FA
330
2E3
100
AcDbEntity
  8
LC-012-003-----0
 62
     7
370
    25
100
AcDbLine
 10
847.909174
 20
2800.0
 30
0.0
 11
842.456227
 21
2800.717894
 31
0.0
  0
TEXT
  5
2FB
330
2E3
100
AcDbEntity
  8
LC-012-003-----0
 62
     7
370
    25
100
AcDbText
 10
765.513517
 20
2815.0
 30
0.0
 40
25.0
  1
161
 41
0.7
  7
LCTX0-400-0-0pDIN-Schrift
 72
     1
 11
789.263517
 21
2815.0
 31
0.0
100
AcDbText
  0
ENDBLK
  5
2E5
330
2E3
100
AcDbEntity
  8
0
100
AcDbBlockEnd
  0
BLOCK
  5
2FE
330
2FD
100
AcDbEntity
  8
0
100
AcDbBlockBegin
  2
LCDIM3
 70
     0
 71
     0
 10
0.0
 20
0.0
 30
0.0
  3
LCDIM3
  1

  4
LCDIM3
  0
LINE
  5
300
330
2FD
100
AcDbEntity
  8
LC-010-003-MTH-0
 62
     7
370
    25
100
AcDbLine
 10
1749.110287
 20
1597.617584
 30
0.0
 11
1915.0
 21
1597.617584
 31
0.0
  0
LINE
  5
301
330
2FD
100
AcDbEntity
  8
LC-010-003-MTH-0
 62
     7
370
    25
100
AcDbLine
 10
1749.110287
 20
2018.155079
 30
0.0
 11
1915.0
 21
2018.155079
 31
0.0
  0
LINE
  5
302
330
2FD
100
AcDbEntity
  8
LC-011-003-MTG-0
 62
     7
370
    25
100
AcDbLine
 10
1900.0
 20
1597.617584
 30
0.0
 11
1900.0
 21
2018.155079
 31
0.0
  0
LINE
  5
303
330
2FD
100
AcDbEntity
  8
LC-012-003-----0
 62
     7
370
    25
100
AcDbLine
 10
1896.736845
 20
1622.403705
 30
0.0
 11
1900.0
 21
1597.617584
 31
0.0
  0
LINE
  5
304
330
2FD
100
AcDbEntity
  8
LC-012-003-----0
 62
     7
370
    25
100
AcDbLine
 10
1900.0
 20
1597.617584
 30
0.0
 11
1903.263155
 21
1622.403705
 31
0.0
  0
LINE
  5
305
330
2FD
100
AcDbEntity
  8
LC-012-003-----0
 62
     7
370
    25
100
AcDbLine
 10
1903.263155
 20
1622.403705
 30
0.0
 11
1896.736845
 21
1622.403705
 31
0.0
  0
LINE
  5
306
330
2FD
100
AcDbEntity
  8
LC-012-003-----0
 62
     7
370
    25
100
AcDbLine
 10
1897.585265
 20
1622.459314
 30
0.0
 11
1900.0
 21
1604.117584
 31
0.0
  0
LINE
  5
307
330
2FD
100
AcDbEntity
  8
LC-012-003-----0
 62
     7
370
    25
100
AcDbLine
 10
1900.0
 20
1604.117584
 30
0.0
 11
1902.414735
 21
1622.459314
 31
0.0
  0
LINE
  5
308
330
2FD
100
AcDbEntity
  8
LC-012-003-----0
 62
     7
370
    25
100
AcDbLine
 10
1898.433686
 20
1622.514922
 30
0.0
 11
1900.0
 21
1610.617584
 31
0.0
  0
LINE
  5
309
330
2FD
100
AcDbEntity
  8
LC-012-003-----0
 62
     7
370
    25
100
AcDbLine
 10
1900.0
 20
1610.617584
 30
0.0
 11
1901.566314
 21
1622.514922
 31
0.0
  0
LINE
  5
30A
330
2FD
100
AcDbEntity
  8
LC-012-003-----0
 62
     7
370
    25
100
AcDbLine
 10
1899.282106
 20
1622.570531
 30
0.0
 11
1900.0
 21
1617.117584
 31
0.0
  0
LINE
  5
30B
330
2FD
100
AcDbEntity
  8
LC-012-003-----0
 62
     7
370
    25
100
AcDbLine
 10
1900.0
 20
1617.117584
 30
0.0
 11
1900.717894
 21
1622.570531
 31
0.0
  0
LINE
  5
30C
330
2FD
100
AcDbEntity
  8
LC-012-003-----0
 62
     7
370
    25
100
AcDbLine
 10
1903.263155
 20
1993.368957
 30
0.0
 11
1900.0
 21
2018.155079
 31
0.0
  0
LINE
  5
30D
330
2FD
100
AcDbEntity
  8
LC-012-003-----0
 62
     7
370
    25
100
AcDbLine
 10
1900.0
 20
2018.155079
 30
0.0
 11
1896.736845
 21
1993.368957
 31
0.0
  0
LINE
  5
30E
330
2FD
100
AcDbEntity
  8
LC-012-003-----0
 62
     7
370
    25
100
AcDbLine
 10
1896.736845
 20
1993.368957
 30
0.0
 11
1903.263155
 21
1993.368957
 31
0.0
  0
LINE
  5
30F
330
2FD
100
AcDbEntity
  8
LC-012-003-----0
 62
     7
370
    25
100
AcDbLine
 10
1902.414735
 20
1993.313349
 30
0.0
 11
1900.0
 21
2011.655079
 31
0.0
  0
LINE
  5
310
330
2FD
100
AcDbEntity
  8
LC-012-003-----0
 62
     7
370
    25
100
AcDbLine
 10
1900.0
 20
2011.655079
 30
0.0
 11
1897.585265
 21
1993.313349
 31
0.0
  0
LINE
  5
311
330
2FD
100
AcDbEntity
  8
LC-012-003-----0
 62
     7
370
    25
100
AcDbLine
 10
1901.566314
 20
1993.25774
 30
0.0
 11
1900.0
 21
2005.155079
 31
0.0
  0
LINE
  5
312
330
2FD
100
AcDbEntity
  8
LC-012-003-----0
 62
     7
370
    25
100
AcDbLine
 10
1900.0
 20
2005.155079
 30
0.0
 11
1898.433686
 21
1993.25774
 31
0.0
  0
LINE
  5
313
330
2FD
100
AcDbEntity
  8
LC-012-003-----0
 62
     7
370
    25
100
AcDbLine
 10
1900.717894
 20
1993.202132
 30
0.0
 11
1900.0
 21
1998.655079
 31
0.0
  0
LINE
  5
314
330
2FD
100
AcDbEntity
  8
LC-012-003-----0
 62
     7
370
    25
100
AcDbLine
 10
1900.0
 20
1998.655079
 30
0.0
 11
1899.282106
 21
1993.202132
 31
0.0
  0
TEXT
  5
315
330
2FD
100
AcDbEntity
  8
LC-012-003-----0
 62
     7
370
    25
100
AcDbText
 10
1885.0
 20
1784.064385
 30
0.0
 40
25.0
  1
421
 50
90.0
 41
0.7
  7
LCTX0-400-0-0pDIN-Schrift
 72
     1
 11
1885.0
 21
1806.564385
 31
0.0
100
AcDbText
  0
ENDBLK
  5
2FF
330
2FD
100
AcDbEntity
  8
0
100
AcDbBlockEnd
  0
BLOCK
  5
318
330
317
100
AcDbEntity
  8
0
100
AcDbBlockBegin
  2
LCDIM4
 70
     0
 71
     0
 10
0.0
 20
0.0
 30
0.0
  3
LCDIM4
  1

  4
LCDIM4
  0
LINE
  5
31A
330
317
100
AcDbEntity
  8
LC-010-003-MTH-0
 62
     7
370
    25
100
AcDbLine
 10
1749.058191
 20
1658.042359
 30
0.0
 11
1865.0
 21
1658.042359
 31
0.0
  0
LINE
  5
31B
330
317
100
AcDbEntity
  8
LC-010-003-MTH-0
 62
     7
370
    25
100
AcDbLine
 10
1749.058191
 20
1957.397638
 30
0.0
 11
1865.0
 21
1957.397638
 31
0.0
  0
LINE
  5
31C
330
317
100
AcDbEntity
  8
LC-011-003-MTG-0
 62
     7
370
    25
100
AcDbLine
 10
1850.0
 20
1658.042359
 30
0.0
 11
1850.0
 21
1957.397638
 31
0.0
  0
LINE
  5
31D
330
317
100
AcDbEntity
  8
LC-012-003-----0
 62
     7
370
    25
100
AcDbLine
 10
1846.736845
 20
1682.828481
 30
0.0
 11
1850.0
 21
1658.042359
 31
0.0
  0
LINE
  5
31E
330
317
100
AcDbEntity
  8
LC-012-003-----0
 62
     7
370
    25
100
AcDbLine
 10
1850.0
 20
1658.042359
 30
0.0
 11
1853.263155
 21
1682.828481
 31
0.0
  0
LINE
  5
31F
330
317
100
AcDbEntity
  8
LC-012-003-----0
 62
     7
370
    25
100
AcDbLine
 10
1853.263155
 20
1682.828481
 30
0.0
 11
1846.736845
 21
1682.828481
 31
0.0
  0
LINE
  5
320
330
317
100
AcDbEntity
  8
LC-012-003-----0
 62
     7
370
    25
100
AcDbLine
 10
1847.585265
 20
1682.884089
 30
0.0
 11
1850.0
 21
1664.542359
 31
0.0
  0
LINE
  5
321
330
317
100
AcDbEntity
  8
LC-012-003-----0
 62
     7
370
    25
100
AcDbLine
 10
1850.0
 20
1664.542359
 30
0.0
 11
1852.414735
 21
1682.884089
 31
0.0
  0
LINE
  5
322
330
317
100
AcDbEntity
  8
LC-012-003-----0
 62
     7
370
    25
100
AcDbLine
 10
1848.433686
 20
1682.939698
 30
0.0
 11
1850.0
 21
1671.042359
 31
0.0
  0
LINE
  5
323
330
317
100
AcDbEntity
  8
LC-012-003-----0
 62
     7
370
    25
100
AcDbLine
 10
1850.0
 20
1671.042359
 30
0.0
 11
1851.566314
 21
1682.939698
 31
0.0
  0
LINE
  5
324
330
317
100
AcDbEntity
  8
LC-012-003-----0
 62
     7
370
    25
100
AcDbLine
 10
1849.282106
 20
1682.995306
 30
0.0
 11
1850.0
 21
1677.542359
 31
0.0
  0
LINE
  5
325
330
317
100
AcDbEntity
  8
LC-012-003-----0
 62
     7
370
    25
100
AcDbLine
 10
1850.0
 20
1677.542359
 30
0.0
 11
1850.717894
 21
1682.995306
 31
0.0
  0
LINE
  5
326
330
317
100
AcDbEntity
  8
LC-012-003-----0
 62
     7
370
    25
100
AcDbLine
 10
1853.263155
 20
1932.611516
 30
0.0
 11
1850.0
 21
1957.397638
 31
0.0
  0
LINE
  5
327
330
317
100
AcDbEntity
  8
LC-012-003-----0
 62
     7
370
    25
100
AcDbLine
 10
1850.0
 20
1957.397638
 30
0.0
 11
1846.736845
 21
1932.611516
 31
0.0
  0
LINE
  5
328
330
317
100
AcDbEntity
  8
LC-012-003-----0
 62
     7
370
    25
100
AcDbLine
 10
1846.736845
 20
1932.611516
 30
0.0
 11
1853.263155
 21
1932.611516
 31
0.0
  0
LINE
  5
329
330
317
100
AcDbEntity
  8
LC-012-003-----0
 62
     7
370
    25
100
AcDbLine
 10
1852.414735
 20
1932.555908
 30
0.0
 11
1850.0
 21
1950.897638
 31
0.0
  0
LINE
  5
32A
330
317
100
AcDbEntity
  8
LC-012-003-----0
 62
     7
370
    25
100
AcDbLine
 10
1850.0
 20
1950.897638
 30
0.0
 11
1847.585265
 21
1932.555908
 31
0.0
  0
LINE
  5
32B
330
317
100
AcDbEntity
  8
LC-012-003-----0
 62
     7
370
    25
100
AcDbLine
 10
1851.566314
 20
1932.500299
 30
0.0
 11
1850.0
 21
1944.397638
 31
0.0
  0
LINE
  5
32C
330
317
100
AcDbEntity
  8
LC-012-003-----0
 62
     7
370
    25
100
AcDbLine
 10
1850.0
 20
1944.397638
 30
0.0
 11
1848.433686
 21
1932.500299
 31
0.0
  0
LINE
  5
32D
330
317
100
AcDbEntity
  8
LC-012-003-----0
 62
     7
370
    25
100
AcDbLine
 10
1850.717894
 20
1932.444691
 30
0.0
 11
1850.0
 21
1937.897638
 31
0.0
  0
LINE
  5
32E
330
317
100
AcDbEntity
  8
LC-012-003-----0
 62
     7
370
    25
100
AcDbLine
 10
1850.0
 20
1937.897638
 30
0.0
 11
1849.282106
 21
1932.444691
 31
0.0
  0
TEXT
  5
32F
330
317
100
AcDbEntity
  8
LC-012-003-----0
 62
     7
370
    25
100
AcDbText
 10
1835.0
 20
1783.948219
 30
0.0
 40
25.0
  1
299
 50
90.0
 41
0.7
  7
LCTX0-400-0-0pDIN-Schrift
 72
     1
 11
1835.0
 21
1808.531552
 31
0.0
100
AcDbText
  0
ENDBLK
  5
319
330
317
100
AcDbEntity
  8
0
100
AcDbBlockEnd
  0
BLOCK
  5
33A
330
339
100
AcDbEntity
  8
0
100
AcDbBlockBegin
  2
LCDIM5
 70
     0
 71
     0
 10
0.0
 20
0.0
 30
0.0
  3
LCDIM5
  1

  4
LCDIM5
  0
LINE
  5
33C
330
339
100
AcDbEntity
  8
LC-010-003-MTH-0
 62
     7
370
    25
100
AcDbLine
 10
885.518564
 20
804.162575
 30
0.0
 11
1015.0
 21
804.162575
 31
0.0
  0
LINE
  5
33D
330
339
100
AcDbEntity
  8
LC-010-003-MTH-0
 62
     7
370
    25
100
AcDbLine
 10
885.518564
 20
1044.162575
 30
0.0
 11
1015.0
 21
1044.162575
 31
0.0
  0
LINE
  5
33E
330
339
100
AcDbEntity
  8
LC-011-003-MTG-0
 62
     7
370
    25
100
AcDbLine
 10
1000.0
 20
804.162575
 30
0.0
 11
1000.0
 21
1044.162575
 31
0.0
  0
LINE
  5
33F
330
339
100
AcDbEntity
  8
LC-012-003-----0
 62
     7
370
    25
100
AcDbLine
 10
996.736845
 20
828.948697
 30
0.0
 11
1000.0
 21
804.162575
 31
0.0
  0
LINE
  5
340
330
339
100
AcDbEntity
  8
LC-012-003-----0
 62
     7
370
    25
100
AcDbLine
 10
1000.0
 20
804.162575
 30
0.0
 11
1003.263155
 21
828.948697
 31
0.0
  0
LINE
  5
341
330
339
100
AcDbEntity
  8
LC-012-003-----0
 62
     7
370
    25
100
AcDbLine
 10
1003.263155
 20
828.948697
 30
0.0
 11
996.736845
 21
828.948697
 31
0.0
  0
LINE
  5
342
330
339
100
AcDbEntity
  8
LC-012-003-----0
 62
     7
370
    25
100
AcDbLine
 10
997.585265
 20
829.004305
 30
0.0
 11
1000.0
 21
810.662575
 31
0.0
  0
LINE
  5
343
330
339
100
AcDbEntity
  8
LC-012-003-----0
 62
     7
370
    25
100
AcDbLine
 10
1000.0
 20
810.662575
 30
0.0
 11
1002.414735
 21
829.004305
 31
0.0
  0
LINE
  5
344
330
339
100
AcDbEntity
  8
LC-012-003-----0
 62
     7
370
    25
100
AcDbLine
 10
998.433686
 20
829.059914
 30
0.0
 11
1000.0
 21
817.162575
 31
0.0
  0
LINE
  5
345
330
339
100
AcDbEntity
  8
LC-012-003-----0
 62
     7
370
    25
100
AcDbLine
 10
1000.0
 20
817.162575
 30
0.0
 11
1001.566314
 21
829.059914
 31
0.0
  0
LINE
  5
346
330
339
100
AcDbEntity
  8
LC-012-003-----0
 62
     7
370
    25
100
AcDbLine
 10
999.282106
 20
829.115522
 30
0.0
 11
1000.0
 21
823.662575
 31
0.0
  0
LINE
  5
347
330
339
100
AcDbEntity
  8
LC-012-003-----0
 62
     7
370
    25
100
AcDbLine
 10
1000.0
 20
823.662575
 30
0.0
 11
1000.717894
 21
829.115522
 31
0.0
  0
LINE
  5
348
330
339
100
AcDbEntity
  8
LC-012-003-----0
 62
     7
370
    25
100
AcDbLine
 10
1003.263155
 20
1019.376453
 30
0.0
 11
1000.0
 21
1044.162575
 31
0.0
  0
LINE
  5
349
330
339
100
AcDbEntity
  8
LC-012-003-----0
 62
     7
370
    25
100
AcDbLine
 10
1000.0
 20
1044.162575
 30
0.0
 11
996.736845
 21
1019.376453
 31
0.0
  0
LINE
  5
34A
330
339
100
AcDbEntity
  8
LC-012-003-----0
 62
     7
370
    25
100
AcDbLine
 10
996.736845
 20
1019.376453
 30
0.0
 11
1003.263155
 21
1019.376453
 31
0.0
  0
LINE
  5
34B
330
339
100
AcDbEntity
  8
LC-012-003-----0
 62
     7
370
    25
100
AcDbLine
 10
1002.414735
 20
1019.320845
 30
0.0
 11
1000.0
 21
1037.662575
 31
0.0
  0
LINE
  5
34C
330
339
100
AcDbEntity
  8
LC-012-003-----0
 62
     7
370
    25
100
AcDbLine
 10
1000.0
 20
1037.662575
 30
0.0
 11
997.585265
 21
1019.320845
 31
0.0
  0
LINE
  5
34D
330
339
100
AcDbEntity
  8
LC-012-003-----0
 62
     7
370
    25
100
AcDbLine
 10
1001.566314
 20
1019.265236
 30
0.0
 11
1000.0
 21
1031.162575
 31
0.0
  0
LINE
  5
34E
330
339
100
AcDbEntity
  8
LC-012-003-----0
 62
     7
370
    25
100
AcDbLine
 10
1000.0
 20
1031.162575
 30
0.0
 11
998.433686
 21
1019.265236
 31
0.0
  0
LINE
  5
34F
330
339
100
AcDbEntity
  8
LC-012-003-----0
 62
     7
370
    25
100
AcDbLine
 10
1000.717894
 20
1019.209628
 30
0.0
 11
1000.0
 21
1024.662575
 31
0.0
  0
LINE
  5
350
330
339
100
AcDbEntity
  8
LC-012-003-----0
 62
     7
370
    25
100
AcDbLine
 10
1000.0
 20
1024.662575
 30
0.0
 11
999.282106
 21
1019.209628
 31
0.0
  0
TEXT
  5
351
330
339
100
AcDbEntity
  8
LC-012-003-----0
 62
     7
370
    25
100
AcDbText
 10
985.0
 20
894.729147
 30
0.0
 40
25.0
  1
480
 50
90.0
 41
0.7
  7
LCTX0-400-0-0pDIN-Schrift
 72
     1
 11
985.0
 21
919.729147
 31
0.0
100
AcDbText
  0
ENDBLK
  5
33B
330
339
100
AcDbEntity
  8
0
100
AcDbBlockEnd
  0
BLOCK
  5
354
330
353
100
AcDbEntity
  8
0
100
AcDbBlockBegin
  2
LCDIM6
 70
     0
 71
     0
 10
0.0
 20
0.0
 30
0.0
  3
LCDIM6
  1

  4
LCDIM6
  0
TEXT
  5
356
330
353
100
AcDbEntity
  8
LC-012-003-----0
 62
     7
370
    25
100
AcDbText
 10
453.079612
 20
862.404951
 30
0.0
 40
25.0
  1
R10
 50
36.09713
 41
0.7
  7
LCTX0-400-0-0pDIN-Schrift
100
AcDbText
  0
LINE
  5
357
330
353
100
AcDbEntity
  8
LC-011-003-MTG-0
 62
     7
370
    25
100
AcDbLine
 10
488.110287
 20
869.38316
 30
0.0
 11
401.478468
 21
806.216796
 31
0.0
  0
LINE
  5
358
330
353
100
AcDbEntity
  8
LC-012-003-----0
 62
     7
370
    25
100
AcDbLine
 10
419.583627
 20
823.456378
 30
0.0
 11
401.478468
 21
806.216796
 31
0.0
  0
LINE
  5
359
330
353
100
AcDbEntity
  8
LC-012-003-----0
 62
     7
370
    25
100
AcDbLine
 10
401.478468
 20
806.216796
 30
0.0
 11
423.428641
 21
818.182993
 31
0.0
  0
LINE
  5
35A
330
353
100
AcDbEntity
  8
LC-012-003-----0
 62
     7
370
    25
100
AcDbLine
 10
423.428641
 20
818.182993
 30
0.0
 11
419.583627
 21
823.456378
 31
0.0
  0
LINE
  5
35B
330
353
100
AcDbEntity
  8
LC-012-003-----0
 62
     7
370
    25
100
AcDbLine
 10
420.128412
 20
822.8036
 30
0.0
 11
406.730594
 21
810.046309
 31
0.0
  0
LINE
  5
35C
330
353
100
AcDbEntity
  8
LC-012-003-----0
 62
     7
370
    25
100
AcDbLine
 10
406.730594
 20
810.046309
 30
0.0
 11
422.973722
 21
818.901295
 31
0.0
  0
LINE
  5
35D
330
353
100
AcDbEntity
  8
LC-012-003-----0
 62
     7
370
    25
100
AcDbLine
 10
420.673196
 20
822.150822
 30
0.0
 11
411.98272
 21
813.875822
 31
0.0
  0
LINE
  5
35E
330
353
100
AcDbEntity
  8
LC-012-003-----0
 62
     7
370
    25
100
AcDbLine
 10
411.98272
 20
813.875822
 30
0.0
 11
422.518803
 21
819.619597
 31
0.0
  0
LINE
  5
35F
330
353
100
AcDbEntity
  8
LC-012-003-----0
 62
     7
370
    25
100
AcDbLine
 10
421.217981
 20
821.498044
 30
0.0
 11
417.234846
 21
817.705336
 31
0.0
  0
LINE
  5
360
330
353
100
AcDbEntity
  8
LC-012-003-----0
 62
     7
370
    25
100
AcDbLine
 10
417.234846
 20
817.705336
 30
0.0
 11
422.063884
 21
820.337899
 31
0.0
  0
ENDBLK
  5
355
330
353
100
AcDbEntity
  8
0
100
AcDbBlockEnd
  0
BLOCK
  5
365
330
364
100
AcDbEntity
  8
0
100
AcDbBlockBegin
  2
LCDIM7
 70
     0
 71
     0
 10
0.0
 20
0.0
 30
0.0
  3
LCDIM7
  1

  4
LCDIM7
  0
LINE
  5
367
330
364
100
AcDbEntity
  8
LC-010-003-MTH-0
 62
     7
370
    25
100
AcDbLine
 10
878.931535
 20
2008.72
 30
0.0
 11
878.931535
 21
2165.0
 31
0.0
  0
LINE
  5
368
330
364
100
AcDbEntity
  8
LC-010-003-MTH-0
 62
     7
370
    25
100
AcDbLine
 10
1281.931535
 20
2052.72
 30
0.0
 11
1281.931535
 21
2165.0
 31
0.0
  0
LINE
  5
369
330
364
100
AcDbEntity
  8
LC-011-003-MTG-0
 62
     7
370
    25
100
AcDbLine
 10
878.931535
 20
2150.0
 30
0.0
 11
1281.931535
 21
2150.0
 31
0.0
  0
LINE
  5
36A
330
364
100
AcDbEntity
  8
LC-012-003-----0
 62
     7
370
    25
100
AcDbLine
 10
903.717657
 20
2153.263155
 30
0.0
 11
878.931535
 21
2150.0
 31
0.0
  0
LINE
  5
36B
330
364
100
AcDbEntity
  8
LC-012-003-----0
 62
     7
370
    25
100
AcDbLine
 10
878.931535
 20
2150.0
 30
0.0
 11
903.717657
 21
2146.736845
 31
0.0
  0
LINE
  5
36C
330
364
100
AcDbEntity
  8
LC-012-003-----0
 62
     7
370
    25
100
AcDbLine
 10
903.717657
 20
2146.736845
 30
0.0
 11
903.717657
 21
2153.263155
 31
0.0
  0
LINE
  5
36D
330
364
100
AcDbEntity
  8
LC-012-003-----0
 62
     7
370
    25
100
AcDbLine
 10
903.773266
 20
2152.414735
 30
0.0
 11
885.431535
 21
2150.0
 31
0.0
  0
LINE
  5
36E
330
364
100
AcDbEntity
  8
LC-012-003-----0
 62
     7
370
    25
100
AcDbLine
 10
885.431535
 20
2150.0
 30
0.0
 11
903.773266
 21
2147.585265
 31
0.0
  0
LINE
  5
36F
330
364
100
AcDbEntity
  8
LC-012-003-----0
 62
     7
370
    25
100
AcDbLine
 10
903.828874
 20
2151.566314
 30
0.0
 11
891.931535
 21
2150.0
 31
0.0
  0
LINE
  5
370
330
364
100
AcDbEntity
  8
LC-012-003-----0
 62
     7
370
    25
100
AcDbLine
 10
891.931535
 20
2150.0
 30
0.0
 11
903.828874
 21
2148.433686
 31
0.0
  0
LINE
  5
371
330
364
100
AcDbEntity
  8
LC-012-003-----0
 62
     7
370
    25
100
AcDbLine
 10
903.884482
 20
2150.717894
 30
0.0
 11
898.431536
 21
2150.0
 31
0.0
  0
LINE
  5
372
330
364
100
AcDbEntity
  8
LC-012-003-----0
 62
     7
370
    25
100
AcDbLine
 10
898.431536
 20
2150.0
 30
0.0
 11
903.884482
 21
2149.282106
 31
0.0
  0
LINE
  5
373
330
364
100
AcDbEntity
  8
LC-012-003-----0
 62
     7
370
    25
100
AcDbLine
 10
1257.145413
 20
2146.736845
 30
0.0
 11
1281.931535
 21
2150.0
 31
0.0
  0
LINE
  5
374
330
364
100
AcDbEntity
  8
LC-012-003-----0
 62
     7
370
    25
100
AcDbLine
 10
1281.931535
 20
2150.0
 30
0.0
 11
1257.145413
 21
2153.263155
 31
0.0
  0
LINE
  5
375
330
364
100
AcDbEntity
  8
LC-012-003-----0
 62
     7
370
    25
100
AcDbLine
 10
1257.145413
 20
2153.263155
 30
0.0
 11
1257.145413
 21
2146.736845
 31
0.0
  0
LINE
  5
376
330
364
100
AcDbEntity
  8
LC-012-003-----0
 62
     7
370
    25
100
AcDbLine
 10
1257.089805
 20
2147.585265
 30
0.0
 11
1275.431535
 21
2150.0
 31
0.0
  0
LINE
  5
377
330
364
100
AcDbEntity
  8
LC-012-003-----0
 62
     7
370
    25
100
AcDbLine
 10
1275.431535
 20
2150.0
 30
0.0
 11
1257.089805
 21
2152.414735
 31
0.0
  0
LINE
  5
378
330
364
100
AcDbEntity
  8
LC-012-003-----0
 62
     7
370
    25
100
AcDbLine
 10
1257.034197
 20
2148.433686
 30
0.0
 11
1268.931535
 21
2150.0
 31
0.0
  0
LINE
  5
379
330
364
100
AcDbEntity
  8
LC-012-003-----0
 62
     7
370
    25
100
AcDbLine
 10
1268.931535
 20
2150.0
 30
0.0
 11
1257.034197
 21
2151.566314
 31
0.0
  0
LINE
  5
37A
330
364
100
AcDbEntity
  8
LC-012-003-----0
 62
     7
370
    25
100
AcDbLine
 10
1256.978588
 20
2149.282106
 30
0.0
 11
1262.431535
 21
2150.0
 31
0.0
  0
LINE
  5
37B
330
364
100
AcDbEntity
  8
LC-012-003-----0
 62
     7
370
    25
100
AcDbLine
 10
1262.431535
 20
2150.0
 30
0.0
 11
1256.978588
 21
2150.717894
 31
0.0
  0
TEXT
  5
37C
330
364
100
AcDbEntity
  8
LC-012-003-----0
 62
     7
370
    25
100
AcDbText
 10
1070.013771
 20
2165.0
 30
0.0
 40
25.0
  1
403
 41
0.7
  7
LCTX0-400-0-0pDIN-Schrift
 72
     1
 11
1095.013771
 21
2165.0
 31
0.0
100
AcDbText
  0
ENDBLK
  5
366
330
364
100
AcDbEntity
  8
0
100
AcDbBlockEnd
  0
BLOCK
  5
37F
330
37E
100
AcDbEntity
  8
0
100
AcDbBlockBegin
  2
LCDIM8
 70
     0
 71
     0
 10
0.0
 20
0.0
 30
0.0
  3
LCDIM8
  1

  4
LCDIM8
  0
LINE
  5
381
330
37E
100
AcDbEntity
  8
LC-010-003-MTH-0
 62
     7
370
    25
100
AcDbLine
 10
861.431535
 20
1991.22
 30
0.0
 11
735.0
 21
1991.22
 31
0.0
  0
LINE
  5
382
330
37E
100
AcDbEntity
  8
LC-010-003-MTH-0
 62
     7
370
    25
100
AcDbLine
 10
865.917965
 20
2057.72
 30
0.0
 11
735.0
 21
2057.72
 31
0.0
  0
LINE
  5
383
330
37E
100
AcDbEntity
  8
LC-012-003-----0
 62
     7
370
    25
100
AcDbLine
 10
753.263155
 20
1966.433878
 30
0.0
 11
750.0
 21
1991.22
 31
0.0
  0
LINE
  5
384
330
37E
100
AcDbEntity
  8
LC-012-003-----0
 62
     7
370
    25
100
AcDbLine
 10
750.0
 20
1991.22
 30
0.0
 11
746.736845
 21
1966.433878
 31
0.0
  0
LINE
  5
385
330
37E
100
AcDbEntity
  8
LC-012-003-----0
 62
     7
370
    25
100
AcDbLine
 10
746.736845
 20
1966.433878
 30
0.0
 11
753.263155
 21
1966.433878
 31
0.0
  0
LINE
  5
386
330
37E
100
AcDbEntity
  8
LC-012-003-----0
 62
     7
370
    25
100
AcDbLine
 10
752.414735
 20
1966.37827
 30
0.0
 11
750.0
 21
1984.72
 31
0.0
  0
LINE
  5
387
330
37E
100
AcDbEntity
  8
LC-012-003-----0
 62
     7
370
    25
100
AcDbLine
 10
750.0
 20
1984.72
 30
0.0
 11
747.585265
 21
1966.37827
 31
0.0
  0
LINE
  5
388
330
37E
100
AcDbEntity
  8
LC-012-003-----0
 62
     7
370
    25
100
AcDbLine
 10
751.566314
 20
1966.322661
 30
0.0
 11
750.0
 21
1978.22
 31
0.0
  0
LINE
  5
389
330
37E
100
AcDbEntity
  8
LC-012-003-----0
 62
     7
370
    25
100
AcDbLine
 10
750.0
 20
1978.22
 30
0.0
 11
748.433686
 21
1966.322661
 31
0.0
  0
LINE
  5
38A
330
37E
100
AcDbEntity
  8
LC-012-003-----0
 62
     7
370
    25
100
AcDbLine
 10
750.717894
 20
1966.267053
 30
0.0
 11
750.0
 21
1971.72
 31
0.0
  0
LINE
  5
38B
330
37E
100
AcDbEntity
  8
LC-012-003-----0
 62
     7
370
    25
100
AcDbLine
 10
750.0
 20
1971.72
 30
0.0
 11
749.282106
 21
1966.267053
 31
0.0
  0
LINE
  5
38C
330
37E
100
AcDbEntity
  8
LC-012-003-----0
 62
     7
370
    25
100
AcDbLine
 10
746.736845
 20
2082.506122
 30
0.0
 11
750.0
 21
2057.72
 31
0.0
  0
LINE
  5
38D
330
37E
100
AcDbEntity
  8
LC-012-003-----0
 62
     7
370
    25
100
AcDbLine
 10
750.0
 20
2057.72
 30
0.0
 11
753.263155
 21
2082.506122
 31
0.0
  0
LINE
  5
38E
330
37E
100
AcDbEntity
  8
LC-012-003-----0
 62
     7
370
    25
100
AcDbLine
 10
753.263155
 20
2082.506122
 30
0.0
 11
746.736845
 21
2082.506122
 31
0.0
  0
LINE
  5
38F
330
37E
100
AcDbEntity
  8
LC-012-003-----0
 62
     7
370
    25
100
AcDbLine
 10
747.585265
 20
2082.56173
 30
0.0
 11
750.0
 21
2064.22
 31
0.0
  0
LINE
  5
390
330
37E
100
AcDbEntity
  8
LC-012-003-----0
 62
     7
370
    25
100
AcDbLine
 10
750.0
 20
2064.22
 30
0.0
 11
752.414735
 21
2082.56173
 31
0.0
  0
LINE
  5
391
330
37E
100
AcDbEntity
  8
LC-012-003-----0
 62
     7
370
    25
100
AcDbLine
 10
748.433686
 20
2082.617339
 30
0.0
 11
750.0
 21
2070.72
 31
0.0
  0
LINE
  5
392
330
37E
100
AcDbEntity
  8
LC-012-003-----0
 62
     7
370
    25
100
AcDbLine
 10
750.0
 20
2070.72
 30
0.0
 11
751.566314
 21
2082.617339
 31
0.0
  0
LINE
  5
393
330
37E
100
AcDbEntity
  8
LC-012-003-----0
 62
     7
370
    25
100
AcDbLine
 10
749.282106
 20
2082.672947
 30
0.0
 11
750.0
 21
2077.22
 31
0.0
  0
LINE
  5
394
330
37E
100
AcDbEntity
  8
LC-012-003-----0
 62
     7
370
    25
100
AcDbLine
 10
750.0
 20
2077.22
 30
0.0
 11
750.717894
 21
2082.672947
 31
0.0
  0
LINE
  5
395
330
37E
100
AcDbEntity
  8
LC-011-003-MTG-0
 62
     7
370
    25
100
AcDbLine
 10
750.0
 20
1956.219999
 30
0.0
 11
750.0
 21
2161.499922
 31
0.0
  0
TEXT
  5
396
330
37E
100
AcDbEntity
  8
LC-012-003-----0
 62
     7
370
    25
100
AcDbText
 10
735.0
 20
2123.386657
 30
0.0
 40
25.0
  1
66,5
 50
90.0
 41
0.7
  7
LCTX0-400-0-0pDIN-Schrift
100
AcDbText
  0
ENDBLK
  5
380
330
37E
100
AcDbEntity
  8
0
100
AcDbBlockEnd
  0
BLOCK
  5
39E
330
39D
100
AcDbEntity
  8
0
100
AcDbBlockBegin
  2
*X110
 70
     1
 71
     0
 10
0.0
 20
0.0
 30
0.0
  3
*X110
  1

  4
*X1
  0
LINE
  5
3A1
330
39D
100
AcDbEntity
  8
LC-014-005-----0
 62
     7
370
    25
100
AcDbLine
 10
1322.179156
 20
2708.329497
 30
0.0
 11
1310.458653
 21
2720.05
 31
0.0
  0
LINE
  5
3A2
330
39D
100
AcDbEntity
  8
LC-014-005-----0
 62
     7
370
    25
100
AcDbLine
 10
1307.032246
 20
2681.05
 30
0.0
 11
1271.826645
 21
2716.255601
 31
0.0
  0
ENDBLK
  5
39F
330
39D
100
AcDbEntity
  8
0
100
AcDbBlockEnd
  0
BLOCK
  5
3B0
330
3AF
100
AcDbEntity
  8
0
100
AcDbBlockBegin
  2
LCDIM9
 70
     0
 71
     0
 10
0.0
 20
0.0
 30
0.0
  3
LCDIM9
  1

  4
LCDIM9
  0
LINE
  5
3B2
330
3AF
100
AcDbEntity
  8
LC-010-003-MTH-0
 62
     7
370
    25
100
AcDbLine
 10
1006.931535
 20
2521.55
 30
0.0
 11
985.0
 21
2521.55
 31
0.0
  0
LINE
  5
3B3
330
3AF
100
AcDbEntity
  8
LC-010-003-MTH-0
 62
     7
370
    25
100
AcDbLine
 10
1008.680106
 20
2726.55
 30
0.0
 11
985.0
 21
2726.55
 31
0.0
  0
LINE
  5
3B4
330
3AF
100
AcDbEntity
  8
LC-011-003-MTG-0
 62
     7
370
    25
100
AcDbLine
 10
1000.0
 20
2521.55
 30
0.0
 11
1000.0
 21
2726.55
 31
0.0
  0
LINE
  5
3B5
330
3AF
100
AcDbEntity
  8
LC-012-003-----0
 62
     7
370
    25
100
AcDbLine
 10
996.736845
 20
2546.336122
 30
0.0
 11
1000.0
 21
2521.55
 31
0.0
  0
LINE
  5
3B6
330
3AF
100
AcDbEntity
  8
LC-012-003-----0
 62
     7
370
    25
100
AcDbLine
 10
1000.0
 20
2521.55
 30
0.0
 11
1003.263155
 21
2546.336122
 31
0.0
  0
LINE
  5
3B7
330
3AF
100
AcDbEntity
  8
LC-012-003-----0
 62
     7
370
    25
100
AcDbLine
 10
1003.263155
 20
2546.336122
 30
0.0
 11
996.736845
 21
2546.336122
 31
0.0
  0
LINE
  5
3B8
330
3AF
100
AcDbEntity
  8
LC-012-003-----0
 62
     7
370
    25
100
AcDbLine
 10
997.585265
 20
2546.39173
 30
0.0
 11
1000.0
 21
2528.05
 31
0.0
  0
LINE
  5
3B9
330
3AF
100
AcDbEntity
  8
LC-012-003-----0
 62
     7
370
    25
100
AcDbLine
 10
1000.0
 20
2528.05
 30
0.0
 11
1002.414735
 21
2546.39173
 31
0.0
  0
LINE
  5
3BA
330
3AF
100
AcDbEntity
  8
LC-012-003-----0
 62
     7
370
    25
100
AcDbLine
 10
998.433686
 20
2546.447339
 30
0.0
 11
1000.0
 21
2534.55
 31
0.0
  0
LINE
  5
3BB
330
3AF
100
AcDbEntity
  8
LC-012-003-----0
 62
     7
370
    25
100
AcDbLine
 10
1000.0
 20
2534.55
 30
0.0
 11
1001.566314
 21
2546.447339
 31
0.0
  0
LINE
  5
3BC
330
3AF
100
AcDbEntity
  8
LC-012-003-----0
 62
     7
370
    25
100
AcDbLine
 10
999.282106
 20
2546.502947
 30
0.0
 11
1000.0
 21
2541.05
 31
0.0
  0
LINE
  5
3BD
330
3AF
100
AcDbEntity
  8
LC-012-003-----0
 62
     7
370
    25
100
AcDbLine
 10
1000.0
 20
2541.05
 30
0.0
 11
1000.717894
 21
2546.502947
 31
0.0
  0
LINE
  5
3BE
330
3AF
100
AcDbEntity
  8
LC-012-003-----0
 62
     7
370
    25
100
AcDbLine
 10
1003.263155
 20
2701.763878
 30
0.0
 11
1000.0
 21
2726.55
 31
0.0
  0
LINE
  5
3BF
330
3AF
100
AcDbEntity
  8
LC-012-003-----0
 62
     7
370
    25
100
AcDbLine
 10
1000.0
 20
2726.55
 30
0.0
 11
996.736845
 21
2701.763878
 31
0.0
  0
LINE
  5
3C0
330
3AF
100
AcDbEntity
  8
LC-012-003-----0
 62
     7
370
    25
100
AcDbLine
 10
996.736845
 20
2701.763878
 30
0.0
 11
1003.263155
 21
2701.763878
 31
0.0
  0
LINE
  5
3C1
330
3AF
100
AcDbEntity
  8
LC-012-003-----0
 62
     7
370
    25
100
AcDbLine
 10
1002.414735
 20
2701.70827
 30
0.0
 11
1000.0
 21
2720.05
 31
0.0
  0
LINE
  5
3C2
330
3AF
100
AcDbEntity
  8
LC-012-003-----0
 62
     7
370
    25
100
AcDbLine
 10
1000.0
 20
2720.05
 30
0.0
 11
997.585265
 21
2701.70827
 31
0.0
  0
LINE
  5
3C3
330
3AF
100
AcDbEntity
  8
LC-012-003-----0
 62
     7
370
    25
100
AcDbLine
 10
1001.566314
 20
2701.652661
 30
0.0
 11
1000.0
 21
2713.55
 31
0.0
  0
LINE
  5
3C4
330
3AF
100
AcDbEntity
  8
LC-012-003-----0
 62
     7
370
    25
100
AcDbLine
 10
1000.0
 20
2713.55
 30
0.0
 11
998.433686
 21
2701.652661
 31
0.0
  0
LINE
  5
3C5
330
3AF
100
AcDbEntity
  8
LC-012-003-----0
 62
     7
370
    25
100
AcDbLine
 10
1000.717894
 20
2701.597053
 30
0.0
 11
1000.0
 21
2707.05
 31
0.0
  0
LINE
  5
3C6
330
3AF
100
AcDbEntity
  8
LC-012-003-----0
 62
     7
370
    25
100
AcDbLine
 10
1000.0
 20
2707.05
 30
0.0
 11
999.282106
 21
2701.597053
 31
0.0
  0
TEXT
  5
3C7
330
3AF
100
AcDbEntity
  8
LC-012-003-----0
 62
     7
370
    25
100
AcDbText
 10
985.0
 20
2597.930209
 30
0.0
 40
25.0
  1
205
 50
90.0
 41
0.7
  7
LCTX0-400-0-0pDIN-Schrift
 72
     1
 11
985.0
 21
2622.930209
 31
0.0
100
AcDbText
  0
ENDBLK
  5
3B1
330
3AF
100
AcDbEntity
  8
0
100
AcDbBlockEnd
  0
BLOCK
  5
3CA
330
3C9
100
AcDbEntity
  8
0
100
AcDbBlockBegin
  2
LCDIM10
 70
     0
 71
     0
 10
0.0
 20
0.0
 30
0.0
  3
LCDIM10
  1

  4
LCDIM10
  0
LINE
  5
3CC
330
3C9
100
AcDbEntity
  8
LC-010-003-MTH-0
 62
     7
370
    25
100
AcDbLine
 10
776.931535
 20
2577.55
 30
0.0
 11
815.0
 21
2577.55
 31
0.0
  0
LINE
  5
3CD
330
3C9
100
AcDbEntity
  8
LC-010-003-MTH-0
 62
     7
370
    25
100
AcDbLine
 10
770.573152
 20
2726.55
 30
0.0
 11
815.0
 21
2726.55
 31
0.0
  0
LINE
  5
3CE
330
3C9
100
AcDbEntity
  8
LC-011-003-MTG-0
 62
     7
370
    25
100
AcDbLine
 10
800.0
 20
2577.55
 30
0.0
 11
800.0
 21
2726.55
 31
0.0
  0
LINE
  5
3CF
330
3C9
100
AcDbEntity
  8
LC-012-003-----0
 62
     7
370
    25
100
AcDbLine
 10
796.736845
 20
2602.336122
 30
0.0
 11
800.0
 21
2577.55
 31
0.0
  0
LINE
  5
3D0
330
3C9
100
AcDbEntity
  8
LC-012-003-----0
 62
     7
370
    25
100
AcDbLine
 10
800.0
 20
2577.55
 30
0.0
 11
803.263155
 21
2602.336122
 31
0.0
  0
LINE
  5
3D1
330
3C9
100
AcDbEntity
  8
LC-012-003-----0
 62
     7
370
    25
100
AcDbLine
 10
803.263155
 20
2602.336122
 30
0.0
 11
796.736845
 21
2602.336122
 31
0.0
  0
LINE
  5
3D2
330
3C9
100
AcDbEntity
  8
LC-012-003-----0
 62
     7
370
    25
100
AcDbLine
 10
797.585265
 20
2602.39173
 30
0.0
 11
800.0
 21
2584.05
 31
0.0
  0
LINE
  5
3D3
330
3C9
100
AcDbEntity
  8
LC-012-003-----0
 62
     7
370
    25
100
AcDbLine
 10
800.0
 20
2584.05
 30
0.0
 11
802.414735
 21
2602.39173
 31
0.0
  0
LINE
  5
3D4
330
3C9
100
AcDbEntity
  8
LC-012-003-----0
 62
     7
370
    25
100
AcDbLine
 10
798.433686
 20
2602.447339
 30
0.0
 11
800.0
 21
2590.55
 31
0.0
  0
LINE
  5
3D5
330
3C9
100
AcDbEntity
  8
LC-012-003-----0
 62
     7
370
    25
100
AcDbLine
 10
800.0
 20
2590.55
 30
0.0
 11
801.566314
 21
2602.447339
 31
0.0
  0
LINE
  5
3D6
330
3C9
100
AcDbEntity
  8
LC-012-003-----0
 62
     7
370
    25
100
AcDbLine
 10
799.282106
 20
2602.502947
 30
0.0
 11
800.0
 21
2597.05
 31
0.0
  0
LINE
  5
3D7
330
3C9
100
AcDbEntity
  8
LC-012-003-----0
 62
     7
370
    25
100
AcDbLine
 10
800.0
 20
2597.05
 30
0.0
 11
800.717894
 21
2602.502947
 31
0.0
  0
LINE
  5
3D8
330
3C9
100
AcDbEntity
  8
LC-012-003-----0
 62
     7
370
    25
100
AcDbLine
 10
803.263155
 20
2701.763878
 30
0.0
 11
800.0
 21
2726.55
 31
0.0
  0
LINE
  5
3D9
330
3C9
100
AcDbEntity
  8
LC-012-003-----0
 62
     7
370
    25
100
AcDbLine
 10
800.0
 20
2726.55
 30
0.0
 11
796.736845
 21
2701.763878
 31
0.0
  0
LINE
  5
3DA
330
3C9
100
AcDbEntity
  8
LC-012-003-----0
 62
     7
370
    25
100
AcDbLine
 10
796.736845
 20
2701.763878
 30
0.0
 11
803.263155
 21
2701.763878
 31
0.0
  0
LINE
  5
3DB
330
3C9
100
AcDbEntity
  8
LC-012-003-----0
 62
     7
370
    25
100
AcDbLine
 10
802.414735
 20
2701.70827
 30
0.0
 11
800.0
 21
2720.05
 31
0.0
  0
LINE
  5
3DC
330
3C9
100
AcDbEntity
  8
LC-012-003-----0
 62
     7
370
    25
100
AcDbLine
 10
800.0
 20
2720.05
 30
0.0
 11
797.585265
 21
2701.70827
 31
0.0
  0
LINE
  5
3DD
330
3C9
100
AcDbEntity
  8
LC-012-003-----0
 62
     7
370
    25
100
AcDbLine
 10
801.566314
 20
2701.652661
 30
0.0
 11
800.0
 21
2713.55
 31
0.0
  0
LINE
  5
3DE
330
3C9
100
AcDbEntity
  8
LC-012-003-----0
 62
     7
370
    25
100
AcDbLine
 10
800.0
 20
2713.55
 30
0.0
 11
798.433686
 21
2701.652661
 31
0.0
  0
LINE
  5
3DF
330
3C9
100
AcDbEntity
  8
LC-012-003-----0
 62
     7
370
    25
100
AcDbLine
 10
800.717894
 20
2701.597053
 30
0.0
 11
800.0
 21
2707.05
 31
0.0
  0
LINE
  5
3E0
330
3C9
100
AcDbEntity
  8
LC-012-003-----0
 62
     7
370
    25
100
AcDbLine
 10
800.0
 20
2707.05
 30
0.0
 11
799.282106
 21
2701.597053
 31
0.0
  0
TEXT
  5
3E1
330
3C9
100
AcDbEntity
  8
LC-012-003-----0
 62
     7
370
    25
100
AcDbText
 10
785.0
 20
2618.689486
 30
0.0
 40
25.0
  1
149
 50
90.0
 41
0.7
  7
LCTX0-400-0-0pDIN-Schrift
 72
     1
 11
785.0
 21
2644.522819
 31
0.0
100
AcDbText
  0
ENDBLK
  5
3CB
330
3C9
100
AcDbEntity
  8
0
100
AcDbBlockEnd
  0
BLOCK
  5
3EB
330
3EA
100
AcDbEntity
  8
0
100
AcDbBlockBegin
  2
LCDIM11
 70
     0
 71
     0
 10
0.0
 20
0.0
 30
0.0
  3
LCDIM11
  1

  4
LCDIM11
  0
LINE
  5
3ED
330
3EA
100
AcDbEntity
  8
LC-010-003-MTH-0
 62
     7
370
    25
100
AcDbLine
 10
671.826645
 20
2594.424578
 30
0.0
 11
671.826645
 21
2335.0
 31
0.0
  0
LINE
  5
3EE
330
3EA
100
AcDbEntity
  8
LC-010-003-MTH-0
 62
     7
370
    25
100
AcDbLine
 10
1271.826645
 20
2594.424578
 30
0.0
 11
1271.826645
 21
2335.0
 31
0.0
  0
LINE
  5
3EF
330
3EA
100
AcDbEntity
  8
LC-011-003-MTG-0
 62
     7
370
    25
100
AcDbLine
 10
671.826645
 20
2350.0
 30
0.0
 11
1271.826645
 21
2350.0
 31
0.0
  0
LINE
  5
3F0
330
3EA
100
AcDbEntity
  8
LC-012-003-----0
 62
     7
370
    25
100
AcDbLine
 10
696.612767
 20
2353.263155
 30
0.0
 11
671.826645
 21
2350.0
 31
0.0
  0
LINE
  5
3F1
330
3EA
100
AcDbEntity
  8
LC-012-003-----0
 62
     7
370
    25
100
AcDbLine
 10
671.826645
 20
2350.0
 30
0.0
 11
696.612767
 21
2346.736845
 31
0.0
  0
LINE
  5
3F2
330
3EA
100
AcDbEntity
  8
LC-012-003-----0
 62
     7
370
    25
100
AcDbLine
 10
696.612767
 20
2346.736845
 30
0.0
 11
696.612767
 21
2353.263155
 31
0.0
  0
LINE
  5
3F3
330
3EA
100
AcDbEntity
  8
LC-012-003-----0
 62
     7
370
    25
100
AcDbLine
 10
696.668375
 20
2352.414735
 30
0.0
 11
678.326645
 21
2350.0
 31
0.0
  0
LINE
  5
3F4
330
3EA
100
AcDbEntity
  8
LC-012-003-----0
 62
     7
370
    25
100
AcDbLine
 10
678.326645
 20
2350.0
 30
0.0
 11
696.668375
 21
2347.585265
 31
0.0
  0
LINE
  5
3F5
330
3EA
100
AcDbEntity
  8
LC-012-003-----0
 62
     7
370
    25
100
AcDbLine
 10
696.723984
 20
2351.566314
 30
0.0
 11
684.826645
 21
2350.0
 31
0.0
  0
LINE
  5
3F6
330
3EA
100
AcDbEntity
  8
LC-012-003-----0
 62
     7
370
    25
100
AcDbLine
 10
684.826645
 20
2350.0
 30
0.0
 11
696.723984
 21
2348.433686
 31
0.0
  0
LINE
  5
3F7
330
3EA
100
AcDbEntity
  8
LC-012-003-----0
 62
     7
370
    25
100
AcDbLine
 10
696.779592
 20
2350.717894
 30
0.0
 11
691.326645
 21
2350.0
 31
0.0
  0
LINE
  5
3F8
330
3EA
100
AcDbEntity
  8
LC-012-003-----0
 62
     7
370
    25
100
AcDbLine
 10
691.326645
 20
2350.0
 30
0.0
 11
696.779592
 21
2349.282106
 31
0.0
  0
LINE
  5
3F9
330
3EA
100
AcDbEntity
  8
LC-012-003-----0
 62
     7
370
    25
100
AcDbLine
 10
1247.040523
 20
2346.736845
 30
0.0
 11
1271.826645
 21
2350.0
 31
0.0
  0
LINE
  5
3FA
330
3EA
100
AcDbEntity
  8
LC-012-003-----0
 62
     7
370
    25
100
AcDbLine
 10
1271.826645
 20
2350.0
 30
0.0
 11
1247.040523
 21
2353.263155
 31
0.0
  0
LINE
  5
3FB
330
3EA
100
AcDbEntity
  8
LC-012-003-----0
 62
     7
370
    25
100
AcDbLine
 10
1247.040523
 20
2353.263155
 30
0.0
 11
1247.040523
 21
2346.736845
 31
0.0
  0
LINE
  5
3FC
330
3EA
100
AcDbEntity
  8
LC-012-003-----0
 62
     7
370
    25
100
AcDbLine
 10
1246.984915
 20
2347.585265
 30
0.0
 11
1265.326645
 21
2350.0
 31
0.0
  0
LINE
  5
3FD
330
3EA
100
AcDbEntity
  8
LC-012-003-----0
 62
     7
370
    25
100
AcDbLine
 10
1265.326645
 20
2350.0
 30
0.0
 11
1246.984915
 21
2352.414735
 31
0.0
  0
LINE
  5
3FE
330
3EA
100
AcDbEntity
  8
LC-012-003-----0
 62
     7
370
    25
100
AcDbLine
 10
1246.929306
 20
2348.433686
 30
0.0
 11
1258.826645
 21
2350.0
 31
0.0
  0
LINE
  5
3FF
330
3EA
100
AcDbEntity
  8
LC-012-003-----0
 62
     7
370
    25
100
AcDbLine
 10
1258.826645
 20
2350.0
 30
0.0
 11
1246.929306
 21
2351.566314
 31
0.0
  0
LINE
  5
400
330
3EA
100
AcDbEntity
  8
LC-012-003-----0
 62
     7
370
    25
100
AcDbLine
 10
1246.873698
 20
2349.282106
 30
0.0
 11
1252.326645
 21
2350.0
 31
0.0
  0
LINE
  5
401
330
3EA
100
AcDbEntity
  8
LC-012-003-----0
 62
     7
370
    25
100
AcDbLine
 10
1252.326645
 20
2350.0
 30
0.0
 11
1246.873698
 21
2350.717894
 31
0.0
  0
TEXT
  5
402
330
3EA
100
AcDbEntity
  8
LC-012-003-----0
 62
     7
370
    25
100
AcDbText
 10
933.196185
 20
2365.0
 30
0.0
 40
25.0
  1
600
 41
0.7
  7
LCTX0-400-0-0pDIN-Schrift
 72
     1
 11
958.612852
 21
2365.0
 31
0.0
100
AcDbText
  0
ENDBLK
  5
3EC
330
3EA
100
AcDbEntity
  8
0
100
AcDbBlockEnd
  0
BLOCK
  5
411
330
410
100
AcDbEntity
  8
0
100
AcDbBlockBegin
  2
*X214
 70
     1
 71
     0
 10
0.0
 20
0.0
 30
0.0
  3
*X214
  1

  4
*X2
  0
LINE
  5
413
330
410
100
AcDbEntity
  8
LC-014-005-----0
 62
     7
370
    25
100
AcDbLine
 10
277.886944
 20
2682.05
 30
0.0
 11
292.036425
 21
2696.199481
 31
0.0
  0
LINE
  5
414
330
410
100
AcDbEntity
  8
LC-014-005-----0
 62
     7
370
    25
100
AcDbLine
 10
249.602673
 20
2682.05
 30
0.0
 11
287.602673
 21
2720.05
 31
0.0
  0
LINE
  5
415
330
410
100
AcDbEntity
  8
LC-014-005-----0
 62
     7
370
    25
100
AcDbLine
 10
226.182065
 20
2686.913663
 30
0.0
 11
259.318401
 21
2720.05
 31
0.0
  0
LINE
  5
416
330
410
100
AcDbEntity
  8
LC-014-005-----0
 62
     7
370
    25
100
AcDbLine
 10
226.302853
 20
2715.318723
 30
0.0
 11
231.03413
 21
2720.05
 31
0.0
  0
ENDBLK
  5
412
330
410
100
AcDbEntity
  8
0
100
AcDbBlockEnd
  0
BLOCK
  5
419
330
418
100
AcDbEntity
  8
0
100
AcDbBlockBegin
  2
LCDIM12
 70
     0
 71
     0
 10
0.0
 20
0.0
 30
0.0
  3
LCDIM12
  1

  4
LCDIM12
  0
LINE
  5
41B
330
418
100
AcDbEntity
  8
LC-010-003-MTH-0
 62
     7
370
    25
100
AcDbLine
 10
400.518564
 20
809.162575
 30
0.0
 11
400.518564
 21
735.0
 31
0.0
  0
LINE
  5
41C
330
418
100
AcDbEntity
  8
LC-010-003-MTH-0
 62
     7
370
    25
100
AcDbLine
 10
890.518564
 20
809.162575
 30
0.0
 11
890.518564
 21
735.0
 31
0.0
  0
LINE
  5
41D
330
418
100
AcDbEntity
  8
LC-011-003-MTG-0
 62
     7
370
    25
100
AcDbLine
 10
400.518564
 20
750.0
 30
0.0
 11
890.518564
 21
750.0
 31
0.0
  0
LINE
  5
41E
330
418
100
AcDbEntity
  8
LC-012-003-----0
 62
     7
370
    25
100
AcDbLine
 10
425.304686
 20
753.263155
 30
0.0
 11
400.518564
 21
750.0
 31
0.0
  0
LINE
  5
41F
330
418
100
AcDbEntity
  8
LC-012-003-----0
 62
     7
370
    25
100
AcDbLine
 10
400.518564
 20
750.0
 30
0.0
 11
425.304686
 21
746.736845
 31
0.0
  0
LINE
  5
420
330
418
100
AcDbEntity
  8
LC-012-003-----0
 62
     7
370
    25
100
AcDbLine
 10
425.304686
 20
746.736845
 30
0.0
 11
425.304686
 21
753.263155
 31
0.0
  0
LINE
  5
421
330
418
100
AcDbEntity
  8
LC-012-003-----0
 62
     7
370
    25
100
AcDbLine
 10
425.360295
 20
752.414735
 30
0.0
 11
407.018565
 21
750.0
 31
0.0
  0
LINE
  5
422
330
418
100
AcDbEntity
  8
LC-012-003-----0
 62
     7
370
    25
100
AcDbLine
 10
407.018565
 20
750.0
 30
0.0
 11
425.360295
 21
747.585265
 31
0.0
  0
LINE
  5
423
330
418
100
AcDbEntity
  8
LC-012-003-----0
 62
     7
370
    25
100
AcDbLine
 10
425.415903
 20
751.566314
 30
0.0
 11
413.518565
 21
750.0
 31
0.0
  0
LINE
  5
424
330
418
100
AcDbEntity
  8
LC-012-003-----0
 62
     7
370
    25
100
AcDbLine
 10
413.518565
 20
750.0
 30
0.0
 11
425.415903
 21
748.433686
 31
0.0
  0
LINE
  5
425
330
418
100
AcDbEntity
  8
LC-012-003-----0
 62
     7
370
    25
100
AcDbLine
 10
425.471512
 20
750.717894
 30
0.0
 11
420.018565
 21
750.0
 31
0.0
  0
LINE
  5
426
330
418
100
AcDbEntity
  8
LC-012-003-----0
 62
     7
370
    25
100
AcDbLine
 10
420.018565
 20
750.0
 30
0.0
 11
425.471512
 21
749.282106
 31
0.0
  0
LINE
  5
427
330
418
100
AcDbEntity
  8
LC-012-003-----0
 62
     7
370
    25
100
AcDbLine
 10
865.732443
 20
746.736845
 30
0.0
 11
890.518564
 21
750.0
 31
0.0
  0
LINE
  5
428
330
418
100
AcDbEntity
  8
LC-012-003-----0
 62
     7
370
    25
100
AcDbLine
 10
890.518564
 20
750.0
 30
0.0
 11
865.732443
 21
753.263155
 31
0.0
  0
LINE
  5
429
330
418
100
AcDbEntity
  8
LC-012-003-----0
 62
     7
370
    25
100
AcDbLine
 10
865.732443
 20
753.263155
 30
0.0
 11
865.732443
 21
746.736845
 31
0.0
  0
LINE
  5
42A
330
418
100
AcDbEntity
  8
LC-012-003-----0
 62
     7
370
    25
100
AcDbLine
 10
865.676834
 20
747.585265
 30
0.0
 11
884.018564
 21
750.0
 31
0.0
  0
LINE
  5
42B
330
418
100
AcDbEntity
  8
LC-012-003-----0
 62
     7
370
    25
100
AcDbLine
 10
884.018564
 20
750.0
 30
0.0
 11
865.676834
 21
752.414735
 31
0.0
  0
LINE
  5
42C
330
418
100
AcDbEntity
  8
LC-012-003-----0
 62
     7
370
    25
100
AcDbLine
 10
865.621226
 20
748.433686
 30
0.0
 11
877.518564
 21
750.0
 31
0.0
  0
LINE
  5
42D
330
418
100
AcDbEntity
  8
LC-012-003-----0
 62
     7
370
    25
100
AcDbLine
 10
877.518564
 20
750.0
 30
0.0
 11
865.621226
 21
751.566314
 31
0.0
  0
LINE
  5
42E
330
418
100
AcDbEntity
  8
LC-012-003-----0
 62
     7
370
    25
100
AcDbLine
 10
865.565617
 20
749.282106
 30
0.0
 11
871.018564
 21
750.0
 31
0.0
  0
LINE
  5
42F
330
418
100
AcDbEntity
  8
LC-012-003-----0
 62
     7
370
    25
100
AcDbLine
 10
871.018564
 20
750.0
 30
0.0
 11
865.565617
 21
750.717894
 31
0.0
  0
TEXT
  5
430
330
418
100
AcDbEntity
  8
LC-012-003-----0
 62
     7
370
    25
100
AcDbText
 10
612.78877
 20
765.0
 30
0.0
 40
25.0
  1
980
 41
0.8
  7
LCTX0-400-0-0pDIN-Schrift
 72
     1
 11
641.360199
 21
765.0
 31
0.0
100
AcDbText
  0
ENDBLK
  5
41A
330
418
100
AcDbEntity
  8
0
100
AcDbBlockEnd
  0
BLOCK
  5
433
330
432
100
AcDbEntity
  8
0
100
AcDbBlockBegin
  2
LCDIM13
 70
     0
 71
     0
 10
0.0
 20
0.0
 30
0.0
  3
LCDIM13
  1

  4
LCDIM13
  0
LINE
  5
435
330
432
100
AcDbEntity
  8
LC-010-003-MTH-0
 62
     7
370
    25
100
AcDbLine
 10
590.518564
 20
1074.602088
 30
0.0
 11
590.518564
 21
1115.0
 31
0.0
  0
LINE
  5
436
330
432
100
AcDbEntity
  8
LC-010-003-MTH-0
 62
     7
370
    25
100
AcDbLine
 10
890.518564
 20
1074.602088
 30
0.0
 11
890.518564
 21
1115.0
 31
0.0
  0
LINE
  5
437
330
432
100
AcDbEntity
  8
LC-011-003-MTG-0
 62
     7
370
    25
100
AcDbLine
 10
590.518564
 20
1100.0
 30
0.0
 11
890.518564
 21
1100.0
 31
0.0
  0
LINE
  5
438
330
432
100
AcDbEntity
  8
LC-012-003-----0
 62
     7
370
    25
100
AcDbLine
 10
615.304686
 20
1103.263155
 30
0.0
 11
590.518564
 21
1100.0
 31
0.0
  0
LINE
  5
439
330
432
100
AcDbEntity
  8
LC-012-003-----0
 62
     7
370
    25
100
AcDbLine
 10
590.518564
 20
1100.0
 30
0.0
 11
615.304686
 21
1096.736845
 31
0.0
  0
LINE
  5
43A
330
432
100
AcDbEntity
  8
LC-012-003-----0
 62
     7
370
    25
100
AcDbLine
 10
615.304686
 20
1096.736845
 30
0.0
 11
615.304686
 21
1103.263155
 31
0.0
  0
LINE
  5
43B
330
432
100
AcDbEntity
  8
LC-012-003-----0
 62
     7
370
    25
100
AcDbLine
 10
615.360295
 20
1102.414735
 30
0.0
 11
597.018565
 21
1100.0
 31
0.0
  0
LINE
  5
43C
330
432
100
AcDbEntity
  8
LC-012-003-----0
 62
     7
370
    25
100
AcDbLine
 10
597.018565
 20
1100.0
 30
0.0
 11
615.360295
 21
1097.585265
 31
0.0
  0
LINE
  5
43D
330
432
100
AcDbEntity
  8
LC-012-003-----0
 62
     7
370
    25
100
AcDbLine
 10
615.415903
 20
1101.566314
 30
0.0
 11
603.518565
 21
1100.0
 31
0.0
  0
LINE
  5
43E
330
432
100
AcDbEntity
  8
LC-012-003-----0
 62
     7
370
    25
100
AcDbLine
 10
603.518565
 20
1100.0
 30
0.0
 11
615.415903
 21
1098.433686
 31
0.0
  0
LINE
  5
43F
330
432
100
AcDbEntity
  8
LC-012-003-----0
 62
     7
370
    25
100
AcDbLine
 10
615.471512
 20
1100.717894
 30
0.0
 11
610.018565
 21
1100.0
 31
0.0
  0
LINE
  5
440
330
432
100
AcDbEntity
  8
LC-012-003-----0
 62
     7
370
    25
100
AcDbLine
 10
610.018565
 20
1100.0
 30
0.0
 11
615.471512
 21
1099.282106
 31
0.0
  0
LINE
  5
441
330
432
100
AcDbEntity
  8
LC-012-003-----0
 62
     7
370
    25
100
AcDbLine
 10
865.732443
 20
1096.736845
 30
0.0
 11
890.518564
 21
1100.0
 31
0.0
  0
LINE
  5
442
330
432
100
AcDbEntity
  8
LC-012-003-----0
 62
     7
370
    25
100
AcDbLine
 10
890.518564
 20
1100.0
 30
0.0
 11
865.732443
 21
1103.263155
 31
0.0
  0
LINE
  5
443
330
432
100
AcDbEntity
  8
LC-012-003-----0
 62
     7
370
    25
100
AcDbLine
 10
865.732443
 20
1103.263155
 30
0.0
 11
865.732443
 21
1096.736845
 31
0.0
  0
LINE
  5
444
330
432
100
AcDbEntity
  8
LC-012-003-----0
 62
     7
370
    25
100
AcDbLine
 10
865.676834
 20
1097.585265
 30
0.0
 11
884.018564
 21
1100.0
 31
0.0
  0
LINE
  5
445
330
432
100
AcDbEntity
  8
LC-012-003-----0
 62
     7
370
    25
100
AcDbLine
 10
884.018564
 20
1100.0
 30
0.0
 11
865.676834
 21
1102.414735
 31
0.0
  0
LINE
  5
446
330
432
100
AcDbEntity
  8
LC-012-003-----0
 62
     7
370
    25
100
AcDbLine
 10
865.621226
 20
1098.433686
 30
0.0
 11
877.518564
 21
1100.0
 31
0.0
  0
LINE
  5
447
330
432
100
AcDbEntity
  8
LC-012-003-----0
 62
     7
370
    25
100
AcDbLine
 10
877.518564
 20
1100.0
 30
0.0
 11
865.621226
 21
1101.566314
 31
0.0
  0
LINE
  5
448
330
432
100
AcDbEntity
  8
LC-012-003-----0
 62
     7
370
    25
100
AcDbLine
 10
865.565617
 20
1099.282106
 30
0.0
 11
871.018564
 21
1100.0
 31
0.0
  0
LINE
  5
449
330
432
100
AcDbEntity
  8
LC-012-003-----0
 62
     7
370
    25
100
AcDbLine
 10
871.018564
 20
1100.0
 30
0.0
 11
865.565617
 21
1100.717894
 31
0.0
  0
TEXT
  5
44A
330
432
100
AcDbEntity
  8
LC-012-003-----0
 62
     7
370
    25
100
AcDbText
 10
707.554424
 20
1115.0
 30
0.0
 40
25.0
  1
600
 41
0.8
  7
LCTX0-400-0-0pDIN-Schrift
 72
     1
 11
736.602043
 21
1115.0
 31
0.0
100
AcDbText
  0
ENDBLK
  5
434
330
432
100
AcDbEntity
  8
0
100
AcDbBlockEnd
  0
BLOCK
  5
452
330
451
100
AcDbEntity
  8
0
100
AcDbBlockBegin
  2
POLY1
 70
     0
 71
     0
 10
0.0
 20
0.0
 30
0.0
  3
POLY1
  1

  4
POLY1
  0
LINE
  5
455
330
451
100
AcDbEntity
  8
LC-015-100-D00-0
 62
     6
370
    25
100
AcDbLine
 10
987.223786
 20
2430.541034
 30
0.0
 11
987.223786
 21
2430.541034
 31
0.0
  0
LINE
  5
456
330
451
100
AcDbEntity
  8
LC-015-100-D00-0
 62
     6
370
    25
100
AcDbLine
 10
987.223786
 20
2430.541034
 30
0.0
 11
987.225749
 21
2430.521284
 31
0.0
  0
LINE
  5
457
330
451
100
AcDbEntity
  8
LC-015-100-D00-0
 62
     6
370
    25
100
AcDbLine
 10
987.225749
 20
2430.521284
 30
0.0
 11
987.225749
 21
2430.521284
 31
0.0
  0
LINE
  5
458
330
451
100
AcDbEntity
  8
LC-015-100-D00-0
 62
     6
370
    25
100
AcDbLine
 10
987.225749
 20
2430.521284
 30
0.0
 11
987.225749
 21
2430.491788
 31
0.0
  0
LINE
  5
459
330
451
100
AcDbEntity
  8
LC-015-100-D00-0
 62
     6
370
    25
100
AcDbLine
 10
987.225749
 20
2430.491788
 30
0.0
 11
987.225749
 21
2430.491788
 31
0.0
  0
LINE
  5
45A
330
451
100
AcDbEntity
  8
LC-015-100-D00-0
 62
     6
370
    25
100
AcDbLine
 10
987.225749
 20
2430.491788
 30
0.0
 11
987.223786
 21
2430.455881
 31
0.0
  0
ENDBLK
  5
453
330
451
100
AcDbEntity
  8
0
100
AcDbBlockEnd
  0
BLOCK
  5
464
330
463
100
AcDbEntity
  8
0
100
AcDbBlockBegin
  2
POLY2
 70
     0
 71
     0
 10
0.0
 20
0.0
 30
0.0
  3
POLY2
  1

  4
POLY2
  0
LINE
  5
466
330
463
100
AcDbEntity
  8
LC-002-002-----0
 62
     7
370
    25
100
AcDbLine
 10
940.027814
 20
2433.947772
 30
0.0
 11
940.027814
 21
2433.947772
 31
0.0
  0
LINE
  5
467
330
463
100
AcDbEntity
  8
LC-002-002-----0
 62
     7
370
    25
100
AcDbLine
 10
940.027814
 20
2433.947772
 30
0.0
 11
939.513026
 21
2433.947805
 31
0.0
  0
LINE
  5
468
330
463
100
AcDbEntity
  8
LC-002-002-----0
 62
     7
370
    25
100
AcDbLine
 10
939.513026
 20
2433.947805
 30
0.0
 11
939.513026
 21
2433.947805
 31
0.0
  0
LINE
  5
469
330
463
100
AcDbEntity
  8
LC-002-002-----0
 62
     7
370
    25
100
AcDbLine
 10
939.513026
 20
2433.947805
 30
0.0
 11
939.031656
 21
2433.947769
 31
0.0
  0
LINE
  5
46A
330
463
100
AcDbEntity
  8
LC-002-002-----0
 62
     7
370
    25
100
AcDbLine
 10
939.031656
 20
2433.947769
 30
0.0
 11
939.031656
 21
2433.947769
 31
0.0
  0
LINE
  5
46B
330
463
100
AcDbEntity
  8
LC-002-002-----0
 62
     7
370
    25
100
AcDbLine
 10
939.031656
 20
2433.947769
 30
0.0
 11
938.618085
 21
2433.947775
 31
0.0
  0
LINE
  5
46C
330
463
100
AcDbEntity
  8
LC-002-002-----0
 62
     7
370
    25
100
AcDbLine
 10
938.618085
 20
2433.947775
 30
0.0
 11
938.618085
 21
2433.947775
 31
0.0
  0
LINE
  5
46D
330
463
100
AcDbEntity
  8
LC-002-002-----0
 62
     7
370
    25
100
AcDbLine
 10
938.618085
 20
2433.947775
 30
0.0
 11
938.299149
 21
2433.94775
 31
0.0
  0
LINE
  5
46E
330
463
100
AcDbEntity
  8
LC-002-002-----0
 62
     7
370
    25
100
AcDbLine
 10
938.299149
 20
2433.94775
 30
0.0
 11
938.299149
 21
2433.94775
 31
0.0
  0
LINE
  5
46F
330
463
100
AcDbEntity
  8
LC-002-002-----0
 62
     7
370
    25
100
AcDbLine
 10
938.299149
 20
2433.94775
 30
0.0
 11
938.097193
 21
2433.947798
 31
0.0
  0
LINE
  5
470
330
463
100
AcDbEntity
  8
LC-002-002-----0
 62
     7
370
    25
100
AcDbLine
 10
938.097193
 20
2433.947798
 30
0.0
 11
938.097193
 21
2433.947798
 31
0.0
  0
LINE
  5
471
330
463
100
AcDbEntity
  8
LC-002-002-----0
 62
     7
370
    25
100
AcDbLine
 10
938.097193
 20
2433.947798
 30
0.0
 11
938.027814
 21
2433.94778
 31
0.0
  0
ENDBLK
  5
465
330
463
100
AcDbEntity
  8
0
100
AcDbBlockEnd
  0
BLOCK
  5
498
330
497
100
AcDbEntity
  8
0
100
AcDbBlockBegin
  2
POLY3
 70
     0
 71
     0
 10
0.0
 20
0.0
 30
0.0
  3
POLY3
  1

  4
POLY3
  0
LINE
  5
49A
330
497
100
AcDbEntity
  8
LC-002-002-----0
 62
     7
370
    25
100
AcDbLine
 10
961.298748
 20
2478.94395
 30
0.0
 11
961.298748
 21
2478.94395
 31
0.0
  0
LINE
  5
49B
330
497
100
AcDbEntity
  8
LC-002-002-----0
 62
     7
370
    25
100
AcDbLine
 10
961.298748
 20
2478.94395
 30
0.0
 11
961.618542
 21
2481.297213
 31
0.0
  0
LINE
  5
49C
330
497
100
AcDbEntity
  8
LC-002-002-----0
 62
     7
370
    25
100
AcDbLine
 10
961.618542
 20
2481.297213
 30
0.0
 11
961.618542
 21
2481.297213
 31
0.0
  0
LINE
  5
49D
330
497
100
AcDbEntity
  8
LC-002-002-----0
 62
     7
370
    25
100
AcDbLine
 10
961.618542
 20
2481.297213
 30
0.0
 11
961.824825
 21
2483.7756
 31
0.0
  0
LINE
  5
49E
330
497
100
AcDbEntity
  8
LC-002-002-----0
 62
     7
370
    25
100
AcDbLine
 10
961.824825
 20
2483.7756
 30
0.0
 11
961.824825
 21
2483.7756
 31
0.0
  0
LINE
  5
49F
330
497
100
AcDbEntity
  8
LC-002-002-----0
 62
     7
370
    25
100
AcDbLine
 10
961.824825
 20
2483.7756
 30
0.0
 11
961.89555
 21
2486.3
 31
0.0
  0
ENDBLK
  5
499
330
497
100
AcDbEntity
  8
0
100
AcDbBlockEnd
  0
BLOCK
  5
4A2
330
4A1
100
AcDbEntity
  8
0
100
AcDbBlockBegin
  2
POLY4
 70
     0
 71
     0
 10
0.0
 20
0.0
 30
0.0
  3
POLY4
  1

  4
POLY4
  0
LINE
  5
4A4
330
4A1
100
AcDbEntity
  8
LC-002-002-----0
 62
     7
370
    25
100
AcDbLine
 10
963.230305
 20
2473.747809
 30
0.0
 11
963.230305
 21
2473.747809
 31
0.0
  0
LINE
  5
4A5
330
4A1
100
AcDbEntity
  8
LC-002-002-----0
 62
     7
370
    25
100
AcDbLine
 10
963.230305
 20
2473.747809
 30
0.0
 11
963.768485
 21
2473.381396
 31
0.0
  0
LINE
  5
4A6
330
4A1
100
AcDbEntity
  8
LC-002-002-----0
 62
     7
370
    25
100
AcDbLine
 10
963.768485
 20
2473.381396
 30
0.0
 11
963.768485
 21
2473.381396
 31
0.0
  0
LINE
  5
4A7
330
4A1
100
AcDbEntity
  8
LC-002-002-----0
 62
     7
370
    25
100
AcDbLine
 10
963.768485
 20
2473.381396
 30
0.0
 11
964.258462
 21
2473.044309
 31
0.0
  0
LINE
  5
4A8
330
4A1
100
AcDbEntity
  8
LC-002-002-----0
 62
     7
370
    25
100
AcDbLine
 10
964.258462
 20
2473.044309
 30
0.0
 11
964.258462
 21
2473.044309
 31
0.0
  0
LINE
  5
4A9
330
4A1
100
AcDbEntity
  8
LC-002-002-----0
 62
     7
370
    25
100
AcDbLine
 10
964.258462
 20
2473.044309
 30
0.0
 11
964.700085
 21
2472.737425
 31
0.0
  0
ENDBLK
  5
4A3
330
4A1
100
AcDbEntity
  8
0
100
AcDbBlockEnd
  0
BLOCK
  5
4AC
330
4AB
100
AcDbEntity
  8
0
100
AcDbBlockBegin
  2
POLY5
 70
     0
 71
     0
 10
0.0
 20
0.0
 30
0.0
  3
POLY5
  1

  4
POLY5
  0
LINE
  5
4AE
330
4AB
100
AcDbEntity
  8
LC-002-002-----0
 62
     7
370
    25
100
AcDbLine
 10
961.298748
 20
2478.94395
 30
0.0
 11
961.298748
 21
2478.94395
 31
0.0
  0
LINE
  5
4AF
330
4AB
100
AcDbEntity
  8
LC-002-002-----0
 62
     7
370
    25
100
AcDbLine
 10
961.298748
 20
2478.94395
 30
0.0
 11
961.218709
 21
2477.648803
 31
0.0
  0
LINE
  5
4B0
330
4AB
100
AcDbEntity
  8
LC-002-002-----0
 62
     7
370
    25
100
AcDbLine
 10
961.218709
 20
2477.648803
 30
0.0
 11
961.218709
 21
2477.648803
 31
0.0
  0
LINE
  5
4B1
330
4AB
100
AcDbEntity
  8
LC-002-002-----0
 62
     7
370
    25
100
AcDbLine
 10
961.218709
 20
2477.648803
 30
0.0
 11
961.389774
 21
2476.452562
 31
0.0
  0
LINE
  5
4B2
330
4AB
100
AcDbEntity
  8
LC-002-002-----0
 62
     7
370
    25
100
AcDbLine
 10
961.389774
 20
2476.452562
 30
0.0
 11
961.389774
 21
2476.452562
 31
0.0
  0
LINE
  5
4B3
330
4AB
100
AcDbEntity
  8
LC-002-002-----0
 62
     7
370
    25
100
AcDbLine
 10
961.389774
 20
2476.452562
 30
0.0
 11
961.787779
 21
2475.391499
 31
0.0
  0
LINE
  5
4B4
330
4AB
100
AcDbEntity
  8
LC-002-002-----0
 62
     7
370
    25
100
AcDbLine
 10
961.787779
 20
2475.391499
 30
0.0
 11
961.787779
 21
2475.391499
 31
0.0
  0
LINE
  5
4B5
330
4AB
100
AcDbEntity
  8
LC-002-002-----0
 62
     7
370
    25
100
AcDbLine
 10
961.787779
 20
2475.391499
 30
0.0
 11
962.399177
 21
2474.483974
 31
0.0
  0
LINE
  5
4B6
330
4AB
100
AcDbEntity
  8
LC-002-002-----0
 62
     7
370
    25
100
AcDbLine
 10
962.399177
 20
2474.483974
 30
0.0
 11
962.399177
 21
2474.483974
 31
0.0
  0
LINE
  5
4B7
330
4AB
100
AcDbEntity
  8
LC-002-002-----0
 62
     7
370
    25
100
AcDbLine
 10
962.399177
 20
2474.483974
 30
0.0
 11
963.230305
 21
2473.747809
 31
0.0
  0
ENDBLK
  5
4AD
330
4AB
100
AcDbEntity
  8
0
100
AcDbBlockEnd
  0
BLOCK
  5
4BA
330
4B9
100
AcDbEntity
  8
0
100
AcDbBlockBegin
  2
POLY6
 70
     0
 71
     0
 10
0.0
 20
0.0
 30
0.0
  3
POLY6
  1

  4
POLY6
  0
LINE
  5
4BC
330
4B9
100
AcDbEntity
  8
LC-002-002-----0
 62
     7
370
    25
100
AcDbLine
 10
964.701114
 20
2472.736685
 30
0.0
 11
964.701114
 21
2472.736685
 31
0.0
  0
LINE
  5
4BD
330
4B9
100
AcDbEntity
  8
LC-002-002-----0
 62
     7
370
    25
100
AcDbLine
 10
964.701114
 20
2472.736685
 30
0.0
 11
965.173341
 21
2472.329952
 31
0.0
  0
LINE
  5
4BE
330
4B9
100
AcDbEntity
  8
LC-002-002-----0
 62
     7
370
    25
100
AcDbLine
 10
965.173341
 20
2472.329952
 30
0.0
 11
965.173341
 21
2472.329952
 31
0.0
  0
LINE
  5
4BF
330
4B9
100
AcDbEntity
  8
LC-002-002-----0
 62
     7
370
    25
100
AcDbLine
 10
965.173341
 20
2472.329952
 30
0.0
 11
965.498992
 21
2471.913763
 31
0.0
  0
LINE
  5
4C0
330
4B9
100
AcDbEntity
  8
LC-002-002-----0
 62
     7
370
    25
100
AcDbLine
 10
965.498992
 20
2471.913763
 30
0.0
 11
965.498992
 21
2471.913763
 31
0.0
  0
LINE
  5
4C1
330
4B9
100
AcDbEntity
  8
LC-002-002-----0
 62
     7
370
    25
100
AcDbLine
 10
965.498992
 20
2471.913763
 30
0.0
 11
965.696022
 21
2471.55191
 31
0.0
  0
LINE
  5
4C2
330
4B9
100
AcDbEntity
  8
LC-002-002-----0
 62
     7
370
    25
100
AcDbLine
 10
965.696022
 20
2471.55191
 30
0.0
 11
965.696022
 21
2471.55191
 31
0.0
  0
LINE
  5
4C3
330
4B9
100
AcDbEntity
  8
LC-002-002-----0
 62
     7
370
    25
100
AcDbLine
 10
965.696022
 20
2471.55191
 30
0.0
 11
965.797549
 21
2471.297079
 31
0.0
  0
LINE
  5
4C4
330
4B9
100
AcDbEntity
  8
LC-002-002-----0
 62
     7
370
    25
100
AcDbLine
 10
965.797549
 20
2471.297079
 30
0.0
 11
965.797549
 21
2471.297079
 31
0.0
  0
LINE
  5
4C5
330
4B9
100
AcDbEntity
  8
LC-002-002-----0
 62
     7
370
    25
100
AcDbLine
 10
965.797549
 20
2471.297079
 30
0.0
 11
965.82883
 21
2471.200157
 31
0.0
  0
ENDBLK
  5
4BB
330
4B9
100
AcDbEntity
  8
0
100
AcDbBlockEnd
  0
BLOCK
  5
4C8
330
4C7
100
AcDbEntity
  8
0
100
AcDbBlockBegin
  2
POLY7
 70
     0
 71
     0
 10
0.0
 20
0.0
 30
0.0
  3
POLY7
  1

  4
POLY7
  0
LINE
  5
4CA
330
4C7
100
AcDbEntity
  8
LC-002-002-----0
 62
     7
370
    25
100
AcDbLine
 10
954.044958
 20
2504.089777
 30
0.0
 11
954.044958
 21
2504.089777
 31
0.0
  0
LINE
  5
4CB
330
4C7
100
AcDbEntity
  8
LC-002-002-----0
 62
     7
370
    25
100
AcDbLine
 10
954.044958
 20
2504.089777
 30
0.0
 11
954.190038
 21
2502.803536
 31
0.0
  0
LINE
  5
4CC
330
4C7
100
AcDbEntity
  8
LC-002-002-----0
 62
     7
370
    25
100
AcDbLine
 10
954.190038
 20
2502.803536
 30
0.0
 11
954.190038
 21
2502.803536
 31
0.0
  0
LINE
  5
4CD
330
4C7
100
AcDbEntity
  8
LC-002-002-----0
 62
     7
370
    25
100
AcDbLine
 10
954.190038
 20
2502.803536
 30
0.0
 11
954.620312
 21
2501.573758
 31
0.0
  0
LINE
  5
4CE
330
4C7
100
AcDbEntity
  8
LC-002-002-----0
 62
     7
370
    25
100
AcDbLine
 10
954.620312
 20
2501.573758
 30
0.0
 11
954.620312
 21
2501.573758
 31
0.0
  0
LINE
  5
4CF
330
4C7
100
AcDbEntity
  8
LC-002-002-----0
 62
     7
370
    25
100
AcDbLine
 10
954.620312
 20
2501.573758
 30
0.0
 11
955.32143
 21
2500.455003
 31
0.0
  0
LINE
  5
4D0
330
4C7
100
AcDbEntity
  8
LC-002-002-----0
 62
     7
370
    25
100
AcDbLine
 10
955.32143
 20
2500.455003
 30
0.0
 11
955.32143
 21
2500.455003
 31
0.0
  0
LINE
  5
4D1
330
4C7
100
AcDbEntity
  8
LC-002-002-----0
 62
     7
370
    25
100
AcDbLine
 10
955.32143
 20
2500.455003
 30
0.0
 11
956.268677
 21
2499.500681
 31
0.0
  0
LINE
  5
4D2
330
4C7
100
AcDbEntity
  8
LC-002-002-----0
 62
     7
370
    25
100
AcDbLine
 10
956.268677
 20
2499.500681
 30
0.0
 11
956.268677
 21
2499.500681
 31
0.0
  0
LINE
  5
4D3
330
4C7
100
AcDbEntity
  8
LC-002-002-----0
 62
     7
370
    25
100
AcDbLine
 10
956.268677
 20
2499.500681
 30
0.0
 11
957.425438
 21
2498.761092
 31
0.0
  0
LINE
  5
4D4
330
4C7
100
AcDbEntity
  8
LC-002-002-----0
 62
     7
370
    25
100
AcDbLine
 10
957.425438
 20
2498.761092
 30
0.0
 11
957.425438
 21
2498.761092
 31
0.0
  0
LINE
  5
4D5
330
4C7
100
AcDbEntity
  8
LC-002-002-----0
 62
     7
370
    25
100
AcDbLine
 10
957.425438
 20
2498.761092
 30
0.0
 11
958.74191
 21
2498.280302
 31
0.0
  0
ENDBLK
  5
4C9
330
4C7
100
AcDbEntity
  8
0
100
AcDbBlockEnd
  0
BLOCK
  5
4D8
330
4D7
100
AcDbEntity
  8
0
100
AcDbBlockBegin
  2
POLY8
 70
     0
 71
     0
 10
0.0
 20
0.0
 30
0.0
  3
POLY8
  1

  4
POLY8
  0
LINE
  5
4DA
330
4D7
100
AcDbEntity
  8
LC-002-002-----0
 62
     7
370
    25
100
AcDbLine
 10
958.74191
 20
2498.280302
 30
0.0
 11
958.74191
 21
2498.280302
 31
0.0
  0
LINE
  5
4DB
330
4D7
100
AcDbEntity
  8
LC-002-002-----0
 62
     7
370
    25
100
AcDbLine
 10
958.74191
 20
2498.280302
 30
0.0
 11
959.792558
 21
2497.870553
 31
0.0
  0
LINE
  5
4DC
330
4D7
100
AcDbEntity
  8
LC-002-002-----0
 62
     7
370
    25
100
AcDbLine
 10
959.792558
 20
2497.870553
 30
0.0
 11
959.792558
 21
2497.870553
 31
0.0
  0
LINE
  5
4DD
330
4D7
100
AcDbEntity
  8
LC-002-002-----0
 62
     7
370
    25
100
AcDbLine
 10
959.792558
 20
2497.870553
 30
0.0
 11
960.680888
 21
2497.217237
 31
0.0
  0
LINE
  5
4DE
330
4D7
100
AcDbEntity
  8
LC-002-002-----0
 62
     7
370
    25
100
AcDbLine
 10
960.680888
 20
2497.217237
 30
0.0
 11
960.680888
 21
2497.217237
 31
0.0
  0
LINE
  5
4DF
330
4D7
100
AcDbEntity
  8
LC-002-002-----0
 62
     7
370
    25
100
AcDbLine
 10
960.680888
 20
2497.217237
 30
0.0
 11
961.34768
 21
2496.37911
 31
0.0
  0
LINE
  5
4E0
330
4D7
100
AcDbEntity
  8
LC-002-002-----0
 62
     7
370
    25
100
AcDbLine
 10
961.34768
 20
2496.37911
 30
0.0
 11
961.34768
 21
2496.37911
 31
0.0
  0
LINE
  5
4E1
330
4D7
100
AcDbEntity
  8
LC-002-002-----0
 62
     7
370
    25
100
AcDbLine
 10
961.34768
 20
2496.37911
 30
0.0
 11
961.757764
 21
2495.421321
 31
0.0
  0
LINE
  5
4E2
330
4D7
100
AcDbEntity
  8
LC-002-002-----0
 62
     7
370
    25
100
AcDbLine
 10
961.757764
 20
2495.421321
 30
0.0
 11
961.757764
 21
2495.421321
 31
0.0
  0
LINE
  5
4E3
330
4D7
100
AcDbEntity
  8
LC-002-002-----0
 62
     7
370
    25
100
AcDbLine
 10
961.757764
 20
2495.421321
 30
0.0
 11
961.89555
 21
2494.407319
 31
0.0
  0
ENDBLK
  5
4D9
330
4D7
100
AcDbEntity
  8
0
100
AcDbBlockEnd
  0
BLOCK
  5
50C
330
50B
100
AcDbEntity
  8
0
100
AcDbBlockBegin
  2
POLY9
 70
     0
 71
     0
 10
0.0
 20
0.0
 30
0.0
  3
POLY9
  1

  4
POLY9
  0
LINE
  5
50E
330
50B
100
AcDbEntity
  8
LC-002-002-----0
 62
     7
370
    25
100
AcDbLine
 10
888.139905
 20
2506.272543
 30
0.0
 11
888.139905
 21
2506.272543
 31
0.0
  0
LINE
  5
50F
330
50B
100
AcDbEntity
  8
LC-002-002-----0
 62
     7
370
    25
100
AcDbLine
 10
888.139905
 20
2506.272543
 30
0.0
 11
888.302525
 21
2506.272608
 31
0.0
  0
LINE
  5
510
330
50B
100
AcDbEntity
  8
LC-002-002-----0
 62
     7
370
    25
100
AcDbLine
 10
888.302525
 20
2506.272608
 30
0.0
 11
888.302525
 21
2506.272608
 31
0.0
  0
LINE
  5
511
330
50B
100
AcDbEntity
  8
LC-002-002-----0
 62
     7
370
    25
100
AcDbLine
 10
888.302525
 20
2506.272608
 30
0.0
 11
888.769662
 21
2506.272964
 31
0.0
  0
LINE
  5
512
330
50B
100
AcDbEntity
  8
LC-002-002-----0
 62
     7
370
    25
100
AcDbLine
 10
888.769662
 20
2506.272964
 30
0.0
 11
888.769662
 21
2506.272964
 31
0.0
  0
LINE
  5
513
330
50B
100
AcDbEntity
  8
LC-002-002-----0
 62
     7
370
    25
100
AcDbLine
 10
888.769662
 20
2506.272964
 30
0.0
 11
889.522724
 21
2506.272674
 31
0.0
  0
LINE
  5
514
330
50B
100
AcDbEntity
  8
LC-002-002-----0
 62
     7
370
    25
100
AcDbLine
 10
889.522724
 20
2506.272674
 30
0.0
 11
889.522724
 21
2506.272674
 31
0.0
  0
LINE
  5
515
330
50B
100
AcDbEntity
  8
LC-002-002-----0
 62
     7
370
    25
100
AcDbLine
 10
889.522724
 20
2506.272674
 30
0.0
 11
890.557053
 21
2506.272432
 31
0.0
  0
LINE
  5
516
330
50B
100
AcDbEntity
  8
LC-002-002-----0
 62
     7
370
    25
100
AcDbLine
 10
890.557053
 20
2506.272432
 30
0.0
 11
890.557053
 21
2506.272432
 31
0.0
  0
LINE
  5
517
330
50B
100
AcDbEntity
  8
LC-002-002-----0
 62
     7
370
    25
100
AcDbLine
 10
890.557053
 20
2506.272432
 30
0.0
 11
891.904308
 21
2506.272398
 31
0.0
  0
LINE
  5
518
330
50B
100
AcDbEntity
  8
LC-002-002-----0
 62
     7
370
    25
100
AcDbLine
 10
891.904308
 20
2506.272398
 30
0.0
 11
891.904308
 21
2506.272398
 31
0.0
  0
LINE
  5
519
330
50B
100
AcDbEntity
  8
LC-002-002-----0
 62
     7
370
    25
100
AcDbLine
 10
891.904308
 20
2506.272398
 30
0.0
 11
893.560012
 21
2506.272482
 31
0.0
  0
LINE
  5
51A
330
50B
100
AcDbEntity
  8
LC-002-002-----0
 62
     7
370
    25
100
AcDbLine
 10
893.560012
 20
2506.272482
 30
0.0
 11
893.560012
 21
2506.272482
 31
0.0
  0
LINE
  5
51B
330
50B
100
AcDbEntity
  8
LC-002-002-----0
 62
     7
370
    25
100
AcDbLine
 10
893.560012
 20
2506.272482
 30
0.0
 11
895.507466
 21
2506.27281
 31
0.0
  0
LINE
  5
51C
330
50B
100
AcDbEntity
  8
LC-002-002-----0
 62
     7
370
    25
100
AcDbLine
 10
895.507466
 20
2506.27281
 30
0.0
 11
895.507466
 21
2506.27281
 31
0.0
  0
LINE
  5
51D
330
50B
100
AcDbEntity
  8
LC-002-002-----0
 62
     7
370
    25
100
AcDbLine
 10
895.507466
 20
2506.27281
 30
0.0
 11
897.721208
 21
2506.272662
 31
0.0
  0
LINE
  5
51E
330
50B
100
AcDbEntity
  8
LC-002-002-----0
 62
     7
370
    25
100
AcDbLine
 10
897.721208
 20
2506.272662
 30
0.0
 11
897.721208
 21
2506.272662
 31
0.0
  0
LINE
  5
51F
330
50B
100
AcDbEntity
  8
LC-002-002-----0
 62
     7
370
    25
100
AcDbLine
 10
897.721208
 20
2506.272662
 30
0.0
 11
900.132213
 21
2506.272629
 31
0.0
  0
LINE
  5
520
330
50B
100
AcDbEntity
  8
LC-002-002-----0
 62
     7
370
    25
100
AcDbLine
 10
900.132213
 20
2506.272629
 30
0.0
 11
900.132213
 21
2506.272629
 31
0.0
  0
LINE
  5
521
330
50B
100
AcDbEntity
  8
LC-002-002-----0
 62
     7
370
    25
100
AcDbLine
 10
900.132213
 20
2506.272629
 30
0.0
 11
902.616574
 21
2506.272631
 31
0.0
  0
LINE
  5
522
330
50B
100
AcDbEntity
  8
LC-002-002-----0
 62
     7
370
    25
100
AcDbLine
 10
902.616574
 20
2506.272631
 30
0.0
 11
902.616574
 21
2506.272631
 31
0.0
  0
LINE
  5
523
330
50B
100
AcDbEntity
  8
LC-002-002-----0
 62
     7
370
    25
100
AcDbLine
 10
902.616574
 20
2506.272631
 30
0.0
 11
905.016885
 21
2506.272678
 31
0.0
  0
LINE
  5
524
330
50B
100
AcDbEntity
  8
LC-002-002-----0
 62
     7
370
    25
100
AcDbLine
 10
905.016885
 20
2506.272678
 30
0.0
 11
905.016885
 21
2506.272678
 31
0.0
  0
LINE
  5
525
330
50B
100
AcDbEntity
  8
LC-002-002-----0
 62
     7
370
    25
100
AcDbLine
 10
905.016885
 20
2506.272678
 30
0.0
 11
907.211572
 21
2506.272815
 31
0.0
  0
LINE
  5
526
330
50B
100
AcDbEntity
  8
LC-002-002-----0
 62
     7
370
    25
100
AcDbLine
 10
907.211572
 20
2506.272815
 30
0.0
 11
907.211572
 21
2506.272815
 31
0.0
  0
LINE
  5
527
330
50B
100
AcDbEntity
  8
LC-002-002-----0
 62
     7
370
    25
100
AcDbLine
 10
907.211572
 20
2506.272815
 30
0.0
 11
909.138479
 21
2506.27249
 31
0.0
  0
LINE
  5
528
330
50B
100
AcDbEntity
  8
LC-002-002-----0
 62
     7
370
    25
100
AcDbLine
 10
909.138479
 20
2506.27249
 30
0.0
 11
909.138479
 21
2506.27249
 31
0.0
  0
LINE
  5
529
330
50B
100
AcDbEntity
  8
LC-002-002-----0
 62
     7
370
    25
100
AcDbLine
 10
909.138479
 20
2506.27249
 30
0.0
 11
910.777215
 21
2506.272407
 31
0.0
  0
LINE
  5
52A
330
50B
100
AcDbEntity
  8
LC-002-002-----0
 62
     7
370
    25
100
AcDbLine
 10
910.777215
 20
2506.272407
 30
0.0
 11
910.777215
 21
2506.272407
 31
0.0
  0
LINE
  5
52B
330
50B
100
AcDbEntity
  8
LC-002-002-----0
 62
     7
370
    25
100
AcDbLine
 10
910.777215
 20
2506.272407
 30
0.0
 11
912.114344
 21
2506.272435
 31
0.0
  0
LINE
  5
52C
330
50B
100
AcDbEntity
  8
LC-002-002-----0
 62
     7
370
    25
100
AcDbLine
 10
912.114344
 20
2506.272435
 30
0.0
 11
912.114344
 21
2506.272435
 31
0.0
  0
LINE
  5
52D
330
50B
100
AcDbEntity
  8
LC-002-002-----0
 62
     7
370
    25
100
AcDbLine
 10
912.114344
 20
2506.272435
 30
0.0
 11
913.145615
 21
2506.27266
 31
0.0
  0
LINE
  5
52E
330
50B
100
AcDbEntity
  8
LC-002-002-----0
 62
     7
370
    25
100
AcDbLine
 10
913.145615
 20
2506.27266
 30
0.0
 11
913.145615
 21
2506.27266
 31
0.0
  0
LINE
  5
52F
330
50B
100
AcDbEntity
  8
LC-002-002-----0
 62
     7
370
    25
100
AcDbLine
 10
913.145615
 20
2506.27266
 30
0.0
 11
913.900174
 21
2506.272931
 31
0.0
  0
LINE
  5
530
330
50B
100
AcDbEntity
  8
LC-002-002-----0
 62
     7
370
    25
100
AcDbLine
 10
913.900174
 20
2506.272931
 30
0.0
 11
913.900174
 21
2506.272931
 31
0.0
  0
LINE
  5
531
330
50B
100
AcDbEntity
  8
LC-002-002-----0
 62
     7
370
    25
100
AcDbLine
 10
913.900174
 20
2506.272931
 30
0.0
 11
914.370565
 21
2506.27258
 31
0.0
  0
LINE
  5
532
330
50B
100
AcDbEntity
  8
LC-002-002-----0
 62
     7
370
    25
100
AcDbLine
 10
914.370565
 20
2506.27258
 30
0.0
 11
914.370565
 21
2506.27258
 31
0.0
  0
LINE
  5
533
330
50B
100
AcDbEntity
  8
LC-002-002-----0
 62
     7
370
    25
100
AcDbLine
 10
914.370565
 20
2506.27258
 30
0.0
 11
914.534986
 21
2506.272512
 31
0.0
  0
ENDBLK
  5
50D
330
50B
100
AcDbEntity
  8
0
100
AcDbBlockEnd
  0
BLOCK
  5
59E
330
59D
100
AcDbEntity
  8
0
100
AcDbBlockBegin
  2
POLY10
 70
     0
 71
     0
 10
0.0
 20
0.0
 30
0.0
  3
POLY10
  1

  4
POLY10
  0
LINE
  5
5A0
330
59D
100
AcDbEntity
  8
LC-002-002-----0
 62
     7
370
    25
100
AcDbLine
 10
1470.880888
 20
1975.23537
 30
0.0
 11
1470.880888
 21
1975.23537
 31
0.0
  0
LINE
  5
5A1
330
59D
100
AcDbEntity
  8
LC-002-002-----0
 62
     7
370
    25
100
AcDbLine
 10
1470.880888
 20
1975.23537
 30
0.0
 11
1470.880922
 21
1974.720583
 31
0.0
  0
LINE
  5
5A2
330
59D
100
AcDbEntity
  8
LC-002-002-----0
 62
     7
370
    25
100
AcDbLine
 10
1470.880922
 20
1974.720583
 30
0.0
 11
1470.880922
 21
1974.720583
 31
0.0
  0
LINE
  5
5A3
330
59D
100
AcDbEntity
  8
LC-002-002-----0
 62
     7
370
    25
100
AcDbLine
 10
1470.880922
 20
1974.720583
 30
0.0
 11
1470.880885
 21
1974.239213
 31
0.0
  0
LINE
  5
5A4
330
59D
100
AcDbEntity
  8
LC-002-002-----0
 62
     7
370
    25
100
AcDbLine
 10
1470.880885
 20
1974.239213
 30
0.0
 11
1470.880885
 21
1974.239213
 31
0.0
  0
LINE
  5
5A5
330
59D
100
AcDbEntity
  8
LC-002-002-----0
 62
     7
370
    25
100
AcDbLine
 10
1470.880885
 20
1974.239213
 30
0.0
 11
1470.880891
 21
1973.825642
 31
0.0
  0
LINE
  5
5A6
330
59D
100
AcDbEntity
  8
LC-002-002-----0
 62
     7
370
    25
100
AcDbLine
 10
1470.880891
 20
1973.825642
 30
0.0
 11
1470.880891
 21
1973.825642
 31
0.0
  0
LINE
  5
5A7
330
59D
100
AcDbEntity
  8
LC-002-002-----0
 62
     7
370
    25
100
AcDbLine
 10
1470.880891
 20
1973.825642
 30
0.0
 11
1470.880866
 21
1973.506706
 31
0.0
  0
LINE
  5
5A8
330
59D
100
AcDbEntity
  8
LC-002-002-----0
 62
     7
370
    25
100
AcDbLine
 10
1470.880866
 20
1973.506706
 30
0.0
 11
1470.880866
 21
1973.506706
 31
0.0
  0
LINE
  5
5A9
330
59D
100
AcDbEntity
  8
LC-002-002-----0
 62
     7
370
    25
100
AcDbLine
 10
1470.880866
 20
1973.506706
 30
0.0
 11
1470.880915
 21
1973.304749
 31
0.0
  0
LINE
  5
5AA
330
59D
100
AcDbEntity
  8
LC-002-002-----0
 62
     7
370
    25
100
AcDbLine
 10
1470.880915
 20
1973.304749
 30
0.0
 11
1470.880915
 21
1973.304749
 31
0.0
  0
LINE
  5
5AB
330
59D
100
AcDbEntity
  8
LC-002-002-----0
 62
     7
370
    25
100
AcDbLine
 10
1470.880915
 20
1973.304749
 30
0.0
 11
1470.880897
 21
1973.23537
 31
0.0
  0
ENDBLK
  5
59F
330
59D
100
AcDbEntity
  8
0
100
AcDbBlockEnd
  0
BLOCK
  5
5C1
330
5C0
100
AcDbEntity
  8
0
100
AcDbBlockBegin
  2
POLY11
 70
     0
 71
     0
 10
0.0
 20
0.0
 30
0.0
  3
POLY11
  1

  4
POLY11
  0
LINE
  5
5C3
330
5C0
100
AcDbEntity
  8
LC-002-002-----0
 62
     7
370
    25
100
AcDbLine
 10
1470.880888
 20
1874.886331
 30
0.0
 11
1470.880888
 21
1874.886331
 31
0.0
  0
LINE
  5
5C4
330
5C0
100
AcDbEntity
  8
LC-002-002-----0
 62
     7
370
    25
100
AcDbLine
 10
1470.880888
 20
1874.886331
 30
0.0
 11
1470.880922
 21
1875.401119
 31
0.0
  0
LINE
  5
5C5
330
5C0
100
AcDbEntity
  8
LC-002-002-----0
 62
     7
370
    25
100
AcDbLine
 10
1470.880922
 20
1875.401119
 30
0.0
 11
1470.880922
 21
1875.401119
 31
0.0
  0
LINE
  5
5C6
330
5C0
100
AcDbEntity
  8
LC-002-002-----0
 62
     7
370
    25
100
AcDbLine
 10
1470.880922
 20
1875.401119
 30
0.0
 11
1470.880885
 21
1875.882489
 31
0.0
  0
LINE
  5
5C7
330
5C0
100
AcDbEntity
  8
LC-002-002-----0
 62
     7
370
    25
100
AcDbLine
 10
1470.880885
 20
1875.882489
 30
0.0
 11
1470.880885
 21
1875.882489
 31
0.0
  0
LINE
  5
5C8
330
5C0
100
AcDbEntity
  8
LC-002-002-----0
 62
     7
370
    25
100
AcDbLine
 10
1470.880885
 20
1875.882489
 30
0.0
 11
1470.880891
 21
1876.29606
 31
0.0
  0
LINE
  5
5C9
330
5C0
100
AcDbEntity
  8
LC-002-002-----0
 62
     7
370
    25
100
AcDbLine
 10
1470.880891
 20
1876.29606
 30
0.0
 11
1470.880891
 21
1876.29606
 31
0.0
  0
LINE
  5
5CA
330
5C0
100
AcDbEntity
  8
LC-002-002-----0
 62
     7
370
    25
100
AcDbLine
 10
1470.880891
 20
1876.29606
 30
0.0
 11
1470.880866
 21
1876.614996
 31
0.0
  0
LINE
  5
5CB
330
5C0
100
AcDbEntity
  8
LC-002-002-----0
 62
     7
370
    25
100
AcDbLine
 10
1470.880866
 20
1876.614996
 30
0.0
 11
1470.880866
 21
1876.614996
 31
0.0
  0
LINE
  5
5CC
330
5C0
100
AcDbEntity
  8
LC-002-002-----0
 62
     7
370
    25
100
AcDbLine
 10
1470.880866
 20
1876.614996
 30
0.0
 11
1470.880915
 21
1876.816952
 31
0.0
  0
LINE
  5
5CD
330
5C0
100
AcDbEntity
  8
LC-002-002-----0
 62
     7
370
    25
100
AcDbLine
 10
1470.880915
 20
1876.816952
 30
0.0
 11
1470.880915
 21
1876.816952
 31
0.0
  0
LINE
  5
5CE
330
5C0
100
AcDbEntity
  8
LC-002-002-----0
 62
     7
370
    25
100
AcDbLine
 10
1470.880915
 20
1876.816952
 30
0.0
 11
1470.880897
 21
1876.886331
 31
0.0
  0
ENDBLK
  5
5C2
330
5C0
100
AcDbEntity
  8
0
100
AcDbBlockEnd
  0
BLOCK
  5
5FB
330
5FA
100
AcDbEntity
  8
0
100
AcDbBlockBegin
  2
*X328
 70
     1
 71
     0
 10
0.0
 20
0.0
 30
0.0
  3
*X328
  1

  4
*X3
  0
LINE
  5
5FD
330
5FA
100
AcDbEntity
  8
LC-014-005-----0
 62
     7
370
    25
100
AcDbLine
 10
671.826645
 20
2595.15709
 30
0.0
 11
690.826645
 21
2614.15709
 31
0.0
  0
LINE
  5
5FE
330
5FA
100
AcDbEntity
  8
LC-014-005-----0
 62
     7
370
    25
100
AcDbLine
 10
671.826645
 20
2623.441361
 30
0.0
 11
690.826645
 21
2642.441361
 31
0.0
  0
LINE
  5
5FF
330
5FA
100
AcDbEntity
  8
LC-014-005-----0
 62
     7
370
    25
100
AcDbLine
 10
671.826645
 20
2651.725632
 30
0.0
 11
690.826645
 21
2670.725632
 31
0.0
  0
LINE
  5
600
330
5FA
100
AcDbEntity
  8
LC-014-005-----0
 62
     7
370
    25
100
AcDbLine
 10
671.826645
 20
2680.009904
 30
0.0
 11
672.866741
 21
2681.05
 31
0.0
  0
ENDBLK
  5
5FC
330
5FA
100
AcDbEntity
  8
0
100
AcDbBlockEnd
  0
BLOCK
  5
603
330
602
100
AcDbEntity
  8
0
100
AcDbBlockBegin
  2
*X429
 70
     1
 71
     0
 10
0.0
 20
0.0
 30
0.0
  3
*X429
  1

  4
*X4
  0
LINE
  5
605
330
602
100
AcDbEntity
  8
LC-014-005-----0
 62
     7
370
    25
100
AcDbLine
 10
1262.975624
 20
2592.336373
 30
0.0
 11
1271.826645
 21
2601.187394
 31
0.0
  0
LINE
  5
606
330
602
100
AcDbEntity
  8
LC-014-005-----0
 62
     7
370
    25
100
AcDbLine
 10
1252.826645
 20
2610.471665
 30
0.0
 11
1271.826645
 21
2629.471665
 31
0.0
  0
LINE
  5
607
330
602
100
AcDbEntity
  8
LC-014-005-----0
 62
     7
370
    25
100
AcDbLine
 10
1252.826645
 20
2638.755936
 30
0.0
 11
1271.826645
 21
2657.755936
 31
0.0
  0
LINE
  5
608
330
602
100
AcDbEntity
  8
LC-014-005-----0
 62
     7
370
    25
100
AcDbLine
 10
1252.826645
 20
2667.040207
 30
0.0
 11
1266.836438
 21
2681.05
 31
0.0
  0
ENDBLK
  5
604
330
602
100
AcDbEntity
  8
0
100
AcDbBlockEnd
  0
BLOCK
  5
618
330
617
100
AcDbEntity
  8
0
100
AcDbBlockBegin
  2
POLY12
 70
     0
 71
     0
 10
0.0
 20
0.0
 30
0.0
  3
POLY12
  1

  4
POLY12
  0
LINE
  5
61A
330
617
100
AcDbEntity
  8
LC-002-002-----0
 62
     7
370
    25
100
AcDbLine
 10
1526.880888
 20
1874.886331
 30
0.0
 11
1526.880888
 21
1874.886331
 31
0.0
  0
LINE
  5
61B
330
617
100
AcDbEntity
  8
LC-002-002-----0
 62
     7
370
    25
100
AcDbLine
 10
1526.880888
 20
1874.886331
 30
0.0
 11
1526.880922
 21
1875.401119
 31
0.0
  0
LINE
  5
61C
330
617
100
AcDbEntity
  8
LC-002-002-----0
 62
     7
370
    25
100
AcDbLine
 10
1526.880922
 20
1875.401119
 30
0.0
 11
1526.880922
 21
1875.401119
 31
0.0
  0
LINE
  5
61D
330
617
100
AcDbEntity
  8
LC-002-002-----0
 62
     7
370
    25
100
AcDbLine
 10
1526.880922
 20
1875.401119
 30
0.0
 11
1526.880885
 21
1875.882489
 31
0.0
  0
LINE
  5
61E
330
617
100
AcDbEntity
  8
LC-002-002-----0
 62
     7
370
    25
100
AcDbLine
 10
1526.880885
 20
1875.882489
 30
0.0
 11
1526.880885
 21
1875.882489
 31
0.0
  0
LINE
  5
61F
330
617
100
AcDbEntity
  8
LC-002-002-----0
 62
     7
370
    25
100
AcDbLine
 10
1526.880885
 20
1875.882489
 30
0.0
 11
1526.880891
 21
1876.29606
 31
0.0
  0
LINE
  5
620
330
617
100
AcDbEntity
  8
LC-002-002-----0
 62
     7
370
    25
100
AcDbLine
 10
1526.880891
 20
1876.29606
 30
0.0
 11
1526.880891
 21
1876.29606
 31
0.0
  0
LINE
  5
621
330
617
100
AcDbEntity
  8
LC-002-002-----0
 62
     7
370
    25
100
AcDbLine
 10
1526.880891
 20
1876.29606
 30
0.0
 11
1526.880866
 21
1876.614996
 31
0.0
  0
LINE
  5
622
330
617
100
AcDbEntity
  8
LC-002-002-----0
 62
     7
370
    25
100
AcDbLine
 10
1526.880866
 20
1876.614996
 30
0.0
 11
1526.880866
 21
1876.614996
 31
0.0
  0
LINE
  5
623
330
617
100
AcDbEntity
  8
LC-002-002-----0
 62
     7
370
    25
100
AcDbLine
 10
1526.880866
 20
1876.614996
 30
0.0
 11
1526.880915
 21
1876.816952
 31
0.0
  0
LINE
  5
624
330
617
100
AcDbEntity
  8
LC-002-002-----0
 62
     7
370
    25
100
AcDbLine
 10
1526.880915
 20
1876.816952
 30
0.0
 11
1526.880915
 21
1876.816952
 31
0.0
  0
LINE
  5
625
330
617
100
AcDbEntity
  8
LC-002-002-----0
 62
     7
370
    25
100
AcDbLine
 10
1526.880915
 20
1876.816952
 30
0.0
 11
1526.880897
 21
1876.886331
 31
0.0
  0
ENDBLK
  5
619
330
617
100
AcDbEntity
  8
0
100
AcDbBlockEnd
  0
BLOCK
  5
63E
330
63D
100
AcDbEntity
  8
0
100
AcDbBlockBegin
  2
LCDIM14
 70
     0
 71
     0
 10
0.0
 20
0.0
 30
0.0
  3
LCDIM14
  1

  4
LCDIM14
  0
LINE
  5
640
330
63D
100
AcDbEntity
  8
LC-010-003-MTH-0
 62
     7
370
    25
100
AcDbLine
 10
1443.176095
 20
1857.886331
 30
0.0
 11
1443.176095
 21
1485.0
 31
0.0
  0
LINE
  5
641
330
63D
100
AcDbEntity
  8
LC-010-003-MTH-0
 62
     7
370
    25
100
AcDbLine
 10
1756.983116
 20
1558.052662
 30
0.0
 11
1756.983116
 21
1485.0
 31
0.0
  0
LINE
  5
642
330
63D
100
AcDbEntity
  8
LC-011-003-MTG-0
 62
     7
370
    25
100
AcDbLine
 10
1443.176095
 20
1500.0
 30
0.0
 11
1756.983116
 21
1500.0
 31
0.0
  0
LINE
  5
643
330
63D
100
AcDbEntity
  8
LC-012-003-----0
 62
     7
370
    25
100
AcDbLine
 10
1467.962217
 20
1503.263155
 30
0.0
 11
1443.176095
 21
1500.0
 31
0.0
  0
LINE
  5
644
330
63D
100
AcDbEntity
  8
LC-012-003-----0
 62
     7
370
    25
100
AcDbLine
 10
1443.176095
 20
1500.0
 30
0.0
 11
1467.962217
 21
1496.736845
 31
0.0
  0
LINE
  5
645
330
63D
100
AcDbEntity
  8
LC-012-003-----0
 62
     7
370
    25
100
AcDbLine
 10
1467.962217
 20
1496.736845
 30
0.0
 11
1467.962217
 21
1503.263155
 31
0.0
  0
LINE
  5
646
330
63D
100
AcDbEntity
  8
LC-012-003-----0
 62
     7
370
    25
100
AcDbLine
 10
1468.017825
 20
1502.414735
 30
0.0
 11
1449.676095
 21
1500.0
 31
0.0
  0
LINE
  5
647
330
63D
100
AcDbEntity
  8
LC-012-003-----0
 62
     7
370
    25
100
AcDbLine
 10
1449.676095
 20
1500.0
 30
0.0
 11
1468.017825
 21
1497.585265
 31
0.0
  0
LINE
  5
648
330
63D
100
AcDbEntity
  8
LC-012-003-----0
 62
     7
370
    25
100
AcDbLine
 10
1468.073433
 20
1501.566314
 30
0.0
 11
1456.176095
 21
1500.0
 31
0.0
  0
LINE
  5
649
330
63D
100
AcDbEntity
  8
LC-012-003-----0
 62
     7
370
    25
100
AcDbLine
 10
1456.176095
 20
1500.0
 30
0.0
 11
1468.073433
 21
1498.433686
 31
0.0
  0
LINE
  5
64A
330
63D
100
AcDbEntity
  8
LC-012-003-----0
 62
     7
370
    25
100
AcDbLine
 10
1468.129042
 20
1500.717894
 30
0.0
 11
1462.676095
 21
1500.0
 31
0.0
  0
LINE
  5
64B
330
63D
100
AcDbEntity
  8
LC-012-003-----0
 62
     7
370
    25
100
AcDbLine
 10
1462.676095
 20
1500.0
 30
0.0
 11
1468.129042
 21
1499.282106
 31
0.0
  0
LINE
  5
64C
330
63D
100
AcDbEntity
  8
LC-012-003-----0
 62
     7
370
    25
100
AcDbLine
 10
1732.196995
 20
1496.736845
 30
0.0
 11
1756.983116
 21
1500.0
 31
0.0
  0
LINE
  5
64D
330
63D
100
AcDbEntity
  8
LC-012-003-----0
 62
     7
370
    25
100
AcDbLine
 10
1756.983116
 20
1500.0
 30
0.0
 11
1732.196995
 21
1503.263155
 31
0.0
  0
LINE
  5
64E
330
63D
100
AcDbEntity
  8
LC-012-003-----0
 62
     7
370
    25
100
AcDbLine
 10
1732.196995
 20
1503.263155
 30
0.0
 11
1732.196995
 21
1496.736845
 31
0.0
  0
LINE
  5
64F
330
63D
100
AcDbEntity
  8
LC-012-003-----0
 62
     7
370
    25
100
AcDbLine
 10
1732.141386
 20
1497.585265
 30
0.0
 11
1750.483116
 21
1500.0
 31
0.0
  0
LINE
  5
650
330
63D
100
AcDbEntity
  8
LC-012-003-----0
 62
     7
370
    25
100
AcDbLine
 10
1750.483116
 20
1500.0
 30
0.0
 11
1732.141386
 21
1502.414735
 31
0.0
  0
LINE
  5
651
330
63D
100
AcDbEntity
  8
LC-012-003-----0
 62
     7
370
    25
100
AcDbLine
 10
1732.085778
 20
1498.433686
 30
0.0
 11
1743.983116
 21
1500.0
 31
0.0
  0
LINE
  5
652
330
63D
100
AcDbEntity
  8
LC-012-003-----0
 62
     7
370
    25
100
AcDbLine
 10
1743.983116
 20
1500.0
 30
0.0
 11
1732.085778
 21
1501.566314
 31
0.0
  0
LINE
  5
653
330
63D
100
AcDbEntity
  8
LC-012-003-----0
 62
     7
370
    25
100
AcDbLine
 10
1732.030169
 20
1499.282106
 30
0.0
 11
1737.483116
 21
1500.0
 31
0.0
  0
LINE
  5
654
330
63D
100
AcDbEntity
  8
LC-012-003-----0
 62
     7
370
    25
100
AcDbLine
 10
1737.483116
 20
1500.0
 30
0.0
 11
1732.030169
 21
1500.717894
 31
0.0
  0
TEXT
  5
655
330
63D
100
AcDbEntity
  8
LC-012-003-----0
 62
     7
370
    25
100
AcDbText
 10
1567.174212
 20
1515.0
 30
0.0
 40
25.0
  1
314
 41
0.8
  7
LCTX0-400-0-0pDIN-Schrift
 72
     1
 11
1596.221832
 21
1515.0
 31
0.0
100
AcDbText
  0
ENDBLK
  5
63F
330
63D
100
AcDbEntity
  8
0
100
AcDbBlockEnd
  0
BLOCK
  5
65C
330
65B
100
AcDbEntity
  8
0
100
AcDbBlockBegin
  2
LCDIM15
 70
     0
 71
     0
 10
0.0
 20
0.0
 30
0.0
  3
LCDIM15
  1

  4
LCDIM15
  0
LINE
  5
65E
330
65B
100
AcDbEntity
  8
LC-010-003-MTH-0
 62
     7
370
    25
100
AcDbLine
 10
281.931535
 20
1562.72
 30
0.0
 11
281.931535
 21
1435.0
 31
0.0
  0
LINE
  5
65F
330
65B
100
AcDbEntity
  8
LC-010-003-MTH-0
 62
     7
370
    25
100
AcDbLine
 10
1281.931535
 20
1562.72
 30
0.0
 11
1281.931535
 21
1435.0
 31
0.0
  0
LINE
  5
660
330
65B
100
AcDbEntity
  8
LC-011-003-MTG-0
 62
     7
370
    25
100
AcDbLine
 10
281.931535
 20
1450.0
 30
0.0
 11
1281.931535
 21
1450.0
 31
0.0
  0
LINE
  5
661
330
65B
100
AcDbEntity
  8
LC-012-003-----0
 62
     7
370
    25
100
AcDbLine
 10
306.717657
 20
1453.263155
 30
0.0
 11
281.931535
 21
1450.0
 31
0.0
  0
LINE
  5
662
330
65B
100
AcDbEntity
  8
LC-012-003-----0
 62
     7
370
    25
100
AcDbLine
 10
281.931535
 20
1450.0
 30
0.0
 11
306.717657
 21
1446.736845
 31
0.0
  0
LINE
  5
663
330
65B
100
AcDbEntity
  8
LC-012-003-----0
 62
     7
370
    25
100
AcDbLine
 10
306.717657
 20
1446.736845
 30
0.0
 11
306.717657
 21
1453.263155
 31
0.0
  0
LINE
  5
664
330
65B
100
AcDbEntity
  8
LC-012-003-----0
 62
     7
370
    25
100
AcDbLine
 10
306.773266
 20
1452.414735
 30
0.0
 11
288.431535
 21
1450.0
 31
0.0
  0
LINE
  5
665
330
65B
100
AcDbEntity
  8
LC-012-003-----0
 62
     7
370
    25
100
AcDbLine
 10
288.431535
 20
1450.0
 30
0.0
 11
306.773266
 21
1447.585265
 31
0.0
  0
LINE
  5
666
330
65B
100
AcDbEntity
  8
LC-012-003-----0
 62
     7
370
    25
100
AcDbLine
 10
306.828874
 20
1451.566314
 30
0.0
 11
294.931535
 21
1450.0
 31
0.0
  0
LINE
  5
667
330
65B
100
AcDbEntity
  8
LC-012-003-----0
 62
     7
370
    25
100
AcDbLine
 10
294.931535
 20
1450.0
 30
0.0
 11
306.828874
 21
1448.433686
 31
0.0
  0
LINE
  5
668
330
65B
100
AcDbEntity
  8
LC-012-003-----0
 62
     7
370
    25
100
AcDbLine
 10
306.884482
 20
1450.717894
 30
0.0
 11
301.431536
 21
1450.0
 31
0.0
  0
LINE
  5
669
330
65B
100
AcDbEntity
  8
LC-012-003-----0
 62
     7
370
    25
100
AcDbLine
 10
301.431536
 20
1450.0
 30
0.0
 11
306.884482
 21
1449.282106
 31
0.0
  0
LINE
  5
66A
330
65B
100
AcDbEntity
  8
LC-012-003-----0
 62
     7
370
    25
100
AcDbLine
 10
1257.145413
 20
1446.736845
 30
0.0
 11
1281.931535
 21
1450.0
 31
0.0
  0
LINE
  5
66B
330
65B
100
AcDbEntity
  8
LC-012-003-----0
 62
     7
370
    25
100
AcDbLine
 10
1281.931535
 20
1450.0
 30
0.0
 11
1257.145413
 21
1453.263155
 31
0.0
  0
LINE
  5
66C
330
65B
100
AcDbEntity
  8
LC-012-003-----0
 62
     7
370
    25
100
AcDbLine
 10
1257.145413
 20
1453.263155
 30
0.0
 11
1257.145413
 21
1446.736845
 31
0.0
  0
LINE
  5
66D
330
65B
100
AcDbEntity
  8
LC-012-003-----0
 62
     7
370
    25
100
AcDbLine
 10
1257.089805
 20
1447.585265
 30
0.0
 11
1275.431535
 21
1450.0
 31
0.0
  0
LINE
  5
66E
330
65B
100
AcDbEntity
  8
LC-012-003-----0
 62
     7
370
    25
100
AcDbLine
 10
1275.431535
 20
1450.0
 30
0.0
 11
1257.089805
 21
1452.414735
 31
0.0
  0
LINE
  5
66F
330
65B
100
AcDbEntity
  8
LC-012-003-----0
 62
     7
370
    25
100
AcDbLine
 10
1257.034197
 20
1448.433686
 30
0.0
 11
1268.931535
 21
1450.0
 31
0.0
  0
LINE
  5
670
330
65B
100
AcDbEntity
  8
LC-012-003-----0
 62
     7
370
    25
100
AcDbLine
 10
1268.931535
 20
1450.0
 30
0.0
 11
1257.034197
 21
1451.566314
 31
0.0
  0
LINE
  5
671
330
65B
100
AcDbEntity
  8
LC-012-003-----0
 62
     7
370
    25
100
AcDbLine
 10
1256.978588
 20
1449.282106
 30
0.0
 11
1262.431535
 21
1450.0
 31
0.0
  0
LINE
  5
672
330
65B
100
AcDbEntity
  8
LC-012-003-----0
 62
     7
370
    25
100
AcDbLine
 10
1262.431535
 20
1450.0
 30
0.0
 11
1256.978588
 21
1450.717894
 31
0.0
  0
TEXT
  5
673
330
65B
100
AcDbEntity
  8
LC-012-003-----0
 62
     7
370
    25
100
AcDbText
 10
753.434974
 20
1465.0
 30
0.0
 40
25.0
  1
1000
 41
0.7
  7
LCTX0-400-0-0pDIN-Schrift
 72
     1
 11
788.018307
 21
1465.0
 31
0.0
100
AcDbText
  0
ENDBLK
  5
65D
330
65B
100
AcDbEntity
  8
0
100
AcDbBlockEnd
  0
BLOCK
  5
682
330
681
100
AcDbEntity
  8
0
100
AcDbBlockBegin
  2
LCDIM16
 70
     0
 71
     0
 10
0.0
 20
0.0
 30
0.0
  3
LCDIM16
  1

  4
LCDIM16
  0
LINE
  5
684
330
681
100
AcDbEntity
  8
LC-010-003-MTH-0
 62
     7
370
    25
100
AcDbLine
 10
1276.931535
 20
1557.72
 30
0.0
 11
1365.0
 21
1557.72
 31
0.0
  0
LINE
  5
685
330
681
100
AcDbEntity
  8
LC-010-003-MTH-0
 62
     7
370
    25
100
AcDbLine
 10
1276.931535
 20
2057.72
 30
0.0
 11
1365.0
 21
2057.72
 31
0.0
  0
LINE
  5
686
330
681
100
AcDbEntity
  8
LC-011-003-MTG-0
 62
     7
370
    25
100
AcDbLine
 10
1350.0
 20
1557.72
 30
0.0
 11
1350.0
 21
2057.72
 31
0.0
  0
LINE
  5
687
330
681
100
AcDbEntity
  8
LC-012-003-----0
 62
     7
370
    25
100
AcDbLine
 10
1346.736845
 20
1582.506122
 30
0.0
 11
1350.0
 21
1557.72
 31
0.0
  0
LINE
  5
688
330
681
100
AcDbEntity
  8
LC-012-003-----0
 62
     7
370
    25
100
AcDbLine
 10
1350.0
 20
1557.72
 30
0.0
 11
1353.263155
 21
1582.506122
 31
0.0
  0
LINE
  5
689
330
681
100
AcDbEntity
  8
LC-012-003-----0
 62
     7
370
    25
100
AcDbLine
 10
1353.263155
 20
1582.506122
 30
0.0
 11
1346.736845
 21
1582.506122
 31
0.0
  0
LINE
  5
68A
330
681
100
AcDbEntity
  8
LC-012-003-----0
 62
     7
370
    25
100
AcDbLine
 10
1347.585265
 20
1582.56173
 30
0.0
 11
1350.0
 21
1564.22
 31
0.0
  0
LINE
  5
68B
330
681
100
AcDbEntity
  8
LC-012-003-----0
 62
     7
370
    25
100
AcDbLine
 10
1350.0
 20
1564.22
 30
0.0
 11
1352.414735
 21
1582.56173
 31
0.0
  0
LINE
  5
68C
330
681
100
AcDbEntity
  8
LC-012-003-----0
 62
     7
370
    25
100
AcDbLine
 10
1348.433686
 20
1582.617339
 30
0.0
 11
1350.0
 21
1570.72
 31
0.0
  0
LINE
  5
68D
330
681
100
AcDbEntity
  8
LC-012-003-----0
 62
     7
370
    25
100
AcDbLine
 10
1350.0
 20
1570.72
 30
0.0
 11
1351.566314
 21
1582.617339
 31
0.0
  0
LINE
  5
68E
330
681
100
AcDbEntity
  8
LC-012-003-----0
 62
     7
370
    25
100
AcDbLine
 10
1349.282106
 20
1582.672947
 30
0.0
 11
1350.0
 21
1577.22
 31
0.0
  0
LINE
  5
68F
330
681
100
AcDbEntity
  8
LC-012-003-----0
 62
     7
370
    25
100
AcDbLine
 10
1350.0
 20
1577.22
 30
0.0
 11
1350.717894
 21
1582.672947
 31
0.0
  0
LINE
  5
690
330
681
100
AcDbEntity
  8
LC-012-003-----0
 62
     7
370
    25
100
AcDbLine
 10
1353.263155
 20
2032.933878
 30
0.0
 11
1350.0
 21
2057.72
 31
0.0
  0
LINE
  5
691
330
681
100
AcDbEntity
  8
LC-012-003-----0
 62
     7
370
    25
100
AcDbLine
 10
1350.0
 20
2057.72
 30
0.0
 11
1346.736845
 21
2032.933878
 31
0.0
  0
LINE
  5
692
330
681
100
AcDbEntity
  8
LC-012-003-----0
 62
     7
370
    25
100
AcDbLine
 10
1346.736845
 20
2032.933878
 30
0.0
 11
1353.263155
 21
2032.933878
 31
0.0
  0
LINE
  5
693
330
681
100
AcDbEntity
  8
LC-012-003-----0
 62
     7
370
    25
100
AcDbLine
 10
1352.414735
 20
2032.87827
 30
0.0
 11
1350.0
 21
2051.22
 31
0.0
  0
LINE
  5
694
330
681
100
AcDbEntity
  8
LC-012-003-----0
 62
     7
370
    25
100
AcDbLine
 10
1350.0
 20
2051.22
 30
0.0
 11
1347.585265
 21
2032.87827
 31
0.0
  0
LINE
  5
695
330
681
100
AcDbEntity
  8
LC-012-003-----0
 62
     7
370
    25
100
AcDbLine
 10
1351.566314
 20
2032.822661
 30
0.0
 11
1350.0
 21
2044.72
 31
0.0
  0
LINE
  5
696
330
681
100
AcDbEntity
  8
LC-012-003-----0
 62
     7
370
    25
100
AcDbLine
 10
1350.0
 20
2044.72
 30
0.0
 11
1348.433686
 21
2032.822661
 31
0.0
  0
LINE
  5
697
330
681
100
AcDbEntity
  8
LC-012-003-----0
 62
     7
370
    25
100
AcDbLine
 10
1350.717894
 20
2032.767053
 30
0.0
 11
1350.0
 21
2038.22
 31
0.0
  0
LINE
  5
698
330
681
100
AcDbEntity
  8
LC-012-003-----0
 62
     7
370
    25
100
AcDbLine
 10
1350.0
 20
2038.22
 30
0.0
 11
1349.282106
 21
2032.767053
 31
0.0
  0
TEXT
  5
699
330
681
100
AcDbEntity
  8
LC-012-003-----0
 62
     7
370
    25
100
AcDbText
 10
1335.0
 20
1783.458694
 30
0.0
 40
25.0
  1
500
 50
90.0
 41
0.7
  7
LCTX0-400-0-0pDIN-Schrift
 72
     1
 11
1335.0
 21
1808.458694
 31
0.0
100
AcDbText
  0
ENDBLK
  5
683
330
681
100
AcDbEntity
  8
0
100
AcDbBlockEnd
  0
BLOCK
  5
6A0
330
69F
100
AcDbEntity
  8
0
100
AcDbBlockBegin
  2
LCDIM17
 70
     0
 71
     0
 10
0.0
 20
0.0
 30
0.0
  3
LCDIM17
  1

  4
LCDIM17
  0
LINE
  5
6A2
330
69F
100
AcDbEntity
  8
LC-010-003-MTH-0
 62
     7
370
    25
100
AcDbLine
 10
1338.697392
 20
817.626021
 30
0.0
 11
1338.697392
 21
685.0
 31
0.0
  0
LINE
  5
6A3
330
69F
100
AcDbEntity
  8
LC-010-003-MTH-0
 62
     7
370
    25
100
AcDbLine
 10
1831.197392
 20
817.626021
 30
0.0
 11
1831.197392
 21
685.0
 31
0.0
  0
LINE
  5
6A4
330
69F
100
AcDbEntity
  8
LC-011-003-MTG-0
 62
     7
370
    25
100
AcDbLine
 10
1338.697392
 20
700.0
 30
0.0
 11
1831.197392
 21
700.0
 31
0.0
  0
LINE
  5
6A5
330
69F
100
AcDbEntity
  8
LC-012-003-----0
 62
     7
370
    25
100
AcDbLine
 10
1363.483514
 20
703.263155
 30
0.0
 11
1338.697392
 21
700.0
 31
0.0
  0
LINE
  5
6A6
330
69F
100
AcDbEntity
  8
LC-012-003-----0
 62
     7
370
    25
100
AcDbLine
 10
1338.697392
 20
700.0
 30
0.0
 11
1363.483514
 21
696.736845
 31
0.0
  0
LINE
  5
6A7
330
69F
100
AcDbEntity
  8
LC-012-003-----0
 62
     7
370
    25
100
AcDbLine
 10
1363.483514
 20
696.736845
 30
0.0
 11
1363.483514
 21
703.263155
 31
0.0
  0
LINE
  5
6A8
330
69F
100
AcDbEntity
  8
LC-012-003-----0
 62
     7
370
    25
100
AcDbLine
 10
1363.539122
 20
702.414735
 30
0.0
 11
1345.197392
 21
700.0
 31
0.0
  0
LINE
  5
6A9
330
69F
100
AcDbEntity
  8
LC-012-003-----0
 62
     7
370
    25
100
AcDbLine
 10
1345.197392
 20
700.0
 30
0.0
 11
1363.539122
 21
697.585265
 31
0.0
  0
LINE
  5
6AA
330
69F
100
AcDbEntity
  8
LC-012-003-----0
 62
     7
370
    25
100
AcDbLine
 10
1363.594731
 20
701.566314
 30
0.0
 11
1351.697392
 21
700.0
 31
0.0
  0
LINE
  5
6AB
330
69F
100
AcDbEntity
  8
LC-012-003-----0
 62
     7
370
    25
100
AcDbLine
 10
1351.697392
 20
700.0
 30
0.0
 11
1363.594731
 21
698.433686
 31
0.0
  0
LINE
  5
6AC
330
69F
100
AcDbEntity
  8
LC-012-003-----0
 62
     7
370
    25
100
AcDbLine
 10
1363.650339
 20
700.717894
 30
0.0
 11
1358.197392
 21
700.0
 31
0.0
  0
LINE
  5
6AD
330
69F
100
AcDbEntity
  8
LC-012-003-----0
 62
     7
370
    25
100
AcDbLine
 10
1358.197392
 20
700.0
 30
0.0
 11
1363.650339
 21
699.282106
 31
0.0
  0
LINE
  5
6AE
330
69F
100
AcDbEntity
  8
LC-012-003-----0
 62
     7
370
    25
100
AcDbLine
 10
1806.41127
 20
696.736845
 30
0.0
 11
1831.197392
 21
700.0
 31
0.0
  0
LINE
  5
6AF
330
69F
100
AcDbEntity
  8
LC-012-003-----0
 62
     7
370
    25
100
AcDbLine
 10
1831.197392
 20
700.0
 30
0.0
 11
1806.41127
 21
703.263155
 31
0.0
  0
LINE
  5
6B0
330
69F
100
AcDbEntity
  8
LC-012-003-----0
 62
     7
370
    25
100
AcDbLine
 10
1806.41127
 20
703.263155
 30
0.0
 11
1806.41127
 21
696.736845
 31
0.0
  0
LINE
  5
6B1
330
69F
100
AcDbEntity
  8
LC-012-003-----0
 62
     7
370
    25
100
AcDbLine
 10
1806.355662
 20
697.585265
 30
0.0
 11
1824.697392
 21
700.0
 31
0.0
  0
LINE
  5
6B2
330
69F
100
AcDbEntity
  8
LC-012-003-----0
 62
     7
370
    25
100
AcDbLine
 10
1824.697392
 20
700.0
 30
0.0
 11
1806.355662
 21
702.414735
 31
0.0
  0
LINE
  5
6B3
330
69F
100
AcDbEntity
  8
LC-012-003-----0
 62
     7
370
    25
100
AcDbLine
 10
1806.300053
 20
698.433686
 30
0.0
 11
1818.197392
 21
700.0
 31
0.0
  0
LINE
  5
6B4
330
69F
100
AcDbEntity
  8
LC-012-003-----0
 62
     7
370
    25
100
AcDbLine
 10
1818.197392
 20
700.0
 30
0.0
 11
1806.300053
 21
701.566314
 31
0.0
  0
LINE
  5
6B5
330
69F
100
AcDbEntity
  8
LC-012-003-----0
 62
     7
370
    25
100
AcDbLine
 10
1806.244445
 20
699.282106
 30
0.0
 11
1811.697392
 21
700.0
 31
0.0
  0
LINE
  5
6B6
330
69F
100
AcDbEntity
  8
LC-012-003-----0
 62
     7
370
    25
100
AcDbLine
 10
1811.697392
 20
700.0
 30
0.0
 11
1806.244445
 21
700.717894
 31
0.0
  0
TEXT
  5
6B7
330
69F
100
AcDbEntity
  8
LC-012-003-----0
 62
     7
370
    25
100
AcDbText
 10
1556.368335
 20
715.0
 30
0.0
 40
25.0
  1
985
 41
0.7
  7
LCTX0-400-0-0pDIN-Schrift
 72
     1
 11
1581.368335
 21
715.0
 31
0.0
100
AcDbText
  0
ENDBLK
  5
6A1
330
69F
100
AcDbEntity
  8
0
100
AcDbBlockEnd
  0
BLOCK
  5
6BA
330
6B9
100
AcDbEntity
  8
0
100
AcDbBlockBegin
  2
LCDIM18
 70
     0
 71
     0
 10
0.0
 20
0.0
 30
0.0
  3
LCDIM18
  1

  4
LCDIM18
  0
LINE
  5
6BC
330
6B9
100
AcDbEntity
  8
LC-010-003-MTH-0
 62
     7
370
    25
100
AcDbLine
 10
1811.197392
 20
797.626021
 30
0.0
 11
1915.0
 21
797.626021
 31
0.0
  0
LINE
  5
6BD
330
6B9
100
AcDbEntity
  8
LC-010-003-MTH-0
 62
     7
370
    25
100
AcDbLine
 10
1811.197392
 20
1040.126021
 30
0.0
 11
1915.0
 21
1040.126021
 31
0.0
  0
LINE
  5
6BE
330
6B9
100
AcDbEntity
  8
LC-011-003-MTG-0
 62
     7
370
    25
100
AcDbLine
 10
1900.0
 20
797.626021
 30
0.0
 11
1900.0
 21
1040.126021
 31
0.0
  0
LINE
  5
6BF
330
6B9
100
AcDbEntity
  8
LC-012-003-----0
 62
     7
370
    25
100
AcDbLine
 10
1896.736845
 20
822.412143
 30
0.0
 11
1900.0
 21
797.626021
 31
0.0
  0
LINE
  5
6C0
330
6B9
100
AcDbEntity
  8
LC-012-003-----0
 62
     7
370
    25
100
AcDbLine
 10
1900.0
 20
797.626021
 30
0.0
 11
1903.263155
 21
822.412143
 31
0.0
  0
LINE
  5
6C1
330
6B9
100
AcDbEntity
  8
LC-012-003-----0
 62
     7
370
    25
100
AcDbLine
 10
1903.263155
 20
822.412143
 30
0.0
 11
1896.736845
 21
822.412143
 31
0.0
  0
LINE
  5
6C2
330
6B9
100
AcDbEntity
  8
LC-012-003-----0
 62
     7
370
    25
100
AcDbLine
 10
1897.585265
 20
822.467752
 30
0.0
 11
1900.0
 21
804.126022
 31
0.0
  0
LINE
  5
6C3
330
6B9
100
AcDbEntity
  8
LC-012-003-----0
 62
     7
370
    25
100
AcDbLine
 10
1900.0
 20
804.126022
 30
0.0
 11
1902.414735
 21
822.467752
 31
0.0
  0
LINE
  5
6C4
330
6B9
100
AcDbEntity
  8
LC-012-003-----0
 62
     7
370
    25
100
AcDbLine
 10
1898.433686
 20
822.52336
 30
0.0
 11
1900.0
 21
810.626022
 31
0.0
  0
LINE
  5
6C5
330
6B9
100
AcDbEntity
  8
LC-012-003-----0
 62
     7
370
    25
100
AcDbLine
 10
1900.0
 20
810.626022
 30
0.0
 11
1901.566314
 21
822.52336
 31
0.0
  0
LINE
  5
6C6
330
6B9
100
AcDbEntity
  8
LC-012-003-----0
 62
     7
370
    25
100
AcDbLine
 10
1899.282106
 20
822.578969
 30
0.0
 11
1900.0
 21
817.126022
 31
0.0
  0
LINE
  5
6C7
330
6B9
100
AcDbEntity
  8
LC-012-003-----0
 62
     7
370
    25
100
AcDbLine
 10
1900.0
 20
817.126022
 30
0.0
 11
1900.717894
 21
822.578969
 31
0.0
  0
LINE
  5
6C8
330
6B9
100
AcDbEntity
  8
LC-012-003-----0
 62
     7
370
    25
100
AcDbLine
 10
1903.263155
 20
1015.3399
 30
0.0
 11
1900.0
 21
1040.126021
 31
0.0
  0
LINE
  5
6C9
330
6B9
100
AcDbEntity
  8
LC-012-003-----0
 62
     7
370
    25
100
AcDbLine
 10
1900.0
 20
1040.126021
 30
0.0
 11
1896.736845
 21
1015.3399
 31
0.0
  0
LINE
  5
6CA
330
6B9
100
AcDbEntity
  8
LC-012-003-----0
 62
     7
370
    25
100
AcDbLine
 10
1896.736845
 20
1015.3399
 30
0.0
 11
1903.263155
 21
1015.3399
 31
0.0
  0
LINE
  5
6CB
330
6B9
100
AcDbEntity
  8
LC-012-003-----0
 62
     7
370
    25
100
AcDbLine
 10
1902.414735
 20
1015.284291
 30
0.0
 11
1900.0
 21
1033.626021
 31
0.0
  0
LINE
  5
6CC
330
6B9
100
AcDbEntity
  8
LC-012-003-----0
 62
     7
370
    25
100
AcDbLine
 10
1900.0
 20
1033.626021
 30
0.0
 11
1897.585265
 21
1015.284291
 31
0.0
  0
LINE
  5
6CD
330
6B9
100
AcDbEntity
  8
LC-012-003-----0
 62
     7
370
    25
100
AcDbLine
 10
1901.566314
 20
1015.228683
 30
0.0
 11
1900.0
 21
1027.126021
 31
0.0
  0
LINE
  5
6CE
330
6B9
100
AcDbEntity
  8
LC-012-003-----0
 62
     7
370
    25
100
AcDbLine
 10
1900.0
 20
1027.126021
 30
0.0
 11
1898.433686
 21
1015.228683
 31
0.0
  0
LINE
  5
6CF
330
6B9
100
AcDbEntity
  8
LC-012-003-----0
 62
     7
370
    25
100
AcDbLine
 10
1900.717894
 20
1015.173074
 30
0.0
 11
1900.0
 21
1020.626021
 31
0.0
  0
LINE
  5
6D0
330
6B9
100
AcDbEntity
  8
LC-012-003-----0
 62
     7
370
    25
100
AcDbLine
 10
1900.0
 20
1020.626021
 30
0.0
 11
1899.282106
 21
1015.173074
 31
0.0
  0
TEXT
  5
6D1
330
6B9
100
AcDbEntity
  8
LC-012-003-----0
 62
     7
370
    25
100
AcDbText
 10
1885.0
 20
894.760274
 30
0.0
 40
25.0
  1
485
 50
90.0
 41
0.7
  7
LCTX0-400-0-0pDIN-Schrift
 72
     1
 11
1885.0
 21
919.760274
 31
0.0
100
AcDbText
  0
ENDBLK
  5
6BB
330
6B9
100
AcDbEntity
  8
0
100
AcDbBlockEnd
  0
BLOCK
  5
6D4
330
6D3
100
AcDbEntity
  8
0
100
AcDbBlockBegin
  2
LCDIM19
 70
     0
 71
     0
 10
0.0
 20
0.0
 30
0.0
  3
LCDIM19
  1

  4
LCDIM19
  0
TEXT
  5
6D6
330
6D3
100
AcDbEntity
  8
LC-012-003-----0
 62
     7
370
    25
100
AcDbText
 10
1396.540001
 20
993.544766
 30
0.0
 40
25.0
  1
R40
 50
305.988525
 41
0.7
  7
LCTX0-400-0-0pDIN-Schrift
100
AcDbText
  0
LINE
  5
6D7
330
6D3
100
AcDbEntity
  8
LC-011-003-MTG-0
 62
     7
370
    25
100
AcDbLine
 10
1407.257466
 20
953.260665
 30
0.0
 11
1346.944925
 21
1036.308713
 31
0.0
  0
LINE
  5
6D8
330
6D3
100
AcDbEntity
  8
LC-012-003-----0
 62
     7
370
    25
100
AcDbLine
 10
1364.150159
 20
1018.170909
 30
0.0
 11
1346.944925
 21
1036.308713
 31
0.0
  0
LINE
  5
6D9
330
6D3
100
AcDbEntity
  8
LC-012-003-----0
 62
     7
370
    25
100
AcDbLine
 10
1346.944925
 20
1036.308713
 30
0.0
 11
1358.869495
 21
1014.335898
 31
0.0
  0
LINE
  5
6DA
330
6D3
100
AcDbEntity
  8
LC-012-003-----0
 62
     7
370
    25
100
AcDbLine
 10
1358.869495
 20
1014.335898
 30
0.0
 11
1364.150159
 21
1018.170909
 31
0.0
  0
LINE
  5
6DB
330
6D3
100
AcDbEntity
  8
LC-012-003-----0
 62
     7
370
    25
100
AcDbLine
 10
1363.496349
 20
1017.627363
 30
0.0
 11
1350.764476
 21
1031.049338
 31
0.0
  0
LINE
  5
6DC
330
6D3
100
AcDbEntity
  8
LC-012-003-----0
 62
     7
370
    25
100
AcDbLine
 10
1350.764476
 20
1031.049338
 30
0.0
 11
1359.588658
 21
1014.789455
 31
0.0
  0
LINE
  5
6DD
330
6D3
100
AcDbEntity
  8
LC-012-003-----0
 62
     7
370
    25
100
AcDbLine
 10
1362.84254
 20
1017.083817
 30
0.0
 11
1354.584028
 21
1025.789963
 31
0.0
  0
LINE
  5
6DE
330
6D3
100
AcDbEntity
  8
LC-012-003-----0
 62
     7
370
    25
100
AcDbLine
 10
1354.584028
 20
1025.789963
 30
0.0
 11
1360.307821
 21
1015.243012
 31
0.0
  0
LINE
  5
6DF
330
6D3
100
AcDbEntity
  8
LC-012-003-----0
 62
     7
370
    25
100
AcDbLine
 10
1362.18873
 20
1016.540271
 30
0.0
 11
1358.403579
 21
1020.530588
 31
0.0
  0
LINE
  5
6E0
330
6D3
100
AcDbEntity
  8
LC-012-003-----0
 62
     7
370
    25
100
AcDbLine
 10
1358.403579
 20
1020.530588
 30
0.0
 11
1361.026984
 21
1015.696568
 31
0.0
  0
ENDBLK
  5
6D5
330
6D3
100
AcDbEntity
  8
0
100
AcDbBlockEnd
  0
ENDSEC
  0
SECTION
  2
ENTITIES
  0
INSERT
  5
102
330
1F
100
AcDbEntity
  8
LC-003-230-ZVN-0
 62
     7
370
   211
100
AcDbBlockReference
  2
SYM1
 10
0.0
 20
0.0
 30
0.0
  0
LINE
  5
103
102
{ACAD_REACTORS
330
6E7
102
}
330
1F
100
AcDbEntity
  8
LC-002-002-----0
 62
     7
370
    50
100
AcDbLine
 10
292.036425
 20
2720.05
 30
0.0
 11
226.724922
 21
2720.05
 31
0.0
  0
LINE
  5
104
102
{ACAD_REACTORS
330
6E7
102
}
330
1F
100
AcDbEntity
  8
LC-002-002-----0
 62
     7
370
    50
100
AcDbLine
 10
292.036425
 20
2720.05
 30
0.0
 11
292.036425
 21
2682.05
 31
0.0
  0
ELLIPSE
  5
106
102
{ACAD_REACTORS
330
6E8
102
}
330
1F
100
AcDbEntity
  8
LC-004-100-D01-0
 62
     7
370
    25
100
AcDbEllipse
 10
906.152895
 20
1807.72
 30
0.0
 11
0.0
 21
-14.97640222437431
 31
0.0
210
0.0
220
0.0
230
1.0
 40
0.098827
 41
0.0
 42
6.283185307179586
  0
LINE
  5
107
102
{ACAD_REACTORS
330
6E7
102
}
330
1F
100
AcDbEntity
  8
LC-002-002-----0
 62
     7
370
    50
100
AcDbLine
 10
292.036425
 20
2682.05
 30
0.0
 11
226.724922
 21
2682.05
 31
0.0
  0
LINE
  5
108
102
{ACAD_REACTORS
330
6E7
102
}
330
1F
100
AcDbEntity
  8
LC-002-002-----0
 62
     7
370
    25
100
AcDbLine
 10
226.724922
 20
2720.05
 30
0.0
 11
224.840852
 21
2698.930091
 31
0.0
  0
LINE
  5
109
102
{ACAD_REACTORS
330
6E7
102
}
330
1F
100
AcDbEntity
  8
LC-002-002-----0
 62
     7
370
    25
100
AcDbLine
 10
224.840852
 20
2698.930091
 30
0.0
 11
226.724922
 21
2682.05
 31
0.0
  0
LINE
  5
10B
330
1F
100
AcDbEntity
  8
LC-002-002-----0
  6
DASHDOT
 62
     7
370
    25
100
AcDbLine
 10
890.518564
 20
782.444497
 30
0.0
 11
890.518564
 21
1074.602088
 31
0.0
  0
LINE
  5
10C
330
1F
100
AcDbEntity
  8
LC-002-002-----0
  6
DASHDOT
 62
     7
370
    25
100
AcDbLine
 10
881.018564
 20
782.444497
 30
0.0
 11
881.018564
 21
1074.602088
 31
0.0
  0
LINE
  5
10D
330
1F
100
AcDbEntity
  8
LC-002-002-----0
  6
DASHDOT
 62
     7
370
    25
100
AcDbLine
 10
590.518564
 20
782.444497
 30
0.0
 11
590.518564
 21
1074.602088
 31
0.0
  0
LINE
  5
10E
330
1F
100
AcDbEntity
  8
LC-002-002-----0
  6
DASHDOT
 62
     7
370
    25
100
AcDbLine
 10
600.018564
 20
782.444497
 30
0.0
 11
600.018564
 21
1074.602088
 31
0.0
  0
LINE
  5
10F
102
{ACAD_REACTORS
330
6F5
102
}
330
1F
100
AcDbEntity
  8
LC-002-002-----0
 62
     7
370
    25
100
AcDbLine
 10
935.181535
 20
2486.3
 30
0.0
 11
946.93141
 21
2486.3
 31
0.0
  0
LINE
  5
112
102
{ACAD_REACTORS
330
6E7
102
}
330
1F
100
AcDbEntity
  8
LC-005-006-MLN-0
 62
     7
370
    25
100
AcDbLine
 10
1006.931535
 20
2524.55
 30
0.0
 11
1006.931535
 21
2505.55
 31
0.0
  0
LINE
  5
113
102
{ACAD_REACTORS
330
6F1
102
}
330
1F
100
AcDbEntity
  8
LC-002-002-----0
 62
     7
370
    25
100
AcDbLine
 10
671.826645
 20
2594.424578
 30
0.0
 11
683.592305
 21
2590.849133
 31
0.0
  0
LINE
  5
114
102
{ACAD_REACTORS
330
6F1
102
}
330
1F
100
AcDbEntity
  8
LC-002-002-----0
 62
     7
370
    25
100
AcDbLine
 10
683.592305
 20
2590.849133
 30
0.0
 11
690.826645
 21
2594.424578
 31
0.0
  0
LINE
  5
115
102
{ACAD_REACTORS
330
6F1
102
}
330
1F
100
AcDbEntity
  8
LC-002-002-----0
 62
     7
370
    25
100
AcDbLine
 10
1252.826645
 20
2594.424578
 30
0.0
 11
1264.830283
 21
2591.954767
 31
0.0
  0
LINE
  5
116
102
{ACAD_REACTORS
330
6F1
102
}
330
1F
100
AcDbEntity
  8
LC-002-002-----0
 62
     7
370
    25
100
AcDbLine
 10
1264.830283
 20
2591.954767
 30
0.0
 11
1271.826645
 21
2594.424578
 31
0.0
  0
LINE
  5
117
330
1F
100
AcDbEntity
  8
LC-002-002-----0
 62
     7
370
    25
100
AcDbLine
 10
1470.880888
 20
1952.886331
 30
0.0
 11
1526.880888
 21
1952.886331
 31
0.0
  0
ARC
  5
119
102
{ACAD_REACTORS
330
6E6
102
}
330
1F
100
AcDbEntity
  8
LC-006-002-RND-0
 62
     7
370
    50
100
AcDbCircle
 10
1358.697392
 20
1020.126021
 30
0.0
 40
20.0
100
AcDbArc
 50
90.0
 51
180.0
  0
ARC
  5
11A
102
{ACAD_REACTORS
330
6E6
102
}
330
1F
100
AcDbEntity
  8
LC-006-002-RND-0
 62
     7
370
    50
100
AcDbCircle
 10
1358.697392
 20
817.626021
 30
0.0
 40
20.0
100
AcDbArc
 50
180.0
 51
270.0
  0
ARC
  5
11B
102
{ACAD_REACTORS
330
6E6
102
}
330
1F
100
AcDbEntity
  8
LC-006-002-RND-0
 62
     7
370
    50
100
AcDbCircle
 10
1811.197392
 20
817.626021
 30
0.0
 40
20.0
100
AcDbArc
 50
270.0
 51
0.0
  0
ARC
  5
11C
102
{ACAD_REACTORS
330
6E6
102
}
330
1F
100
AcDbEntity
  8
LC-006-002-RND-0
 62
     7
370
    50
100
AcDbCircle
 10
1811.197392
 20
1020.126021
 30
0.0
 40
20.0
100
AcDbArc
 50
0.0
 51
90.0
  0
ARC
  5
11D
102
{ACAD_REACTORS
330
6F4
102
}
330
1F
100
AcDbEntity
  8
LC-002-002-----0
 62
     7
370
    25
100
AcDbCircle
 10
786.931535
 20
2433.947772
 30
0.0
 40
19.99999999999852
100
AcDbArc
 50
180.0
 51
270.0
  0
LINE
  5
11E
102
{ACAD_REACTORS
330
6E8
102
}
330
1F
100
AcDbEntity
  8
LC-004-100-D01-0
 62
     7
370
    50
100
AcDbLine
 10
1276.931535
 20
2057.72
 30
0.0
 11
286.931535
 21
2057.72
 31
0.0
  0
LINE
  5
11F
102
{ACAD_REACTORS
330
6E8
102
}
330
1F
100
AcDbEntity
  8
LC-004-100-D01-0
 62
     7
370
    50
100
AcDbLine
 10
1276.931535
 20
1557.72
 30
0.0
 11
286.931535
 21
1557.72
 31
0.0
  0
LINE
  5
120
102
{ACAD_REACTORS
330
6E8
102
}
330
1F
100
AcDbEntity
  8
LC-004-100-D01-0
 62
     7
370
    50
100
AcDbLine
 10
1281.931535
 20
2052.72
 30
0.0
 11
1281.931535
 21
1562.72
 31
0.0
  0
LINE
  5
121
102
{ACAD_REACTORS
330
6E8
102
}
330
1F
100
AcDbEntity
  8
LC-004-100-D01-0
 62
     7
370
    50
100
AcDbLine
 10
281.931535
 20
2052.72
 30
0.0
 11
281.931535
 21
1562.72
 31
0.0
  0
ARC
  5
123
102
{ACAD_REACTORS
330
6E8
102
}
330
1F
100
AcDbEntity
  8
LC-007-100-D02-0
 62
     7
370
    50
100
AcDbCircle
 10
1276.931535
 20
2052.72
 30
0.0
 40
5.0
100
AcDbArc
 50
0.0
 51
90.0
  0
ARC
  5
124
102
{ACAD_REACTORS
330
6E8
102
}
330
1F
100
AcDbEntity
  8
LC-007-100-D02-0
 62
     7
370
    50
100
AcDbCircle
 10
286.931535
 20
2052.72
 30
0.0
 40
5.0
100
AcDbArc
 50
90.0
 51
180.0
  0
ARC
  5
125
102
{ACAD_REACTORS
330
6E8
102
}
330
1F
100
AcDbEntity
  8
LC-007-100-D02-0
 62
     7
370
    50
100
AcDbCircle
 10
286.931535
 20
1562.72
 30
0.0
 40
5.0
100
AcDbArc
 50
180.0
 51
270.0
  0
ARC
  5
126
102
{ACAD_REACTORS
330
6E8
102
}
330
1F
100
AcDbEntity
  8
LC-007-100-D02-0
 62
     7
370
    50
100
AcDbCircle
 10
1276.931535
 20
1562.72
 30
0.0
 40
5.0
100
AcDbArc
 50
270.0
 51
0.0
  0
LINE
  5
127
102
{ACAD_REACTORS
330
6E8
102
}
330
1F
100
AcDbEntity
  8
LC-004-100-D01-0
 62
     7
370
    25
100
AcDbLine
 10
1258.931535
 20
2009.72
 30
0.0
 11
1258.931535
 21
1605.72
 31
0.0
  0
ARC
  5
128
102
{ACAD_REACTORS
330
6E8
102
}
330
1F
100
AcDbEntity
  8
LC-004-100-D01-0
 62
     7
370
    25
100
AcDbCircle
 10
1233.931535
 20
2009.72
 30
0.0
 40
25.0
100
AcDbArc
 50
360.0
 51
90.0
  0
LINE
  5
129
102
{ACAD_REACTORS
330
6E8
102
}
330
1F
100
AcDbEntity
  8
LC-004-100-D01-0
 62
     7
370
    25
100
AcDbLine
 10
329.931535
 20
2034.72
 30
0.0
 11
1233.931535
 21
2034.72
 31
0.0
  0
LINE
  5
12A
102
{ACAD_REACTORS
330
6E8
102
}
330
1F
100
AcDbEntity
  8
LC-004-100-D01-0
 62
     7
370
    25
100
AcDbLine
 10
1233.931535
 20
1580.72
 30
0.0
 11
329.931535
 21
1580.72
 31
0.0
  0
ARC
  5
12B
102
{ACAD_REACTORS
330
6E8
102
}
330
1F
100
AcDbEntity
  8
LC-004-100-D01-0
 62
     7
370
    25
100
AcDbCircle
 10
1233.931535
 20
1605.72
 30
0.0
 40
25.0
100
AcDbArc
 50
270.0
 51
360.0
  0
LINE
  5
12C
102
{ACAD_REACTORS
330
6E8
102
}
330
1F
100
AcDbEntity
  8
LC-004-100-D01-0
 62
     7
370
    25
100
AcDbLine
 10
1242.931535
 20
1656.72
 30
0.0
 11
1242.931535
 21
1958.72
 31
0.0
  0
ARC
  5
12D
102
{ACAD_REACTORS
330
6E8
102
}
330
1F
100
AcDbEntity
  8
LC-004-100-D01-0
 62
     7
370
    25
100
AcDbCircle
 10
1182.931535
 20
1958.72
 30
0.0
 40
60.0
100
AcDbArc
 50
0.0
 51
90.0
  0
LINE
  5
12E
102
{ACAD_REACTORS
330
6E8
102
}
330
1F
100
AcDbEntity
  8
LC-004-100-D01-0
 62
     7
370
    25
100
AcDbLine
 10
1006.931535
 20
2018.72
 30
0.0
 11
1182.931535
 21
2018.72
 31
0.0
  0
ARC
  5
12F
102
{ACAD_REACTORS
330
6E8
102
}
330
1F
100
AcDbEntity
  8
LC-004-100-D01-0
 62
     7
370
    25
100
AcDbCircle
 10
1006.931535
 20
1913.72
 30
0.0
 40
105.0
100
AcDbArc
 50
90.0
 51
180.0
  0
LINE
  5
130
102
{ACAD_REACTORS
330
6E8
102
}
330
1F
100
AcDbEntity
  8
LC-004-100-D01-0
 62
     7
370
    25
100
AcDbLine
 10
867.931535
 20
1927.92
 30
0.0
 11
867.931535
 21
1687.52
 31
0.0
  0
LINE
  5
131
102
{ACAD_REACTORS
330
6E8
102
}
330
1F
100
AcDbEntity
  8
LC-004-100-D01-0
 62
     7
370
    25
100
AcDbLine
 10
901.931535
 20
1913.72
 30
0.0
 11
901.931535
 21
1701.72
 31
0.0
  0
ARC
  5
132
102
{ACAD_REACTORS
330
6E8
102
}
330
1F
100
AcDbEntity
  8
LC-004-100-D01-0
 62
     7
370
    25
100
AcDbCircle
 10
1006.931535
 20
1701.72
 30
0.0
 40
105.0
100
AcDbArc
 50
180.0
 51
270.0
  0
LINE
  5
133
102
{ACAD_REACTORS
330
6E8
102
}
330
1F
100
AcDbEntity
  8
LC-004-100-D01-0
 62
     7
370
    25
100
AcDbLine
 10
1182.931535
 20
1596.72
 30
0.0
 11
1006.931535
 21
1596.72
 31
0.0
  0
ARC
  5
134
102
{ACAD_REACTORS
330
6E8
102
}
330
1F
100
AcDbEntity
  8
LC-004-100-D01-0
 62
     7
370
    25
100
AcDbCircle
 10
1182.931535
 20
1656.72
 30
0.0
 40
60.0
100
AcDbArc
 50
270.0
 51
0.0
  0
CIRCLE
  5
135
102
{ACAD_REACTORS
330
6E8
102
}
330
1F
100
AcDbEntity
  8
LC-004-100-D01-0
 62
     7
370
    25
100
AcDbCircle
 10
1006.931535
 20
1807.72
 30
0.0
 40
58.25
  0
CIRCLE
  5
136
102
{ACAD_REACTORS
330
6E8
102
}
330
1F
100
AcDbEntity
  8
LC-004-100-D01-0
 62
     7
370
    25
100
AcDbCircle
 10
1006.931535
 20
1807.72
 30
0.0
 40
45.0
  0
LINE
  5
137
102
{ACAD_REACTORS
330
6E8
102
}
330
1F
100
AcDbEntity
  8
LC-004-100-D01-0
 62
     7
370
    25
100
AcDbLine
 10
705.931535
 20
1927.92
 30
0.0
 11
705.931535
 21
1687.52
 31
0.0
  0
LINE
  5
138
102
{ACAD_REACTORS
330
6E8
102
}
330
1F
100
AcDbEntity
  8
LC-004-100-D01-0
 62
     7
370
    25
100
AcDbLine
 10
837.931535
 20
1957.92
 30
0.0
 11
735.931535
 21
1957.92
 31
0.0
  0
LINE
  5
139
102
{ACAD_REACTORS
330
6E8
102
}
330
1F
100
AcDbEntity
  8
LC-004-100-D01-0
 62
     7
370
    25
100
AcDbLine
 10
837.931535
 20
1657.52
 30
0.0
 11
735.931535
 21
1657.52
 31
0.0
  0
ARC
  5
13A
102
{ACAD_REACTORS
330
6E8
102
}
330
1F
100
AcDbEntity
  8
LC-004-100-D01-0
 62
     7
370
    25
100
AcDbCircle
 10
837.931535
 20
1927.92
 30
0.0
 40
30.0
100
AcDbArc
 50
0.0
 51
90.0
  0
ARC
  5
13B
102
{ACAD_REACTORS
330
6E8
102
}
330
1F
100
AcDbEntity
  8
LC-004-100-D01-0
 62
     7
370
    25
100
AcDbCircle
 10
735.931535
 20
1927.92
 30
0.0
 40
30.0
100
AcDbArc
 50
90.0
 51
180.0
  0
ARC
  5
13C
102
{ACAD_REACTORS
330
6E8
102
}
330
1F
100
AcDbEntity
  8
LC-004-100-D01-0
 62
     7
370
    25
100
AcDbCircle
 10
837.931535
 20
1687.52
 30
0.0
 40
30.0
100
AcDbArc
 50
270.0
 51
0.0
  0
ARC
  5
13D
102
{ACAD_REACTORS
330
6E8
102
}
330
1F
100
AcDbEntity
  8
LC-004-100-D01-0
 62
     7
370
    25
100
AcDbCircle
 10
735.931535
 20
1687.52
 30
0.0
 40
30.0
100
AcDbArc
 50
180.0
 51
270.0
  0
LINE
  5
13E
102
{ACAD_REACTORS
330
6E8
102
}
330
1F
100
AcDbEntity
  8
LC-004-100-D01-0
 62
     7
370
    25
100
AcDbLine
 10
316.931535
 20
1943.72
 30
0.0
 11
316.931535
 21
1935.72
 31
0.0
  0
ARC
  5
13F
102
{ACAD_REACTORS
330
6E8
102
}
330
1F
100
AcDbEntity
  8
LC-004-100-D01-0
 62
     7
370
    25
100
AcDbCircle
 10
329.931535
 20
2009.72
 30
0.0
 40
25.0
100
AcDbArc
 50
90.0
 51
180.0
  0
ARC
  5
140
102
{ACAD_REACTORS
330
6E8
102
}
330
1F
100
AcDbEntity
  8
LC-004-100-D01-0
 62
     7
370
    25
100
AcDbCircle
 10
329.931535
 20
1605.72
 30
0.0
 40
25.0
100
AcDbArc
 50
180.0
 51
270.0
  0
LINE
  5
141
102
{ACAD_REACTORS
330
6E8
102
}
330
1F
100
AcDbEntity
  8
LC-004-100-D01-0
 62
     7
370
    25
100
AcDbLine
 10
304.931535
 20
2009.72
 30
0.0
 11
304.931535
 21
1605.72
 31
0.0
  0
ARC
  5
142
102
{ACAD_REACTORS
330
6E8
102
}
330
1F
100
AcDbEntity
  8
LC-007-100-D02-0
 62
     7
370
    25
100
AcDbCircle
 10
376.931535
 20
1958.72
 30
0.0
 40
60.00000000000022
100
AcDbArc
 50
170.91528
 51
178.994759
  0
ARC
  5
143
102
{ACAD_REACTORS
330
6E8
102
}
330
1F
100
AcDbEntity
  8
LC-007-100-D02-0
 62
     7
370
    25
100
AcDbCircle
 10
645.051975
 20
2007.72
 30
0.0
 40
3.000000000000227
100
AcDbArc
 50
270.0
 51
59.277209
  0
LINE
  5
144
102
{ACAD_REACTORS
330
6E8
102
}
330
1F
100
AcDbEntity
  8
LC-004-100-D01-0
 62
     7
370
    25
100
AcDbLine
 10
347.811096
 20
2004.72
 30
0.0
 11
645.051975
 21
2004.72
 31
0.0
  0
LINE
  5
145
102
{ACAD_REACTORS
330
6E8
102
}
330
1F
100
AcDbEntity
  8
LC-004-100-D01-0
 62
     7
370
    25
100
AcDbLine
 10
615.931535
 20
2018.72
 30
0.0
 11
376.931535
 21
2018.72
 31
0.0
  0
ARC
  5
146
102
{ACAD_REACTORS
330
6E8
102
}
330
1F
100
AcDbEntity
  8
LC-007-100-D02-0
 62
     7
370
    25
100
AcDbCircle
 10
376.931535
 20
1958.72
 30
0.0
 40
60.00000000000009
100
AcDbArc
 50
144.62346
 51
153.985634
  0
ARC
  5
148
102
{ACAD_REACTORS
330
6E8
102
}
330
1F
100
AcDbEntity
  8
LC-008-100-D07-0
 62
     7
370
    25
100
AcDbCircle
 10
615.931535
 20
1958.72
 30
0.0
 40
60.00000000000002
100
AcDbArc
 50
26.014366
 51
35.37654
  0
ARC
  5
149
102
{ACAD_REACTORS
330
6E8
102
}
330
1F
100
AcDbEntity
  8
LC-007-100-D02-0
 62
     7
370
    25
100
AcDbCircle
 10
662.407335
 20
1991.72
 30
0.0
 40
2.999999999999964
100
AcDbArc
 50
35.37654
 51
90.0
  0
ARC
  5
14A
102
{ACAD_REACTORS
330
6E8
102
}
330
1F
100
AcDbEntity
  8
LC-008-100-D07-0
 62
     7
370
    25
100
AcDbCircle
 10
667.156529
 20
1983.72
 30
0.0
 40
3.0
100
AcDbArc
 50
270.0
 51
26.014366
  0
LINE
  5
14B
102
{ACAD_REACTORS
330
6E8
102
}
330
1F
100
AcDbEntity
  8
LC-004-100-D01-0
 62
     7
370
    25
100
AcDbLine
 10
325.706541
 20
1980.72
 30
0.0
 11
667.156529
 21
1980.72
 31
0.0
  0
LINE
  5
14C
102
{ACAD_REACTORS
330
6E8
102
}
330
1F
100
AcDbEntity
  8
LC-004-100-D01-0
 62
     7
370
    25
100
AcDbLine
 10
330.455735
 20
1994.72
 30
0.0
 11
662.407335
 21
1994.72
 31
0.0
  0
LINE
  5
14D
102
{ACAD_REACTORS
330
6E8
102
}
330
1F
100
AcDbEntity
  8
LC-004-100-D01-0
 62
     7
370
    25
100
AcDbLine
 10
316.931535
 20
1919.72
 30
0.0
 11
316.931535
 21
1911.72
 31
0.0
  0
ARC
  5
14E
102
{ACAD_REACTORS
330
6E8
102
}
330
1F
100
AcDbEntity
  8
LC-007-100-D02-0
 62
     7
370
    25
100
AcDbCircle
 10
347.811096
 20
2007.72
 30
0.0
 40
2.999999999999958
100
AcDbArc
 50
120.722791
 51
270.0
  0
ARC
  5
14F
102
{ACAD_REACTORS
330
6E8
102
}
330
1F
100
AcDbEntity
  8
LC-007-100-D02-0
 62
     7
370
    25
100
AcDbCircle
 10
330.455735
 20
1991.72
 30
0.0
 40
3.0
100
AcDbArc
 50
90.0
 51
144.62346
  0
ARC
  5
150
102
{ACAD_REACTORS
330
6E8
102
}
330
1F
100
AcDbEntity
  8
LC-008-100-D07-0
 62
     7
370
    25
100
AcDbCircle
 10
615.931535
 20
1958.72
 30
0.0
 40
60.00000000000031
100
AcDbArc
 50
1.005241
 51
9.08472
  0
ARC
  5
151
102
{ACAD_REACTORS
330
6E8
102
}
330
1F
100
AcDbEntity
  8
LC-007-100-D02-0
 62
     7
370
    25
100
AcDbCircle
 10
672.216524
 20
1967.72
 30
0.0
 40
3.000000000000008
100
AcDbArc
 50
9.08472
 51
90.0
  0
ARC
  5
152
102
{ACAD_REACTORS
330
6E8
102
}
330
1F
100
AcDbEntity
  8
LC-007-100-D02-0
 62
     7
370
    25
100
AcDbCircle
 10
672.922763
 20
1959.72
 30
0.0
 40
3.000000000000227
100
AcDbArc
 50
270.0
 51
1.005241
  0
ARC
  5
153
102
{ACAD_REACTORS
330
6E8
102
}
330
1F
100
AcDbEntity
  8
LC-004-100-D01-0
 62
     7
370
    25
100
AcDbCircle
 10
672.931535
 20
1911.72
 30
0.0
 40
3.0
100
AcDbArc
 50
270.0
 51
0.0
  0
LINE
  5
154
102
{ACAD_REACTORS
330
6E8
102
}
330
1F
100
AcDbEntity
  8
LC-004-100-D01-0
 62
     7
370
    25
100
AcDbLine
 10
675.931535
 20
1911.72
 30
0.0
 11
675.931535
 21
1919.72
 31
0.0
  0
ARC
  5
155
102
{ACAD_REACTORS
330
6E8
102
}
330
1F
100
AcDbEntity
  8
LC-004-100-D01-0
 62
     7
370
    25
100
AcDbCircle
 10
672.931535
 20
1919.72
 30
0.0
 40
3.0
100
AcDbArc
 50
0.0
 51
90.0
  0
ARC
  5
156
102
{ACAD_REACTORS
330
6E8
102
}
330
1F
100
AcDbEntity
  8
LC-004-100-D01-0
 62
     7
370
    25
100
AcDbCircle
 10
672.931535
 20
1887.72
 30
0.0
 40
3.0
100
AcDbArc
 50
270.0
 51
0.0
  0
LINE
  5
157
102
{ACAD_REACTORS
330
6E8
102
}
330
1F
100
AcDbEntity
  8
LC-004-100-D01-0
 62
     7
370
    25
100
AcDbLine
 10
675.931535
 20
1887.72
 30
0.0
 11
675.931535
 21
1895.72
 31
0.0
  0
ARC
  5
158
102
{ACAD_REACTORS
330
6E8
102
}
330
1F
100
AcDbEntity
  8
LC-004-100-D01-0
 62
     7
370
    25
100
AcDbCircle
 10
672.931535
 20
1895.72
 30
0.0
 40
3.0
100
AcDbArc
 50
0.0
 51
90.0
  0
ARC
  5
159
102
{ACAD_REACTORS
330
6E8
102
}
330
1F
100
AcDbEntity
  8
LC-004-100-D01-0
 62
     7
370
    25
100
AcDbCircle
 10
672.931535
 20
1863.72
 30
0.0
 40
3.0
100
AcDbArc
 50
270.0
 51
0.0
  0
LINE
  5
15A
102
{ACAD_REACTORS
330
6E8
102
}
330
1F
100
AcDbEntity
  8
LC-004-100-D01-0
 62
     7
370
    25
100
AcDbLine
 10
675.931535
 20
1863.72
 30
0.0
 11
675.931535
 21
1871.72
 31
0.0
  0
ARC
  5
15B
102
{ACAD_REACTORS
330
6E8
102
}
330
1F
100
AcDbEntity
  8
LC-004-100-D01-0
 62
     7
370
    25
100
AcDbCircle
 10
672.931535
 20
1871.72
 30
0.0
 40
3.0
100
AcDbArc
 50
0.0
 51
90.0
  0
ARC
  5
15C
102
{ACAD_REACTORS
330
6E8
102
}
330
1F
100
AcDbEntity
  8
LC-004-100-D01-0
 62
     7
370
    25
100
AcDbCircle
 10
672.931535
 20
1935.72
 30
0.0
 40
3.0
100
AcDbArc
 50
270.0
 51
0.0
  0
LINE
  5
15D
102
{ACAD_REACTORS
330
6E8
102
}
330
1F
100
AcDbEntity
  8
LC-004-100-D01-0
 62
     7
370
    25
100
AcDbLine
 10
675.931535
 20
1935.72
 30
0.0
 11
675.931535
 21
1943.72
 31
0.0
  0
ARC
  5
15E
102
{ACAD_REACTORS
330
6E8
102
}
330
1F
100
AcDbEntity
  8
LC-004-100-D01-0
 62
     7
370
    25
100
AcDbCircle
 10
672.931535
 20
1943.72
 30
0.0
 40
3.0
100
AcDbArc
 50
0.0
 51
90.0
  0
LINE
  5
15F
102
{ACAD_REACTORS
330
6E8
102
}
330
1F
100
AcDbEntity
  8
LC-004-100-D01-0
 62
     7
370
    25
100
AcDbLine
 10
319.931535
 20
1908.72
 30
0.0
 11
672.931535
 21
1908.72
 31
0.0
  0
LINE
  5
160
102
{ACAD_REACTORS
330
6E8
102
}
330
1F
100
AcDbEntity
  8
LC-004-100-D01-0
 62
     7
370
    25
100
AcDbLine
 10
319.931535
 20
1922.72
 30
0.0
 11
672.931535
 21
1922.72
 31
0.0
  0
LINE
  5
161
102
{ACAD_REACTORS
330
6E8
102
}
330
1F
100
AcDbEntity
  8
LC-004-100-D01-0
 62
     7
370
    25
100
AcDbLine
 10
319.931535
 20
1884.72
 30
0.0
 11
672.931535
 21
1884.72
 31
0.0
  0
LINE
  5
162
102
{ACAD_REACTORS
330
6E8
102
}
330
1F
100
AcDbEntity
  8
LC-004-100-D01-0
 62
     7
370
    25
100
AcDbLine
 10
319.931535
 20
1898.72
 30
0.0
 11
672.931535
 21
1898.72
 31
0.0
  0
LINE
  5
163
102
{ACAD_REACTORS
330
6E8
102
}
330
1F
100
AcDbEntity
  8
LC-004-100-D01-0
 62
     7
370
    25
100
AcDbLine
 10
319.931535
 20
1860.72
 30
0.0
 11
672.931535
 21
1860.72
 31
0.0
  0
LINE
  5
164
102
{ACAD_REACTORS
330
6E8
102
}
330
1F
100
AcDbEntity
  8
LC-004-100-D01-0
 62
     7
370
    25
100
AcDbLine
 10
319.931535
 20
1874.72
 30
0.0
 11
672.931535
 21
1874.72
 31
0.0
  0
LINE
  5
165
102
{ACAD_REACTORS
330
6E8
102
}
330
1F
100
AcDbEntity
  8
LC-004-100-D01-0
 62
     7
370
    25
100
AcDbLine
 10
320.646546
 20
1970.72
 30
0.0
 11
672.216524
 21
1970.72
 31
0.0
  0
LINE
  5
166
102
{ACAD_REACTORS
330
6E8
102
}
330
1F
100
AcDbEntity
  8
LC-004-100-D01-0
 62
     7
370
    25
100
AcDbLine
 10
319.931535
 20
1932.72
 30
0.0
 11
672.931535
 21
1932.72
 31
0.0
  0
LINE
  5
167
102
{ACAD_REACTORS
330
6E8
102
}
330
1F
100
AcDbEntity
  8
LC-004-100-D01-0
 62
     7
370
    25
100
AcDbLine
 10
319.931535
 20
1946.72
 30
0.0
 11
672.931535
 21
1946.72
 31
0.0
  0
LINE
  5
168
102
{ACAD_REACTORS
330
6E8
102
}
330
1F
100
AcDbEntity
  8
LC-004-100-D01-0
 62
     7
370
    25
100
AcDbLine
 10
319.940308
 20
1956.72
 30
0.0
 11
672.922763
 21
1956.72
 31
0.0
  0
ARC
  5
169
102
{ACAD_REACTORS
330
6E8
102
}
330
1F
100
AcDbEntity
  8
LC-004-100-D01-0
 62
     7
370
    25
100
AcDbCircle
 10
672.931535
 20
1839.72
 30
0.0
 40
3.0
100
AcDbArc
 50
270.0
 51
0.0
  0
LINE
  5
16A
102
{ACAD_REACTORS
330
6E8
102
}
330
1F
100
AcDbEntity
  8
LC-004-100-D01-0
 62
     7
370
    25
100
AcDbLine
 10
675.931535
 20
1839.72
 30
0.0
 11
675.931535
 21
1847.72
 31
0.0
  0
ARC
  5
16B
102
{ACAD_REACTORS
330
6E8
102
}
330
1F
100
AcDbEntity
  8
LC-004-100-D01-0
 62
     7
370
    25
100
AcDbCircle
 10
672.931535
 20
1847.72
 30
0.0
 40
3.0
100
AcDbArc
 50
0.0
 51
90.0
  0
ARC
  5
16C
102
{ACAD_REACTORS
330
6E8
102
}
330
1F
100
AcDbEntity
  8
LC-004-100-D01-0
 62
     7
370
    25
100
AcDbCircle
 10
672.931535
 20
1815.72
 30
0.0
 40
3.0
100
AcDbArc
 50
270.0
 51
0.0
  0
LINE
  5
16D
102
{ACAD_REACTORS
330
6E8
102
}
330
1F
100
AcDbEntity
  8
LC-004-100-D01-0
 62
     7
370
    25
100
AcDbLine
 10
675.931535
 20
1815.72
 30
0.0
 11
675.931535
 21
1823.72
 31
0.0
  0
ARC
  5
16E
102
{ACAD_REACTORS
330
6E8
102
}
330
1F
100
AcDbEntity
  8
LC-004-100-D01-0
 62
     7
370
    25
100
AcDbCircle
 10
672.931535
 20
1823.72
 30
0.0
 40
3.0
100
AcDbArc
 50
0.0
 51
90.0
  0
LINE
  5
16F
102
{ACAD_REACTORS
330
6E8
102
}
330
1F
100
AcDbEntity
  8
LC-004-100-D01-0
 62
     7
370
    25
100
AcDbLine
 10
319.931535
 20
1836.72
 30
0.0
 11
672.931535
 21
1836.72
 31
0.0
  0
LINE
  5
170
102
{ACAD_REACTORS
330
6E8
102
}
330
1F
100
AcDbEntity
  8
LC-004-100-D01-0
 62
     7
370
    25
100
AcDbLine
 10
319.931535
 20
1812.72
 30
0.0
 11
672.931535
 21
1812.72
 31
0.0
  0
LINE
  5
171
102
{ACAD_REACTORS
330
6E8
102
}
330
1F
100
AcDbEntity
  8
LC-004-100-D01-0
 62
     7
370
    25
100
AcDbLine
 10
319.931535
 20
1826.72
 30
0.0
 11
672.931535
 21
1826.72
 31
0.0
  0
LINE
  5
172
102
{ACAD_REACTORS
330
6E8
102
}
330
1F
100
AcDbEntity
  8
LC-004-100-D01-0
 62
     7
370
    25
100
AcDbLine
 10
319.931535
 20
1850.72
 30
0.0
 11
672.931535
 21
1850.72
 31
0.0
  0
ARC
  5
173
102
{ACAD_REACTORS
330
6E8
102
}
330
1F
100
AcDbEntity
  8
LC-007-100-D02-0
 62
     7
370
    25
100
AcDbCircle
 10
325.706541
 20
1983.72
 30
0.0
 40
3.000000000000022
100
AcDbArc
 50
153.985634
 51
270.0
  0
ARC
  5
174
102
{ACAD_REACTORS
330
6E8
102
}
330
1F
100
AcDbEntity
  8
LC-007-100-D02-0
 62
     7
370
    25
100
AcDbCircle
 10
320.646546
 20
1967.72
 30
0.0
 40
3.0
100
AcDbArc
 50
90.0
 51
170.91528
  0
ARC
  5
175
102
{ACAD_REACTORS
330
6E8
102
}
330
1F
100
AcDbEntity
  8
LC-007-100-D02-0
 62
     7
370
    25
100
AcDbCircle
 10
319.940308
 20
1959.72
 30
0.0
 40
3.000000000000001
100
AcDbArc
 50
178.994759
 51
270.0
  0
LINE
  5
176
102
{ACAD_REACTORS
330
6E8
102
}
330
1F
100
AcDbEntity
  8
LC-004-100-D01-0
 62
     7
370
    25
100
AcDbLine
 10
316.931535
 20
1895.72
 30
0.0
 11
316.931535
 21
1887.72
 31
0.0
  0
LINE
  5
177
102
{ACAD_REACTORS
330
6E8
102
}
330
1F
100
AcDbEntity
  8
LC-004-100-D01-0
 62
     7
370
    25
100
AcDbLine
 10
316.931535
 20
1871.72
 30
0.0
 11
316.931535
 21
1863.72
 31
0.0
  0
LINE
  5
178
102
{ACAD_REACTORS
330
6E8
102
}
330
1F
100
AcDbEntity
  8
LC-004-100-D01-0
 62
     7
370
    25
100
AcDbLine
 10
316.931535
 20
1823.72
 30
0.0
 11
316.931535
 21
1815.72
 31
0.0
  0
LINE
  5
179
102
{ACAD_REACTORS
330
6E8
102
}
330
1F
100
AcDbEntity
  8
LC-004-100-D01-0
 62
     7
370
    25
100
AcDbLine
 10
316.931535
 20
1847.72
 30
0.0
 11
316.931535
 21
1839.72
 31
0.0
  0
ARC
  5
17A
102
{ACAD_REACTORS
330
6E8
102
}
330
1F
100
AcDbEntity
  8
LC-007-100-D02-0
 62
     7
370
    25
100
AcDbCircle
 10
319.931535
 20
1943.72
 30
0.0
 40
3.0
100
AcDbArc
 50
90.0
 51
180.0
  0
ARC
  5
17B
102
{ACAD_REACTORS
330
6E8
102
}
330
1F
100
AcDbEntity
  8
LC-007-100-D02-0
 62
     7
370
    25
100
AcDbCircle
 10
319.931535
 20
1935.72
 30
0.0
 40
3.0
100
AcDbArc
 50
180.0
 51
270.0
  0
ARC
  5
17C
102
{ACAD_REACTORS
330
6E8
102
}
330
1F
100
AcDbEntity
  8
LC-007-100-D02-0
 62
     7
370
    25
100
AcDbCircle
 10
319.931535
 20
1919.72
 30
0.0
 40
3.0
100
AcDbArc
 50
90.0
 51
180.0
  0
ARC
  5
17D
102
{ACAD_REACTORS
330
6E8
102
}
330
1F
100
AcDbEntity
  8
LC-007-100-D02-0
 62
     7
370
    25
100
AcDbCircle
 10
319.931535
 20
1911.72
 30
0.0
 40
3.0
100
AcDbArc
 50
180.0
 51
270.0
  0
ARC
  5
17E
102
{ACAD_REACTORS
330
6E8
102
}
330
1F
100
AcDbEntity
  8
LC-007-100-D02-0
 62
     7
370
    25
100
AcDbCircle
 10
319.931535
 20
1895.72
 30
0.0
 40
3.0
100
AcDbArc
 50
90.0
 51
180.0
  0
ARC
  5
17F
102
{ACAD_REACTORS
330
6E8
102
}
330
1F
100
AcDbEntity
  8
LC-007-100-D02-0
 62
     7
370
    25
100
AcDbCircle
 10
319.931535
 20
1887.72
 30
0.0
 40
3.0
100
AcDbArc
 50
180.0
 51
270.0
  0
ARC
  5
180
102
{ACAD_REACTORS
330
6E8
102
}
330
1F
100
AcDbEntity
  8
LC-007-100-D02-0
 62
     7
370
    25
100
AcDbCircle
 10
319.931535
 20
1871.72
 30
0.0
 40
3.0
100
AcDbArc
 50
90.0
 51
180.0
  0
ARC
  5
181
102
{ACAD_REACTORS
330
6E8
102
}
330
1F
100
AcDbEntity
  8
LC-007-100-D02-0
 62
     7
370
    25
100
AcDbCircle
 10
319.931535
 20
1863.72
 30
0.0
 40
3.0
100
AcDbArc
 50
180.0
 51
270.0
  0
ARC
  5
182
102
{ACAD_REACTORS
330
6E8
102
}
330
1F
100
AcDbEntity
  8
LC-007-100-D02-0
 62
     7
370
    25
100
AcDbCircle
 10
319.931535
 20
1847.72
 30
0.0
 40
3.0
100
AcDbArc
 50
90.0
 51
180.0
  0
ARC
  5
183
102
{ACAD_REACTORS
330
6E8
102
}
330
1F
100
AcDbEntity
  8
LC-007-100-D02-0
 62
     7
370
    25
100
AcDbCircle
 10
319.931535
 20
1839.72
 30
0.0
 40
3.0
100
AcDbArc
 50
180.0
 51
270.0
  0
ARC
  5
184
102
{ACAD_REACTORS
330
6E8
102
}
330
1F
100
AcDbEntity
  8
LC-007-100-D02-0
 62
     7
370
    25
100
AcDbCircle
 10
319.931535
 20
1823.72
 30
0.0
 40
3.0
100
AcDbArc
 50
90.0
 51
180.0
  0
ARC
  5
185
102
{ACAD_REACTORS
330
6E8
102
}
330
1F
100
AcDbEntity
  8
LC-007-100-D02-0
 62
     7
370
    25
100
AcDbCircle
 10
319.931535
 20
1815.72
 30
0.0
 40
3.0
100
AcDbArc
 50
180.0
 51
270.0
  0
CIRCLE
  5
186
102
{ACAD_REACTORS
330
6E8
102
}
330
1F
100
AcDbEntity
  8
LC-004-100-D01-0
  6
DASHED
 62
     7
370
    25
100
AcDbCircle
 10
878.931535
 20
1991.22
 30
0.0
 40
17.5
  0
LINE
  5
187
102
{ACAD_REACTORS
330
6E8
102
}
330
1F
100
AcDbEntity
  8
LC-004-100-D01-0
 62
     7
370
    25
100
AcDbLine
 10
316.931535
 20
1671.72
 30
0.0
 11
316.931535
 21
1679.72
 31
0.0
  0
ARC
  5
188
102
{ACAD_REACTORS
330
6E8
102
}
330
1F
100
AcDbEntity
  8
LC-007-100-D02-0
 62
     7
370
    25
100
AcDbCircle
 10
615.931535
 20
1656.72
 30
0.0
 40
60.00000000000046
100
AcDbArc
 50
270.0
 51
300.722791
  0
ARC
  5
189
102
{ACAD_REACTORS
330
6E8
102
}
330
1F
100
AcDbEntity
  8
LC-007-100-D02-0
 62
     7
370
    25
100
AcDbCircle
 10
376.931535
 20
1656.72
 30
0.0
 40
60.00000000000003
100
AcDbArc
 50
181.005241
 51
189.08472
  0
ARC
  5
18A
102
{ACAD_REACTORS
330
6E8
102
}
330
1F
100
AcDbEntity
  8
LC-007-100-D02-0
 62
     7
370
    25
100
AcDbCircle
 10
645.051975
 20
1607.72
 30
0.0
 40
2.999999999999958
100
AcDbArc
 50
300.722791
 51
90.0
  0
LINE
  5
18B
102
{ACAD_REACTORS
330
6E8
102
}
330
1F
100
AcDbEntity
  8
LC-004-100-D01-0
 62
     7
370
    25
100
AcDbLine
 10
347.811096
 20
1610.72
 30
0.0
 11
645.051975
 21
1610.72
 31
0.0
  0
LINE
  5
18C
102
{ACAD_REACTORS
330
6E8
102
}
330
1F
100
AcDbEntity
  8
LC-004-100-D01-0
 62
     7
370
    25
100
AcDbLine
 10
615.931535
 20
1596.72
 30
0.0
 11
376.931535
 21
1596.72
 31
0.0
  0
ARC
  5
18D
102
{ACAD_REACTORS
330
6E8
102
}
330
1F
100
AcDbEntity
  8
LC-007-100-D02-0
 62
     7
370
    25
100
AcDbCircle
 10
376.931535
 20
1656.72
 30
0.0
 40
60.00000000000005
100
AcDbArc
 50
239.277209
 51
270.0
  0
ARC
  5
18E
102
{ACAD_REACTORS
330
6E8
102
}
330
1F
100
AcDbEntity
  8
LC-007-100-D02-0
 62
     7
370
    25
100
AcDbCircle
 10
376.931535
 20
1656.72
 30
0.0
 40
60.00000000000018
100
AcDbArc
 50
206.014366
 51
215.37654
  0
ARC
  5
18F
102
{ACAD_REACTORS
330
6E8
102
}
330
1F
100
AcDbEntity
  8
LC-008-100-D07-0
 62
     7
370
    25
100
AcDbCircle
 10
615.931535
 20
1656.72
 30
0.0
 40
60.00000000000054
100
AcDbArc
 50
324.62346
 51
333.985634
  0
ARC
  5
190
102
{ACAD_REACTORS
330
6E8
102
}
330
1F
100
AcDbEntity
  8
LC-007-100-D02-0
 62
     7
370
    25
100
AcDbCircle
 10
662.407335
 20
1623.72
 30
0.0
 40
3.000000000000227
100
AcDbArc
 50
270.0
 51
324.62346
  0
ARC
  5
191
102
{ACAD_REACTORS
330
6E8
102
}
330
1F
100
AcDbEntity
  8
LC-008-100-D07-0
 62
     7
370
    25
100
AcDbCircle
 10
667.156529
 20
1631.72
 30
0.0
 40
3.000000000000022
100
AcDbArc
 50
333.985634
 51
90.0
  0
LINE
  5
192
102
{ACAD_REACTORS
330
6E8
102
}
330
1F
100
AcDbEntity
  8
LC-004-100-D01-0
 62
     7
370
    25
100
AcDbLine
 10
325.706541
 20
1634.72
 30
0.0
 11
667.156529
 21
1634.72
 31
0.0
  0
LINE
  5
193
102
{ACAD_REACTORS
330
6E8
102
}
330
1F
100
AcDbEntity
  8
LC-004-100-D01-0
 62
     7
370
    25
100
AcDbLine
 10
330.455735
 20
1620.72
 30
0.0
 11
662.407335
 21
1620.72
 31
0.0
  0
LINE
  5
194
102
{ACAD_REACTORS
330
6E8
102
}
330
1F
100
AcDbEntity
  8
LC-004-100-D01-0
 62
     7
370
    25
100
AcDbLine
 10
316.931535
 20
1695.72
 30
0.0
 11
316.931535
 21
1703.72
 31
0.0
  0
ARC
  5
195
102
{ACAD_REACTORS
330
6E8
102
}
330
1F
100
AcDbEntity
  8
LC-007-100-D02-0
 62
     7
370
    25
100
AcDbCircle
 10
347.811096
 20
1607.72
 30
0.0
 40
3.0
100
AcDbArc
 50
90.0
 51
239.277209
  0
ARC
  5
196
102
{ACAD_REACTORS
330
6E8
102
}
330
1F
100
AcDbEntity
  8
LC-007-100-D02-0
 62
     7
370
    25
100
AcDbCircle
 10
330.455735
 20
1623.72
 30
0.0
 40
2.999999999999971
100
AcDbArc
 50
215.37654
 51
270.0
  0
ARC
  5
197
102
{ACAD_REACTORS
330
6E8
102
}
330
1F
100
AcDbEntity
  8
LC-008-100-D07-0
 62
     7
370
    25
100
AcDbCircle
 10
615.931535
 20
1656.72
 30
0.0
 40
60.00000000000065
100
AcDbArc
 50
350.91528
 51
358.994759
  0
ARC
  5
198
102
{ACAD_REACTORS
330
6E8
102
}
330
1F
100
AcDbEntity
  8
LC-007-100-D02-0
 62
     7
370
    25
100
AcDbCircle
 10
672.216524
 20
1647.72
 30
0.0
 40
3.0
100
AcDbArc
 50
270.0
 51
350.91528
  0
ARC
  5
199
102
{ACAD_REACTORS
330
6E8
102
}
330
1F
100
AcDbEntity
  8
LC-007-100-D02-0
 62
     7
370
    25
100
AcDbCircle
 10
672.922763
 20
1655.72
 30
0.0
 40
2.999999999999944
100
AcDbArc
 50
358.994759
 51
90.0
  0
ARC
  5
19A
102
{ACAD_REACTORS
330
6E8
102
}
330
1F
100
AcDbEntity
  8
LC-004-100-D01-0
 62
     7
370
    25
100
AcDbCircle
 10
672.931535
 20
1703.72
 30
0.0
 40
3.0
100
AcDbArc
 50
0.0
 51
90.0
  0
LINE
  5
19B
102
{ACAD_REACTORS
330
6E8
102
}
330
1F
100
AcDbEntity
  8
LC-004-100-D01-0
 62
     7
370
    25
100
AcDbLine
 10
675.931535
 20
1703.72
 30
0.0
 11
675.931535
 21
1695.72
 31
0.0
  0
ARC
  5
19C
102
{ACAD_REACTORS
330
6E8
102
}
330
1F
100
AcDbEntity
  8
LC-004-100-D01-0
 62
     7
370
    25
100
AcDbCircle
 10
672.931535
 20
1695.72
 30
0.0
 40
3.0
100
AcDbArc
 50
270.0
 51
0.0
  0
ARC
  5
19D
102
{ACAD_REACTORS
330
6E8
102
}
330
1F
100
AcDbEntity
  8
LC-004-100-D01-0
 62
     7
370
    25
100
AcDbCircle
 10
672.931535
 20
1727.72
 30
0.0
 40
3.0
100
AcDbArc
 50
0.0
 51
90.0
  0
LINE
  5
19E
102
{ACAD_REACTORS
330
6E8
102
}
330
1F
100
AcDbEntity
  8
LC-004-100-D01-0
 62
     7
370
    25
100
AcDbLine
 10
675.931535
 20
1727.72
 30
0.0
 11
675.931535
 21
1719.72
 31
0.0
  0
ARC
  5
19F
102
{ACAD_REACTORS
330
6E8
102
}
330
1F
100
AcDbEntity
  8
LC-004-100-D01-0
 62
     7
370
    25
100
AcDbCircle
 10
672.931535
 20
1719.72
 30
0.0
 40
3.0
100
AcDbArc
 50
270.0
 51
0.0
  0
ARC
  5
1A0
102
{ACAD_REACTORS
330
6E8
102
}
330
1F
100
AcDbEntity
  8
LC-004-100-D01-0
 62
     7
370
    25
100
AcDbCircle
 10
672.931535
 20
1751.72
 30
0.0
 40
3.0
100
AcDbArc
 50
0.0
 51
90.0
  0
LINE
  5
1A1
102
{ACAD_REACTORS
330
6E8
102
}
330
1F
100
AcDbEntity
  8
LC-004-100-D01-0
 62
     7
370
    25
100
AcDbLine
 10
675.931535
 20
1751.72
 30
0.0
 11
675.931535
 21
1743.72
 31
0.0
  0
ARC
  5
1A2
102
{ACAD_REACTORS
330
6E8
102
}
330
1F
100
AcDbEntity
  8
LC-004-100-D01-0
 62
     7
370
    25
100
AcDbCircle
 10
672.931535
 20
1743.72
 30
0.0
 40
3.0
100
AcDbArc
 50
270.0
 51
0.0
  0
ARC
  5
1A3
102
{ACAD_REACTORS
330
6E8
102
}
330
1F
100
AcDbEntity
  8
LC-004-100-D01-0
 62
     7
370
    25
100
AcDbCircle
 10
672.931535
 20
1679.72
 30
0.0
 40
3.0
100
AcDbArc
 50
0.0
 51
90.0
  0
LINE
  5
1A4
102
{ACAD_REACTORS
330
6E8
102
}
330
1F
100
AcDbEntity
  8
LC-004-100-D01-0
 62
     7
370
    25
100
AcDbLine
 10
675.931535
 20
1679.72
 30
0.0
 11
675.931535
 21
1671.72
 31
0.0
  0
ARC
  5
1A5
102
{ACAD_REACTORS
330
6E8
102
}
330
1F
100
AcDbEntity
  8
LC-004-100-D01-0
 62
     7
370
    25
100
AcDbCircle
 10
672.931535
 20
1671.72
 30
0.0
 40
3.0
100
AcDbArc
 50
270.0
 51
0.0
  0
LINE
  5
1A6
102
{ACAD_REACTORS
330
6E8
102
}
330
1F
100
AcDbEntity
  8
LC-004-100-D01-0
 62
     7
370
    25
100
AcDbLine
 10
319.931535
 20
1706.72
 30
0.0
 11
672.931535
 21
1706.72
 31
0.0
  0
LINE
  5
1A7
102
{ACAD_REACTORS
330
6E8
102
}
330
1F
100
AcDbEntity
  8
LC-004-100-D01-0
 62
     7
370
    25
100
AcDbLine
 10
319.931535
 20
1692.72
 30
0.0
 11
672.931535
 21
1692.72
 31
0.0
  0
LINE
  5
1A8
102
{ACAD_REACTORS
330
6E8
102
}
330
1F
100
AcDbEntity
  8
LC-004-100-D01-0
 62
     7
370
    25
100
AcDbLine
 10
319.931535
 20
1730.72
 30
0.0
 11
672.931535
 21
1730.72
 31
0.0
  0
LINE
  5
1A9
102
{ACAD_REACTORS
330
6E8
102
}
330
1F
100
AcDbEntity
  8
LC-004-100-D01-0
 62
     7
370
    25
100
AcDbLine
 10
319.931535
 20
1716.72
 30
0.0
 11
672.931535
 21
1716.72
 31
0.0
  0
LINE
  5
1AA
102
{ACAD_REACTORS
330
6E8
102
}
330
1F
100
AcDbEntity
  8
LC-004-100-D01-0
 62
     7
370
    25
100
AcDbLine
 10
319.931535
 20
1754.72
 30
0.0
 11
672.931535
 21
1754.72
 31
0.0
  0
LINE
  5
1AB
102
{ACAD_REACTORS
330
6E8
102
}
330
1F
100
AcDbEntity
  8
LC-004-100-D01-0
 62
     7
370
    25
100
AcDbLine
 10
319.931535
 20
1740.72
 30
0.0
 11
672.931535
 21
1740.72
 31
0.0
  0
LINE
  5
1AC
102
{ACAD_REACTORS
330
6E8
102
}
330
1F
100
AcDbEntity
  8
LC-004-100-D01-0
 62
     7
370
    25
100
AcDbLine
 10
320.646546
 20
1644.72
 30
0.0
 11
672.216524
 21
1644.72
 31
0.0
  0
LINE
  5
1AD
102
{ACAD_REACTORS
330
6E8
102
}
330
1F
100
AcDbEntity
  8
LC-004-100-D01-0
 62
     7
370
    25
100
AcDbLine
 10
319.931535
 20
1682.72
 30
0.0
 11
672.931535
 21
1682.72
 31
0.0
  0
LINE
  5
1AE
102
{ACAD_REACTORS
330
6E8
102
}
330
1F
100
AcDbEntity
  8
LC-004-100-D01-0
 62
     7
370
    25
100
AcDbLine
 10
319.931535
 20
1668.72
 30
0.0
 11
672.931535
 21
1668.72
 31
0.0
  0
LINE
  5
1AF
102
{ACAD_REACTORS
330
6E8
102
}
330
1F
100
AcDbEntity
  8
LC-004-100-D01-0
 62
     7
370
    25
100
AcDbLine
 10
319.940308
 20
1658.72
 30
0.0
 11
672.922763
 21
1658.72
 31
0.0
  0
ARC
  5
1B0
102
{ACAD_REACTORS
330
6E8
102
}
330
1F
100
AcDbEntity
  8
LC-004-100-D01-0
 62
     7
370
    25
100
AcDbCircle
 10
672.931535
 20
1775.72
 30
0.0
 40
3.0
100
AcDbArc
 50
0.0
 51
90.0
  0
LINE
  5
1B1
102
{ACAD_REACTORS
330
6E8
102
}
330
1F
100
AcDbEntity
  8
LC-004-100-D01-0
 62
     7
370
    25
100
AcDbLine
 10
675.931535
 20
1775.72
 30
0.0
 11
675.931535
 21
1767.72
 31
0.0
  0
ARC
  5
1B2
102
{ACAD_REACTORS
330
6E8
102
}
330
1F
100
AcDbEntity
  8
LC-004-100-D01-0
 62
     7
370
    25
100
AcDbCircle
 10
672.931535
 20
1767.72
 30
0.0
 40
3.0
100
AcDbArc
 50
270.0
 51
0.0
  0
ARC
  5
1B3
102
{ACAD_REACTORS
330
6E8
102
}
330
1F
100
AcDbEntity
  8
LC-004-100-D01-0
 62
     7
370
    25
100
AcDbCircle
 10
672.931535
 20
1799.72
 30
0.0
 40
3.0
100
AcDbArc
 50
0.0
 51
90.0
  0
LINE
  5
1B4
102
{ACAD_REACTORS
330
6E8
102
}
330
1F
100
AcDbEntity
  8
LC-004-100-D01-0
 62
     7
370
    25
100
AcDbLine
 10
675.931535
 20
1799.72
 30
0.0
 11
675.931535
 21
1791.72
 31
0.0
  0
ARC
  5
1B5
102
{ACAD_REACTORS
330
6E8
102
}
330
1F
100
AcDbEntity
  8
LC-004-100-D01-0
 62
     7
370
    25
100
AcDbCircle
 10
672.931535
 20
1791.72
 30
0.0
 40
3.0
100
AcDbArc
 50
270.0
 51
0.0
  0
LINE
  5
1B6
102
{ACAD_REACTORS
330
6E8
102
}
330
1F
100
AcDbEntity
  8
LC-004-100-D01-0
 62
     7
370
    25
100
AcDbLine
 10
319.931535
 20
1778.72
 30
0.0
 11
672.931535
 21
1778.72
 31
0.0
  0
LINE
  5
1B7
102
{ACAD_REACTORS
330
6E8
102
}
330
1F
100
AcDbEntity
  8
LC-004-100-D01-0
 62
     7
370
    25
100
AcDbLine
 10
319.931535
 20
1802.72
 30
0.0
 11
672.931535
 21
1802.72
 31
0.0
  0
LINE
  5
1B8
102
{ACAD_REACTORS
330
6E8
102
}
330
1F
100
AcDbEntity
  8
LC-004-100-D01-0
 62
     7
370
    25
100
AcDbLine
 10
319.931535
 20
1788.72
 30
0.0
 11
672.931535
 21
1788.72
 31
0.0
  0
LINE
  5
1B9
102
{ACAD_REACTORS
330
6E8
102
}
330
1F
100
AcDbEntity
  8
LC-004-100-D01-0
 62
     7
370
    25
100
AcDbLine
 10
319.931535
 20
1764.72
 30
0.0
 11
672.931535
 21
1764.72
 31
0.0
  0
ARC
  5
1BA
102
{ACAD_REACTORS
330
6E8
102
}
330
1F
100
AcDbEntity
  8
LC-007-100-D02-0
 62
     7
370
    25
100
AcDbCircle
 10
325.706541
 20
1631.72
 30
0.0
 40
3.0
100
AcDbArc
 50
90.0
 51
206.014366
  0
ARC
  5
1BB
102
{ACAD_REACTORS
330
6E8
102
}
330
1F
100
AcDbEntity
  8
LC-007-100-D02-0
 62
     7
370
    25
100
AcDbCircle
 10
320.646546
 20
1647.72
 30
0.0
 40
3.000000000000024
100
AcDbArc
 50
189.08472
 51
270.0
  0
ARC
  5
1BC
102
{ACAD_REACTORS
330
6E8
102
}
330
1F
100
AcDbEntity
  8
LC-007-100-D02-0
 62
     7
370
    25
100
AcDbCircle
 10
319.940308
 20
1655.72
 30
0.0
 40
2.999999999999773
100
AcDbArc
 50
90.0
 51
181.005241
  0
LINE
  5
1BD
102
{ACAD_REACTORS
330
6E8
102
}
330
1F
100
AcDbEntity
  8
LC-004-100-D01-0
 62
     7
370
    25
100
AcDbLine
 10
316.931535
 20
1719.72
 30
0.0
 11
316.931535
 21
1727.72
 31
0.0
  0
LINE
  5
1BE
102
{ACAD_REACTORS
330
6E8
102
}
330
1F
100
AcDbEntity
  8
LC-004-100-D01-0
 62
     7
370
    25
100
AcDbLine
 10
316.931535
 20
1743.72
 30
0.0
 11
316.931535
 21
1751.72
 31
0.0
  0
LINE
  5
1BF
102
{ACAD_REACTORS
330
6E8
102
}
330
1F
100
AcDbEntity
  8
LC-004-100-D01-0
 62
     7
370
    25
100
AcDbLine
 10
316.931535
 20
1791.72
 30
0.0
 11
316.931535
 21
1799.72
 31
0.0
  0
LINE
  5
1C0
102
{ACAD_REACTORS
330
6E8
102
}
330
1F
100
AcDbEntity
  8
LC-004-100-D01-0
 62
     7
370
    25
100
AcDbLine
 10
316.931535
 20
1767.72
 30
0.0
 11
316.931535
 21
1775.72
 31
0.0
  0
ARC
  5
1C1
102
{ACAD_REACTORS
330
6E8
102
}
330
1F
100
AcDbEntity
  8
LC-007-100-D02-0
 62
     7
370
    25
100
AcDbCircle
 10
319.931535
 20
1671.72
 30
0.0
 40
3.0
100
AcDbArc
 50
180.0
 51
270.0
  0
ARC
  5
1C2
102
{ACAD_REACTORS
330
6E8
102
}
330
1F
100
AcDbEntity
  8
LC-007-100-D02-0
 62
     7
370
    25
100
AcDbCircle
 10
319.931535
 20
1679.72
 30
0.0
 40
3.0
100
AcDbArc
 50
90.0
 51
180.0
  0
ARC
  5
1C3
102
{ACAD_REACTORS
330
6E8
102
}
330
1F
100
AcDbEntity
  8
LC-007-100-D02-0
 62
     7
370
    25
100
AcDbCircle
 10
319.931535
 20
1695.72
 30
0.0
 40
3.0
100
AcDbArc
 50
180.0
 51
270.0
  0
ARC
  5
1C4
102
{ACAD_REACTORS
330
6E8
102
}
330
1F
100
AcDbEntity
  8
LC-007-100-D02-0
 62
     7
370
    25
100
AcDbCircle
 10
319.931535
 20
1703.72
 30
0.0
 40
3.0
100
AcDbArc
 50
90.0
 51
180.0
  0
ARC
  5
1C5
102
{ACAD_REACTORS
330
6E8
102
}
330
1F
100
AcDbEntity
  8
LC-007-100-D02-0
 62
     7
370
    25
100
AcDbCircle
 10
319.931535
 20
1719.72
 30
0.0
 40
3.0
100
AcDbArc
 50
180.0
 51
270.0
  0
ARC
  5
1C6
102
{ACAD_REACTORS
330
6E8
102
}
330
1F
100
AcDbEntity
  8
LC-007-100-D02-0
 62
     7
370
    25
100
AcDbCircle
 10
319.931535
 20
1727.72
 30
0.0
 40
3.0
100
AcDbArc
 50
90.0
 51
180.0
  0
ARC
  5
1C7
102
{ACAD_REACTORS
330
6E8
102
}
330
1F
100
AcDbEntity
  8
LC-007-100-D02-0
 62
     7
370
    25
100
AcDbCircle
 10
319.931535
 20
1743.72
 30
0.0
 40
3.0
100
AcDbArc
 50
180.0
 51
270.0
  0
ARC
  5
1C8
102
{ACAD_REACTORS
330
6E8
102
}
330
1F
100
AcDbEntity
  8
LC-007-100-D02-0
 62
     7
370
    25
100
AcDbCircle
 10
319.931535
 20
1751.72
 30
0.0
 40
3.0
100
AcDbArc
 50
90.0
 51
180.0
  0
ARC
  5
1C9
102
{ACAD_REACTORS
330
6E8
102
}
330
1F
100
AcDbEntity
  8
LC-007-100-D02-0
 62
     7
370
    25
100
AcDbCircle
 10
319.931535
 20
1767.72
 30
0.0
 40
3.0
100
AcDbArc
 50
180.0
 51
270.0
  0
ARC
  5
1CA
102
{ACAD_REACTORS
330
6E8
102
}
330
1F
100
AcDbEntity
  8
LC-007-100-D02-0
 62
     7
370
    25
100
AcDbCircle
 10
319.931535
 20
1775.72
 30
0.0
 40
3.0
100
AcDbArc
 50
90.0
 51
180.0
  0
ARC
  5
1CB
102
{ACAD_REACTORS
330
6E8
102
}
330
1F
100
AcDbEntity
  8
LC-007-100-D02-0
 62
     7
370
    25
100
AcDbCircle
 10
319.931535
 20
1791.72
 30
0.0
 40
3.0
100
AcDbArc
 50
180.0
 51
270.0
  0
ARC
  5
1CC
102
{ACAD_REACTORS
330
6E8
102
}
330
1F
100
AcDbEntity
  8
LC-007-100-D02-0
 62
     7
370
    25
100
AcDbCircle
 10
319.931535
 20
1799.72
 30
0.0
 40
3.0
100
AcDbArc
 50
90.0
 51
180.0
  0
CIRCLE
  5
1CD
102
{ACAD_REACTORS
330
6E8
102
}
330
1F
100
AcDbEntity
  8
LC-004-100-D01-0
  6
DASHED
 62
     7
370
    25
100
AcDbCircle
 10
878.931535
 20
1624.22
 30
0.0
 40
17.5
  0
CIRCLE
  5
1CE
102
{ACAD_REACTORS
330
6E8
102
}
330
1F
100
AcDbEntity
  8
LC-004-100-D01-0
 62
     7
370
    25
100
AcDbCircle
 10
786.931535
 20
1807.72
 30
0.0
 40
45.0
  0
CIRCLE
  5
1CF
102
{ACAD_REACTORS
330
6E8
102
}
330
1F
100
AcDbEntity
  8
LC-004-100-D01-0
 62
     7
370
    25
100
AcDbCircle
 10
786.931535
 20
1807.72
 30
0.0
 40
58.25
  0
LINE
  5
1D0
102
{ACAD_REACTORS
330
6E8
102
}
330
1F
100
AcDbEntity
  8
LC-004-100-D01-0
 62
     7
370
    25
100
AcDbLine
 10
1006.931535
 20
2001.37
 30
0.0
 11
1182.931535
 21
2001.37
 31
0.0
  0
ARC
  5
1D1
102
{ACAD_REACTORS
330
6E8
102
}
330
1F
100
AcDbEntity
  8
LC-004-100-D01-0
 62
     7
370
    25
100
AcDbCircle
 10
1182.931535
 20
1958.72
 30
0.0
 40
42.65000000000009
100
AcDbArc
 50
0.0
 51
90.0
  0
LINE
  5
1D2
102
{ACAD_REACTORS
330
6E8
102
}
330
1F
100
AcDbEntity
  8
LC-004-100-D01-0
 62
     7
370
    25
100
AcDbLine
 10
1225.581535
 20
1958.72
 30
0.0
 11
1225.581535
 21
1656.72
 31
0.0
  0
ARC
  5
1D3
102
{ACAD_REACTORS
330
6E8
102
}
330
1F
100
AcDbEntity
  8
LC-004-100-D01-0
 62
     7
370
    25
100
AcDbCircle
 10
1182.931535
 20
1656.72
 30
0.0
 40
42.64999999999986
100
AcDbArc
 50
270.0
 51
0.0
  0
LINE
  5
1D4
102
{ACAD_REACTORS
330
6E8
102
}
330
1F
100
AcDbEntity
  8
LC-004-100-D01-0
 62
     7
370
    25
100
AcDbLine
 10
1182.931535
 20
1614.07
 30
0.0
 11
1006.931535
 21
1614.07
 31
0.0
  0
ARC
  5
1D5
102
{ACAD_REACTORS
330
6E8
102
}
330
1F
100
AcDbEntity
  8
LC-004-100-D01-0
 62
     7
370
    25
100
AcDbCircle
 10
1006.931535
 20
1701.72
 30
0.0
 40
87.65000000000009
100
AcDbArc
 50
180.0
 51
270.0
  0
LINE
  5
1D6
102
{ACAD_REACTORS
330
6E8
102
}
330
1F
100
AcDbEntity
  8
LC-004-100-D01-0
 62
     7
370
    25
100
AcDbLine
 10
919.281535
 20
1701.72
 30
0.0
 11
919.281535
 21
1913.72
 31
0.0
  0
ARC
  5
1D7
102
{ACAD_REACTORS
330
6E8
102
}
330
1F
100
AcDbEntity
  8
LC-004-100-D01-0
 62
     7
370
    25
100
AcDbCircle
 10
1006.931535
 20
1913.72
 30
0.0
 40
87.65000000000009
100
AcDbArc
 50
90.0
 51
180.0
  0
ARC
  5
1D8
102
{ACAD_REACTORS
330
6E8
102
}
330
1F
100
AcDbEntity
  8
LC-007-100-D02-0
 62
     7
370
    25
100
AcDbCircle
 10
615.931535
 20
1958.72
 30
0.0
 40
60.00000000000006
100
AcDbArc
 50
59.277209
 51
90.0
  0
ARC
  5
1D9
102
{ACAD_REACTORS
330
6E8
102
}
330
1F
100
AcDbEntity
  8
LC-007-100-D02-0
 62
     7
370
    25
100
AcDbCircle
 10
376.931535
 20
1958.72
 30
0.0
 40
60.00000000000023
100
AcDbArc
 50
90.0
 51
120.722791
  0
LINE
  5
1DA
102
{ACAD_REACTORS
330
6E8
102
}
330
1F
100
AcDbEntity
  8
LC-004-100-D01-0
 62
     7
370
    25
100
AcDbLine
 10
735.931535
 20
1945.53
 30
0.0
 11
837.931535
 21
1945.53
 31
0.0
  0
ARC
  5
1DB
102
{ACAD_REACTORS
330
6E8
102
}
330
1F
100
AcDbEntity
  8
LC-004-100-D01-0
 62
     7
370
    25
100
AcDbCircle
 10
837.931535
 20
1927.92
 30
0.0
 40
17.61000000000013
100
AcDbArc
 50
0.0
 51
90.0
  0
LINE
  5
1DC
102
{ACAD_REACTORS
330
6E8
102
}
330
1F
100
AcDbEntity
  8
LC-004-100-D01-0
 62
     7
370
    25
100
AcDbLine
 10
855.541535
 20
1927.92
 30
0.0
 11
855.541535
 21
1687.52
 31
0.0
  0
ARC
  5
1DD
102
{ACAD_REACTORS
330
6E8
102
}
330
1F
100
AcDbEntity
  8
LC-004-100-D01-0
 62
     7
370
    25
100
AcDbCircle
 10
837.931535
 20
1687.52
 30
0.0
 40
17.6099999999999
100
AcDbArc
 50
270.0
 51
0.0
  0
LINE
  5
1DE
102
{ACAD_REACTORS
330
6E8
102
}
330
1F
100
AcDbEntity
  8
LC-004-100-D01-0
 62
     7
370
    25
100
AcDbLine
 10
837.931535
 20
1669.91
 30
0.0
 11
735.931535
 21
1669.91
 31
0.0
  0
ARC
  5
1DF
102
{ACAD_REACTORS
330
6E8
102
}
330
1F
100
AcDbEntity
  8
LC-004-100-D01-0
 62
     7
370
    25
100
AcDbCircle
 10
735.931535
 20
1687.52
 30
0.0
 40
17.61000000000013
100
AcDbArc
 50
180.0
 51
270.0
  0
LINE
  5
1E0
102
{ACAD_REACTORS
330
6E8
102
}
330
1F
100
AcDbEntity
  8
LC-004-100-D01-0
 62
     7
370
    25
100
AcDbLine
 10
718.321535
 20
1687.52
 30
0.0
 11
718.321535
 21
1927.92
 31
0.0
  0
ARC
  5
1E1
102
{ACAD_REACTORS
330
6E8
102
}
330
1F
100
AcDbEntity
  8
LC-004-100-D01-0
 62
     7
370
    25
100
AcDbCircle
 10
735.931535
 20
1927.92
 30
0.0
 40
17.61000000000013
100
AcDbArc
 50
90.0
 51
180.0
  0
ARC
  5
1E2
102
{ACAD_REACTORS
330
6E7
102
}
330
1F
100
AcDbEntity
  8
LC-007-100-D02-0
 62
     7
370
    50
100
AcDbCircle
 10
310.642415
 20
2726.658466
 30
0.0
 40
4.999999999999924
100
AcDbArc
 50
210.0
 51
269.4
  0
ARC
  5
1E3
102
{ACAD_REACTORS
330
6E7
102
}
330
1F
100
AcDbEntity
  8
LC-007-100-D02-0
 62
     7
370
    50
100
AcDbCircle
 10
1200.718458
 20
2556.088717
 30
0.0
 40
24.99999999999987
100
AcDbArc
 50
274.000002
 51
354.0
  0
ARC
  5
1E4
102
{ACAD_REACTORS
330
6E7
102
}
330
1F
100
AcDbEntity
  8
LC-007-100-D02-0
 62
     7
370
    50
100
AcDbCircle
 10
1206.960002
 20
2548.505633
 30
0.0
 40
24.99999999999987
100
AcDbArc
 50
274.000002
 51
354.0
  0
LINE
  5
1E5
102
{ACAD_REACTORS
330
6E7
102
}
330
1F
100
AcDbEntity
  8
LC-004-100-D01-0
 62
     7
370
    50
100
AcDbLine
 10
1073.1731
 20
2514.08929
 30
0.0
 11
1208.703915
 21
2523.566532
 31
0.0
  0
LINE
  5
1E6
102
{ACAD_REACTORS
330
6E7
102
}
330
1F
100
AcDbEntity
  8
LC-004-100-D01-0
 62
     7
370
    25
100
AcDbLine
 10
948.681535
 20
2521.55
 30
0.0
 11
1065.181535
 21
2521.55
 31
0.0
  0
LINE
  5
1E7
102
{ACAD_REACTORS
330
6E7
102
}
330
1F
100
AcDbEntity
  8
LC-004-100-D01-0
 62
     7
370
    50
100
AcDbLine
 10
1052.799776
 20
2517.397615
 30
0.0
 11
1064.250888
 21
2519.416755
 31
0.0
  0
LINE
  5
1E8
102
{ACAD_REACTORS
330
6E7
102
}
330
1F
100
AcDbEntity
  8
LC-004-100-D01-0
 62
     7
370
    50
100
AcDbLine
 10
1069.623999
 20
2511.134309
 30
0.0
 11
1069.328733
 21
2510.032362
 31
0.0
  0
ARC
  5
1E9
102
{ACAD_REACTORS
330
6E7
102
}
330
1F
100
AcDbEntity
  8
LC-007-100-D02-0
 62
     7
370
    50
100
AcDbCircle
 10
949.78583
 20
2520.401563
 30
0.0
 40
0.9999999999999195
100
AcDbArc
 50
185.0
 51
260.0
  0
ARC
  5
1EA
102
{ACAD_REACTORS
330
6E7
102
}
330
1F
100
AcDbEntity
  8
LC-007-100-D02-0
 62
     7
370
    50
100
AcDbCircle
 10
947.759779
 20
2520.612014
 30
0.0
 40
0.9999999999999535
100
AcDbArc
 50
5.0
 51
86.0
  0
ARC
  5
1EB
102
{ACAD_REACTORS
330
6E7
102
}
330
1F
100
AcDbEntity
  8
LC-007-100-D02-0
 62
     7
370
    50
100
AcDbCircle
 10
1066.103292
 20
2520.612014
 30
0.0
 40
0.9999999999995273
100
AcDbArc
 50
94.0
 51
175.0
  0
LINE
  5
1EC
102
{ACAD_REACTORS
330
6E7
102
}
330
1F
100
AcDbEntity
  8
LC-004-100-D01-0
 62
     7
370
    50
100
AcDbLine
 10
1065.073435
 20
2520.314407
 30
0.0
 11
1065.107097
 21
2520.699169
 31
0.0
  0
ARC
  5
1ED
102
{ACAD_REACTORS
330
6E7
102
}
330
1F
100
AcDbEntity
  8
LC-007-100-D02-0
 62
     7
370
    50
100
AcDbCircle
 10
1067.396881
 20
2510.55
 30
0.0
 40
2.0
100
AcDbArc
 50
270.0
 51
345.0
  0
ARC
  5
1EE
102
{ACAD_REACTORS
330
6E7
102
}
330
1F
100
AcDbEntity
  8
LC-007-100-D02-0
 62
     7
370
    50
100
AcDbCircle
 10
1073.487702
 20
2510.099033
 30
0.0
 40
3.999999999999916
100
AcDbArc
 50
94.000002
 51
165.0
  0
ARC
  5
1EF
102
{ACAD_REACTORS
330
6E7
102
}
330
1F
100
AcDbEntity
  8
LC-007-100-D02-0
 62
     7
370
    50
100
AcDbCircle
 10
1064.07724
 20
2520.401563
 30
0.0
 40
1.000000000000125
100
AcDbArc
 50
280.0
 51
355.0
  0
ARC
  5
1F0
102
{ACAD_REACTORS
330
6E7
102
}
330
1F
100
AcDbEntity
  8
LC-007-100-D02-0
 62
     7
370
    50
100
AcDbCircle
 10
1053.668017
 20
2512.473576
 30
0.0
 40
4.999999999945067
100
AcDbArc
 50
100.0
 51
110.322037
  0
LINE
  5
1F1
102
{ACAD_REACTORS
330
6E7
102
}
330
1F
100
AcDbEntity
  8
LC-004-100-D01-0
 62
     7
370
    50
100
AcDbLine
 10
961.063294
 20
2517.397615
 30
0.0
 11
949.612182
 21
2519.416755
 31
0.0
  0
ARC
  5
1F2
102
{ACAD_REACTORS
330
6E7
102
}
330
1F
100
AcDbEntity
  8
LC-007-100-D02-0
 62
     7
370
    50
100
AcDbCircle
 10
960.195053
 20
2512.473576
 30
0.0
 40
4.999999999999758
100
AcDbArc
 50
69.677963
 51
80.0
  0
ARC
  5
1F3
102
{ACAD_REACTORS
330
6E7
102
}
330
1F
100
AcDbEntity
  8
LC-007-100-D02-0
 62
     7
370
    50
100
AcDbCircle
 10
946.466189
 20
2510.55
 30
0.0
 40
1.999999999999994
100
AcDbArc
 50
195.0
 51
270.0
  0
LINE
  5
1F4
102
{ACAD_REACTORS
330
6E7
102
}
330
1F
100
AcDbEntity
  8
LC-004-100-D01-0
 62
     7
370
    50
100
AcDbLine
 10
944.239072
 20
2511.134309
 30
0.0
 11
944.534338
 21
2510.032362
 31
0.0
  0
ARC
  5
1F5
102
{ACAD_REACTORS
330
6E7
102
}
330
1F
100
AcDbEntity
  8
LC-007-100-D02-0
 62
     7
370
    50
100
AcDbCircle
 10
940.375368
 20
2510.099033
 30
0.0
 40
3.999999999999887
100
AcDbArc
 50
15.0
 51
85.999998
  0
LINE
  5
1F6
102
{ACAD_REACTORS
330
6E7
102
}
330
1F
100
AcDbEntity
  8
LC-004-100-D01-0
 62
     7
370
    50
100
AcDbLine
 10
948.789636
 20
2520.314407
 30
0.0
 11
948.755973
 21
2520.699169
 31
0.0
  0
LINE
  5
1F7
102
{ACAD_REACTORS
330
6E7
102
}
330
1F
100
AcDbEntity
  8
LC-004-100-D01-0
 62
     7
370
    50
100
AcDbLine
 10
947.829535
 20
2521.609578
 30
0.0
 11
943.370626
 21
2521.921375
 31
0.0
  0
LINE
  5
1F8
102
{ACAD_REACTORS
330
6E7
102
}
330
1F
100
AcDbEntity
  8
LC-004-100-D01-0
 62
     7
370
    50
100
AcDbLine
 10
940.654394
 20
2514.089289
 30
0.0
 11
937.023463
 21
2514.343189
 31
0.0
  0
LINE
  5
1F9
102
{ACAD_REACTORS
330
6E7
102
}
330
1F
100
AcDbEntity
  8
LC-004-100-D01-0
 62
     7
370
    25
100
AcDbLine
 10
728.681535
 20
2577.55
 30
0.0
 11
845.181535
 21
2577.55
 31
0.0
  0
LINE
  5
1FA
102
{ACAD_REACTORS
330
6E7
102
}
330
1F
100
AcDbEntity
  8
LC-004-100-D01-0
 62
     7
370
    50
100
AcDbLine
 10
832.799776
 20
2573.397615
 30
0.0
 11
844.250888
 21
2575.416755
 31
0.0
  0
LINE
  5
1FB
102
{ACAD_REACTORS
330
6E7
102
}
330
1F
100
AcDbEntity
  8
LC-004-100-D01-0
 62
     7
370
    50
100
AcDbLine
 10
849.623999
 20
2567.134309
 30
0.0
 11
849.328733
 21
2566.032362
 31
0.0
  0
ARC
  5
1FC
102
{ACAD_REACTORS
330
6E7
102
}
330
1F
100
AcDbEntity
  8
LC-007-100-D02-0
 62
     7
370
    50
100
AcDbCircle
 10
729.78583
 20
2576.401563
 30
0.0
 40
0.9999999999999931
100
AcDbArc
 50
185.0
 51
260.0
  0
ARC
  5
1FD
102
{ACAD_REACTORS
330
6E7
102
}
330
1F
100
AcDbEntity
  8
LC-007-100-D02-0
 62
     7
370
    50
100
AcDbCircle
 10
727.759779
 20
2576.612014
 30
0.0
 40
0.9999999999998799
100
AcDbArc
 50
5.0
 51
75.533641
  0
ARC
  5
1FE
102
{ACAD_REACTORS
330
6E7
102
}
330
1F
100
AcDbEntity
  8
LC-007-100-D02-0
 62
     7
370
    50
100
AcDbCircle
 10
846.103292
 20
2576.612014
 30
0.0
 40
0.9999999999993426
100
AcDbArc
 50
104.466359
 51
175.0
  0
LINE
  5
1FF
102
{ACAD_REACTORS
330
6E7
102
}
330
1F
100
AcDbEntity
  8
LC-004-100-D01-0
 62
     7
370
    50
100
AcDbLine
 10
845.073435
 20
2576.314407
 30
0.0
 11
845.107097
 21
2576.699169
 31
0.0
  0
ARC
  5
200
102
{ACAD_REACTORS
330
6E7
102
}
330
1F
100
AcDbEntity
  8
LC-007-100-D02-0
 62
     7
370
    50
100
AcDbCircle
 10
847.396881
 20
2566.55
 30
0.0
 40
2.0
100
AcDbArc
 50
270.0
 51
345.0
  0
ARC
  5
201
102
{ACAD_REACTORS
330
6E7
102
}
330
1F
100
AcDbEntity
  8
LC-007-100-D02-0
 62
     7
370
    50
100
AcDbCircle
 10
853.487702
 20
2566.099033
 30
0.0
 40
4.000000000000213
100
AcDbArc
 50
105.667388
 51
165.0
  0
ARC
  5
202
102
{ACAD_REACTORS
330
6E7
102
}
330
1F
100
AcDbEntity
  8
LC-007-100-D02-0
 62
     7
370
    50
100
AcDbCircle
 10
844.07724
 20
2576.401563
 30
0.0
 40
1.000000000000125
100
AcDbArc
 50
280.0
 51
355.0
  0
ARC
  5
203
102
{ACAD_REACTORS
330
6E7
102
}
330
1F
100
AcDbEntity
  8
LC-007-100-D02-0
 62
     7
370
    50
100
AcDbCircle
 10
833.668017
 20
2568.473576
 30
0.0
 40
5.000000000000018
100
AcDbArc
 50
100.0
 51
110.322037
  0
LINE
  5
204
102
{ACAD_REACTORS
330
6E7
102
}
330
1F
100
AcDbEntity
  8
LC-004-100-D01-0
 62
     7
370
    50
100
AcDbLine
 10
741.063294
 20
2573.397615
 30
0.0
 11
729.612182
 21
2575.416755
 31
0.0
  0
ARC
  5
205
102
{ACAD_REACTORS
330
6E7
102
}
330
1F
100
AcDbEntity
  8
LC-007-100-D02-0
 62
     7
370
    50
100
AcDbCircle
 10
740.195053
 20
2568.473576
 30
0.0
 40
4.999999999999593
100
AcDbArc
 50
69.677963
 51
80.0
  0
LINE
  5
206
102
{ACAD_REACTORS
330
6E7
102
}
330
1F
100
AcDbEntity
  8
LC-004-100-D01-0
 62
     7
370
    50
100
AcDbLine
 10
726.466189
 20
2564.55
 30
0.0
 11
741.931535
 21
2564.55
 31
0.0
  0
ARC
  5
207
102
{ACAD_REACTORS
330
6E7
102
}
330
1F
100
AcDbEntity
  8
LC-007-100-D02-0
 62
     7
370
    50
100
AcDbCircle
 10
726.466189
 20
2566.55
 30
0.0
 40
2.000000000000002
100
AcDbArc
 50
195.0
 51
270.0
  0
LINE
  5
208
102
{ACAD_REACTORS
330
6E7
102
}
330
1F
100
AcDbEntity
  8
LC-004-100-D01-0
 62
     7
370
    50
100
AcDbLine
 10
724.239072
 20
2567.134309
 30
0.0
 11
724.534338
 21
2566.032362
 31
0.0
  0
ARC
  5
209
102
{ACAD_REACTORS
330
6E7
102
}
330
1F
100
AcDbEntity
  8
LC-007-100-D02-0
 62
     7
370
    50
100
AcDbCircle
 10
720.375368
 20
2566.099033
 30
0.0
 40
3.999999999999675
100
AcDbArc
 50
15.0
 51
74.332612
  0
ARC
  5
20A
102
{ACAD_REACTORS
330
6E7
102
}
330
1F
100
AcDbEntity
  8
LC-007-100-D02-0
 62
     7
370
    50
100
AcDbCircle
 10
842.605931
 20
2590.168136
 30
0.0
 40
13.00000000000022
100
AcDbArc
 50
284.466359
 51
354.5
  0
ARC
  5
20B
102
{ACAD_REACTORS
330
6E7
102
}
330
1F
100
AcDbEntity
  8
LC-007-100-D02-0
 62
     7
370
    50
100
AcDbCircle
 10
938.767376
 20
2539.28229
 30
0.0
 40
24.99999999999989
100
AcDbArc
 50
186.0
 51
265.999998
  0
LINE
  5
20C
102
{ACAD_REACTORS
330
6E7
102
}
330
1F
100
AcDbEntity
  8
LC-004-100-D01-0
 62
     7
370
    50
100
AcDbLine
 10
920.146387
 20
2544.247265
 30
0.0
 11
907.808736
 21
2661.632172
 31
0.0
  0
ARC
  5
20D
102
{ACAD_REACTORS
330
6E7
102
}
330
1F
100
AcDbEntity
  8
LC-007-100-D02-0
 62
     7
370
    50
100
AcDbCircle
 10
896.529111
 20
2711.55
 30
0.0
 40
5.999999999999968
100
AcDbArc
 50
6.0
 51
90.0
  0
ARC
  5
20E
102
{ACAD_REACTORS
330
6E7
102
}
330
1F
100
AcDbEntity
  8
LC-007-100-D02-0
 62
     7
370
    50
100
AcDbCircle
 10
873.381552
 20
2711.55
 30
0.0
 40
6.0
100
AcDbArc
 50
90.0
 51
174.5
  0
ARC
  5
20F
102
{ACAD_REACTORS
330
6E7
102
}
330
1F
100
AcDbEntity
  8
LC-007-100-D02-0
 62
     7
370
    50
100
AcDbCircle
 10
945.114538
 20
2546.860476
 30
0.0
 40
24.99999999999943
100
AcDbArc
 50
186.0
 51
266.0
  0
LINE
  5
210
102
{ACAD_REACTORS
330
6E7
102
}
330
1F
100
AcDbEntity
  8
LC-004-100-D01-0
 62
     7
370
    50
100
AcDbLine
 10
728.789636
 20
2576.314407
 30
0.0
 11
728.755973
 21
2576.699169
 31
0.0
  0
LINE
  5
211
102
{ACAD_REACTORS
330
6E7
102
}
330
1F
100
AcDbEntity
  8
LC-004-100-D01-0
 62
     7
370
    50
100
AcDbLine
 10
847.396881
 20
2564.55
 30
0.0
 11
831.931535
 21
2564.55
 31
0.0
  0
LINE
  5
212
102
{ACAD_REACTORS
330
6E7
102
}
330
1F
100
AcDbEntity
  8
LC-004-100-D01-0
 62
     7
370
    50
100
AcDbLine
 10
861.836961
 20
2581.221413
 30
0.0
 11
873.662009
 21
2704.029229
 31
0.0
  0
LINE
  5
213
102
{ACAD_REACTORS
330
6E7
102
}
330
1F
100
AcDbEntity
  8
LC-004-100-D01-0
 62
     7
370
    50
100
AcDbLine
 10
913.904328
 20
2536.669078
 30
0.0
 11
900.847083
 21
2660.900472
 31
0.0
  0
ARC
  5
214
102
{ACAD_REACTORS
330
6E7
102
}
330
1F
100
AcDbEntity
  8
LC-007-100-D02-0
 62
     7
370
    50
100
AcDbCircle
 10
731.25714
 20
2590.168136
 30
0.0
 40
13.00000000000001
100
AcDbArc
 50
185.5
 51
255.533641
  0
LINE
  5
215
102
{ACAD_REACTORS
330
6E7
102
}
330
1F
100
AcDbEntity
  8
LC-004-100-D01-0
 62
     7
370
    50
100
AcDbLine
 10
700.53888
 20
2717.606474
 30
0.0
 11
680.783656
 21
2717.813358
 31
0.0
  0
LINE
  5
216
102
{ACAD_REACTORS
330
6E7
102
}
330
1F
100
AcDbEntity
  8
LC-004-100-D01-0
 62
     7
370
    50
100
AcDbLine
 10
680.783327
 20
2717.781944
 30
0.0
 11
310.590056
 21
2721.658741
 31
0.0
  0
LINE
  5
217
102
{ACAD_REACTORS
330
6E7
102
}
330
1F
100
AcDbEntity
  8
LC-004-100-D01-0
 62
     7
370
    50
100
AcDbLine
 10
718.316989
 20
2588.922142
 30
0.0
 11
706.448427
 21
2712.181877
 31
0.0
  0
ARC
  5
218
102
{ACAD_REACTORS
330
6E7
102
}
330
1F
100
AcDbEntity
  8
LC-007-100-D02-0
 62
     7
370
    50
100
AcDbCircle
 10
848.89681
 20
2582.467408
 30
0.0
 40
13.00000000000022
100
AcDbArc
 50
285.667388
 51
354.5
  0
LINE
  5
219
102
{ACAD_REACTORS
330
6E7
102
}
330
1F
100
AcDbEntity
  8
LC-004-100-D01-0
 62
     7
370
    50
100
AcDbLine
 10
1248.67311
 20
2706.210034
 30
0.0
 11
1231.823049
 21
2545.892421
 31
0.0
  0
ARC
  5
21A
102
{ACAD_REACTORS
330
6E7
102
}
330
1F
100
AcDbEntity
  8
LC-007-100-D02-0
 62
     7
370
    50
100
AcDbCircle
 10
1250.848631
 20
2722.55
 30
0.0
 40
5.0
100
AcDbArc
 50
270.0
 51
329.999997
  0
ARC
  5
21B
102
{ACAD_REACTORS
330
6E7
102
}
330
1F
100
AcDbEntity
  8
LC-007-100-D02-0
 62
     7
370
    50
100
AcDbCircle
 10
1248.228855
 20
2711.55
 30
0.0
 40
6.0
100
AcDbArc
 50
90.0
 51
174.0
  0
LINE
  5
21C
102
{ACAD_REACTORS
330
6E7
102
}
330
1F
100
AcDbEntity
  8
LC-004-100-D01-0
 62
     7
370
    50
100
AcDbLine
 10
1264.826645
 20
2716.55
 30
0.0
 11
1263.41643
 21
2716.55
 31
0.0
  0
LINE
  5
21D
102
{ACAD_REACTORS
330
6E7
102
}
330
1F
100
AcDbEntity
  8
LC-004-100-D01-0
 62
     7
370
    50
100
AcDbLine
 10
1281.826645
 20
2720.05
 30
0.0
 11
1281.502219
 21
2724.689513
 31
0.0
  0
ARC
  5
21E
102
{ACAD_REACTORS
330
6E7
102
}
330
1F
100
AcDbEntity
  8
LC-007-100-D02-0
 62
     7
370
    50
100
AcDbCircle
 10
1279.507091
 20
2724.55
 30
0.0
 40
2.000000000000025
100
AcDbArc
 50
4.0
 51
90.0
  0
LINE
  5
21F
102
{ACAD_REACTORS
330
6E7
102
}
330
1F
100
AcDbEntity
  8
LC-008-100-D07-0
 62
     7
370
    50
100
AcDbLine
 10
1263.931535
 20
2716.55
 30
0.0
 11
1263.931535
 21
2715.270236
 31
0.0
  0
ARC
  5
220
102
{ACAD_REACTORS
330
6E7
102
}
330
1F
100
AcDbEntity
  8
LC-007-100-D02-0
 62
     7
370
    50
100
AcDbCircle
 10
700.476049
 20
2711.606803
 30
0.0
 40
6.000000000000211
100
AcDbArc
 50
5.5
 51
89.4
  0
ARC
  5
221
102
{ACAD_REACTORS
330
6E7
102
}
330
1F
100
AcDbEntity
  8
LC-007-100-D02-0
 62
     7
370
    50
100
AcDbCircle
 10
1260.931535
 20
2715.270236
 30
0.0
 40
2.9999999999995
100
AcDbArc
 50
333.0
 51
0.0
  0
LINE
  5
222
102
{ACAD_REACTORS
330
6E7
102
}
330
1F
100
AcDbEntity
  8
LC-004-100-D01-0
 62
     7
370
    50
100
AcDbLine
 10
712.026109
 20
2581.221413
 30
0.0
 11
700.096964
 21
2705.110321
 31
0.0
  0
ARC
  5
223
102
{ACAD_REACTORS
330
6E7
102
}
330
1F
100
AcDbEntity
  8
LC-004-100-D01-0
 62
     7
370
    50
100
AcDbCircle
 10
1251.425981
 20
2723.55
 30
0.0
 40
13.00000000000021
100
AcDbArc
 50
277.08368
 51
323.130102
  0
ARC
  5
224
102
{ACAD_REACTORS
330
6E7
102
}
330
1F
100
AcDbEntity
  8
LC-007-100-D02-0
 62
     7
370
    50
100
AcDbCircle
 10
1253.64572
 20
2705.687392
 30
0.0
 40
4.999999999999799
100
AcDbArc
 50
97.08368
 51
174.0
  0
ARC
  5
225
102
{ACAD_REACTORS
330
6E7
102
}
330
1F
100
AcDbEntity
  8
LC-007-100-D02-0
 62
     7
370
    50
100
AcDbCircle
 10
1263.425981
 20
2714.55
 30
0.0
 40
2.0
100
AcDbArc
 50
90.0
 51
143.130102
  0
ARC
  5
226
102
{ACAD_REACTORS
330
6E7
102
}
330
1F
100
AcDbEntity
  8
LC-007-100-D02-0
 62
     7
370
    50
100
AcDbCircle
 10
1253.02353
 20
2697.547213
 30
0.0
 40
2.000000000069763
100
AcDbArc
 50
207.0
 51
333.0
  0
LINE
  5
227
102
{ACAD_REACTORS
330
6E7
102
}
330
1F
100
AcDbEntity
  8
LC-004-100-D01-0
 62
     7
370
    50
100
AcDbLine
 10
1263.604555
 20
2713.908265
 30
0.0
 11
1254.805543
 21
2696.639232
 31
0.0
  0
ARC
  5
228
102
{ACAD_REACTORS
330
6E7
102
}
330
1F
100
AcDbEntity
  8
LC-007-100-D02-0
 62
     7
370
    50
100
AcDbCircle
 10
1248.920045
 20
2698.992688
 30
0.0
 40
1.000000000000104
100
AcDbArc
 50
27.0
 51
174.0
  0
ARC
  5
229
102
{ACAD_REACTORS
330
6E7
102
}
330
1F
100
AcDbEntity
  8
LC-007-100-D02-0
 62
     7
370
    50
100
AcDbCircle
 10
300.697486
 20
2711.55
 30
0.0
 40
5.000000000000038
100
AcDbArc
 50
57.082527
 51
90.0
  0
LINE
  5
22A
102
{ACAD_REACTORS
330
6E7
102
}
330
1F
100
AcDbEntity
  8
LC-004-100-D01-0
 62
     7
370
    50
100
AcDbLine
 10
282.036425
 20
2720.05
 30
0.0
 11
282.360852
 21
2724.689513
 31
0.0
  0
LINE
  5
22B
102
{ACAD_REACTORS
330
6E7
102
}
330
1F
100
AcDbEntity
  8
LC-004-100-D01-0
 62
     7
370
    50
100
AcDbLine
 10
299.036425
 20
2716.55
 30
0.0
 11
300.697486
 21
2716.55
 31
0.0
  0
LINE
  5
22C
102
{ACAD_REACTORS
330
6E7
102
}
330
1F
100
AcDbEntity
  8
LC-004-100-D01-0
 62
     7
370
    50
100
AcDbLine
 10
1249.811052
 20
2699.446679
 30
0.0
 11
1251.241517
 21
2696.639232
 31
0.0
  0
LINE
  5
22D
102
{ACAD_REACTORS
330
6E7
102
}
330
1F
100
AcDbEntity
  8
LC-008-100-D07-0
 62
     7
370
    50
100
AcDbLine
 10
907.808736
 20
2661.632172
 30
0.0
 11
904.672882
 21
2691.467828
 31
0.0
  0
ARC
  5
22E
102
{ACAD_REACTORS
330
6E7
102
}
330
1F
100
AcDbEntity
  8
LC-007-100-D02-0
 62
     7
370
    50
100
AcDbCircle
 10
303.776835
 20
2724.55
 30
0.0
 40
2.000000000000016
100
AcDbArc
 50
30.0
 51
90.0
  0
LINE
  5
22F
102
{ACAD_REACTORS
330
6E7
102
}
330
1F
100
AcDbEntity
  8
LC-004-100-D01-0
 62
     7
370
    50
100
AcDbLine
 10
306.312288
 20
2724.158466
 30
0.0
 11
305.508886
 21
2725.55
 31
0.0
  0
ARC
  5
230
102
{ACAD_REACTORS
330
6E7
102
}
330
1F
100
AcDbEntity
  8
LC-007-100-D02-0
 62
     7
370
    50
100
AcDbCircle
 10
878.63899
 20
2703.55
 30
0.0
 40
5.0
100
AcDbArc
 50
90.0
 51
174.5
  0
LINE
  5
231
102
{ACAD_REACTORS
330
6E7
102
}
330
1F
100
AcDbEntity
  8
LC-004-100-D01-0
 62
     7
370
    50
100
AcDbLine
 10
891.336895
 20
2708.55
 30
0.0
 11
878.526175
 21
2708.55
 31
0.0
  0
ARC
  5
232
102
{ACAD_REACTORS
330
6E7
102
}
330
1F
100
AcDbEntity
  8
LC-007-100-D02-0
 62
     7
370
    50
100
AcDbCircle
 10
891.336895
 20
2703.55
 30
0.0
 40
4.999999999999994
100
AcDbArc
 50
6.0
 51
90.0
  0
LINE
  5
233
102
{ACAD_REACTORS
330
6E7
102
}
330
1F
100
AcDbEntity
  8
LC-004-100-D01-0
 62
     7
370
    50
100
AcDbLine
 10
695.172342
 20
2709.630818
 30
0.0
 11
310.343101
 21
2713.660888
 31
0.0
  0
LINE
  5
234
102
{ACAD_REACTORS
330
6E7
102
}
330
1F
100
AcDbEntity
  8
LC-004-100-D01-0
 62
     7
370
    50
100
AcDbLine
 10
904.672882
 20
2691.467828
 30
0.0
 11
902.496242
 21
2712.177171
 31
0.0
  0
ARC
  5
235
102
{ACAD_REACTORS
330
6E7
102
}
330
1F
100
AcDbEntity
  8
LC-007-100-D02-0
 62
     7
370
    50
100
AcDbCircle
 10
284.35598
 20
2724.55
 30
0.0
 40
2.0
100
AcDbArc
 50
90.0
 51
176.0
  0
LINE
  5
236
102
{ACAD_REACTORS
330
6E7
102
}
330
1F
100
AcDbEntity
  8
LC-004-100-D01-0
 62
     7
370
    50
100
AcDbLine
 10
904.672882
 20
2691.467828
 30
0.0
 11
897.711229
 21
2690.736129
 31
0.0
  0
LINE
  5
237
102
{ACAD_REACTORS
330
6E7
102
}
330
1F
100
AcDbEntity
  8
LC-004-100-D01-0
 62
     7
370
    50
100
AcDbLine
 10
907.808736
 20
2661.632172
 30
0.0
 11
900.847083
 21
2660.900472
 31
0.0
  0
ARC
  5
238
102
{ACAD_REACTORS
330
6E7
102
}
330
1F
100
AcDbEntity
  8
LC-007-100-D02-0
 62
     7
370
    50
100
AcDbCircle
 10
695.119983
 20
2704.631093
 30
0.0
 40
4.999999999999925
100
AcDbArc
 50
5.5
 51
89.4
  0
ARC
  5
239
102
{ACAD_REACTORS
330
6E7
102
}
330
1F
100
AcDbEntity
  8
LC-007-100-D02-0
 62
     7
370
    50
100
AcDbCircle
 10
310.479234
 20
2726.660175
 30
0.0
 40
13.00000000000031
100
AcDbArc
 50
237.082527
 51
269.4
  0
ARC
  5
23A
102
{ACAD_REACTORS
330
6E7
102
}
330
1F
100
AcDbEntity
  8
LC-007-100-D02-0
 62
     7
370
    50
100
AcDbCircle
 10
724.96626
 20
2582.467408
 30
0.0
 40
13.00000000000035
100
AcDbArc
 50
185.5
 51
254.332612
  0
LINE
  5
23B
102
{ACAD_REACTORS
330
6E7
102
}
330
1F
100
AcDbEntity
  8
LC-004-100-D01-0
 62
     7
370
    50
100
AcDbLine
 10
855.546081
 20
2588.922142
 30
0.0
 11
867.409174
 21
2712.125075
 31
0.0
  0
LINE
  5
23C
102
{ACAD_REACTORS
330
6E7
102
}
330
1F
100
AcDbEntity
  8
LC-004-100-D01-0
 62
     7
370
    50
100
AcDbLine
 10
1242.261724
 20
2712.177171
 30
0.0
 11
1225.581506
 21
2553.475505
 31
0.0
  0
ARC
  5
23D
102
{ACAD_REACTORS
330
6E7
102
}
330
1F
100
AcDbEntity
  8
LC-004-100-D01-0
 62
     7
370
    50
100
AcDbCircle
 10
1260.086236
 20
2724.55
 30
0.0
 40
2.0
100
AcDbArc
 50
90.0
 51
150.0
  0
LINE
  5
23E
102
{ACAD_REACTORS
330
6E7
102
}
330
1F
100
AcDbEntity
  8
LC-004-100-D01-0
 62
     7
370
    50
100
AcDbLine
 10
1255.178758
 20
2720.05
 30
0.0
 11
1258.354185
 21
2725.55
 31
0.0
  0
LINE
  5
23F
102
{ACAD_REACTORS
330
6E7
102
}
330
1F
100
AcDbEntity
  8
LC-004-100-D01-0
 62
     7
370
    50
100
AcDbLine
 10
1066.033535
 20
2521.609578
 30
0.0
 11
1202.462371
 21
2531.149616
 31
0.0
  0
LINE
  5
240
102
{ACAD_REACTORS
330
6E7
102
}
330
1F
100
AcDbEntity
  8
LC-004-100-D01-0
 62
     7
370
    50
100
AcDbLine
 10
1279.507091
 20
2726.55
 30
0.0
 11
284.35598
 21
2726.55
 31
0.0
  0
LINE
  5
241
102
{ACAD_REACTORS
330
6E7
102
}
330
1F
100
AcDbEntity
  8
LC-004-100-D01-0
 62
     7
370
    50
100
AcDbLine
 10
1250.848631
 20
2717.55
 30
0.0
 11
705.931535
 21
2717.55
 31
0.0
  0
LINE
  5
242
102
{ACAD_REACTORS
330
6E7
102
}
330
1F
100
AcDbEntity
  8
LC-008-100-D07-0
 62
     7
370
    50
100
AcDbLine
 10
900.847083
 20
2660.900472
 30
0.0
 11
897.711229
 21
2690.736129
 31
0.0
  0
LINE
  5
243
102
{ACAD_REACTORS
330
6E7
102
}
330
1F
100
AcDbEntity
  8
LC-004-100-D01-0
 62
     7
370
    50
100
AcDbLine
 10
897.711229
 20
2690.736129
 30
0.0
 11
896.309505
 21
2704.072642
 31
0.0
  0
LINE
  5
244
102
{ACAD_REACTORS
330
6E9
102
}
330
1F
100
AcDbEntity
  8
LC-004-100-D01-0
 62
     7
370
    25
100
AcDbLine
 10
1754.483116
 20
1983.818188
 30
0.0
 11
1754.483116
 21
1963.370016
 31
0.0
  0
ARC
  5
246
102
{ACAD_REACTORS
330
6E9
102
}
330
1F
100
AcDbEntity
  8
LC-009-100-D03-0
 62
     7
370
    25
100
AcDbCircle
 10
1638.777654
 20
1926.686328
 30
0.0
 40
19.99999999999974
100
AcDbArc
 50
95.5
 51
176.0
  0
LINE
  5
247
102
{ACAD_REACTORS
330
6E9
102
}
330
1F
100
AcDbEntity
  8
LC-004-100-D01-0
 62
     7
370
    25
100
AcDbLine
 10
1629.281926
 20
1952.896872
 30
0.0
 11
1741.962346
 21
1963.746762
 31
0.0
  0
LINE
  5
248
102
{ACAD_REACTORS
330
6E9
102
}
330
1F
100
AcDbEntity
  8
LC-004-100-D01-0
 62
     7
370
    25
100
AcDbLine
 10
1636.86074
 20
1668.845746
 30
0.0
 11
1749.058192
 21
1658.04236
 31
0.0
  0
ARC
  5
249
102
{ACAD_REACTORS
330
6E9
102
}
330
1F
100
AcDbEntity
  8
LC-009-100-D03-0
 62
     7
370
    25
100
AcDbCircle
 10
1748.483116
 20
1652.069982
 30
0.0
 40
6.0
100
AcDbArc
 50
0.0
 51
84.5
  0
LINE
  5
24A
102
{ACAD_REACTORS
330
6E9
102
}
330
1F
100
AcDbEntity
  8
LC-004-100-D01-0
 62
     7
370
    25
100
AcDbLine
 10
1636.86074
 20
1946.594252
 30
0.0
 11
1749.058191
 21
1957.397638
 31
0.0
  0
LINE
  5
24B
102
{ACAD_REACTORS
330
6E9
102
}
330
1F
100
AcDbEntity
  8
LC-004-100-D01-0
 62
     7
370
    25
100
AcDbLine
 10
1629.281926
 20
1662.543128
 30
0.0
 11
1741.962346
 21
1651.693236
 31
0.0
  0
ARC
  5
24C
102
{ACAD_REACTORS
330
6E9
102
}
330
1F
100
AcDbEntity
  8
LC-009-100-D03-0
 62
     7
370
    25
100
AcDbCircle
 10
1741.483116
 20
1968.723742
 30
0.0
 40
4.999999999999855
100
AcDbArc
 50
275.5
 51
0.0
  0
ARC
  5
24D
102
{ACAD_REACTORS
330
6E9
102
}
330
1F
100
AcDbEntity
  8
LC-009-100-D03-0
 62
     7
370
    25
100
AcDbCircle
 10
1741.483116
 20
1646.716256
 30
0.0
 40
5.0
100
AcDbArc
 50
0.0
 51
84.5
  0
LINE
  5
24E
102
{ACAD_REACTORS
330
6E9
102
}
330
1F
100
AcDbEntity
  8
LC-004-100-D01-0
 62
     7
370
    25
100
AcDbLine
 10
1746.483116
 20
1983.818188
 30
0.0
 11
1746.483116
 21
1968.723742
 31
0.0
  0
LINE
  5
24F
102
{ACAD_REACTORS
330
6E9
102
}
330
1F
100
AcDbEntity
  8
LC-004-100-D01-0
 62
     7
370
    25
100
AcDbLine
 10
1746.483116
 20
1646.716256
 30
0.0
 11
1746.483116
 21
1627.119754
 31
0.0
  0
ARC
  5
250
102
{ACAD_REACTORS
330
6E9
102
}
330
1F
100
AcDbEntity
  8
LC-009-100-D03-0
 62
     7
370
    25
100
AcDbCircle
 10
1631.19884
 20
1932.988948
 30
0.0
 40
19.99999999999974
100
AcDbArc
 50
95.5
 51
176.0
  0
ARC
  5
251
102
{ACAD_REACTORS
330
6E9
102
}
330
1F
100
AcDbEntity
  8
LC-009-100-D03-0
 62
     7
370
    25
100
AcDbCircle
 10
1638.777654
 20
1688.75367
 30
0.0
 40
20.00000000000003
100
AcDbArc
 50
184.0
 51
264.5
  0
ARC
  5
252
102
{ACAD_REACTORS
330
6E9
102
}
330
1F
100
AcDbEntity
  8
LC-009-100-D03-0
 62
     7
370
    25
100
AcDbCircle
 10
1748.483116
 20
1963.370016
 30
0.0
 40
6.000000000000054
100
AcDbArc
 50
275.5
 51
0.0
  0
ARC
  5
253
102
{ACAD_REACTORS
330
6E9
102
}
330
1F
100
AcDbEntity
  8
LC-009-100-D03-0
 62
     7
370
    25
100
AcDbCircle
 10
1631.19884
 20
1682.45105
 30
0.0
 40
20.0
100
AcDbArc
 50
184.0
 51
264.5
  0
LINE
  5
254
102
{ACAD_REACTORS
330
6E9
102
}
330
1F
100
AcDbEntity
  8
LC-004-100-D01-0
 62
     7
370
    25
100
AcDbLine
 10
1754.483116
 20
1983.818188
 30
0.0
 11
1750.344074
 21
1985.41669
 31
0.0
  0
LINE
  5
255
102
{ACAD_REACTORS
330
6E9
102
}
330
1F
100
AcDbEntity
  8
LC-004-100-D01-0
 62
     7
370
    25
100
AcDbLine
 10
1750.344074
 20
1985.41669
 30
0.0
 11
1746.483116
 21
1983.818188
 31
0.0
  0
LINE
  5
256
102
{ACAD_REACTORS
330
6E9
102
}
330
1F
100
AcDbEntity
  8
LC-004-100-D01-0
 62
     7
370
    25
100
AcDbLine
 10
1754.483116
 20
1627.119754
 30
0.0
 11
1751.234726
 21
1627.663538
 31
0.0
  0
LINE
  5
257
102
{ACAD_REACTORS
330
6E9
102
}
330
1F
100
AcDbEntity
  8
LC-004-100-D01-0
 62
     7
370
    25
100
AcDbLine
 10
1751.234726
 20
1627.663538
 30
0.0
 11
1746.483116
 21
1627.119754
 31
0.0
  0
LINE
  5
258
102
{ACAD_REACTORS
330
6E9
102
}
330
1F
100
AcDbEntity
  8
LC-004-100-D01-0
 62
     7
370
    25
100
AcDbLine
 10
1614.483116
 20
1749.47
 30
0.0
 11
1614.483116
 21
1865.97
 31
0.0
  0
LINE
  5
259
102
{ACAD_REACTORS
330
6E9
102
}
330
1F
100
AcDbEntity
  8
LC-004-100-D01-0
 62
     7
370
    25
100
AcDbLine
 10
1610.330732
 20
1853.58824
 30
0.0
 11
1612.349872
 21
1865.039352
 31
0.0
  0
LINE
  5
25A
102
{ACAD_REACTORS
330
6E9
102
}
330
1F
100
AcDbEntity
  8
LC-004-100-D01-0
 62
     7
370
    25
100
AcDbLine
 10
1604.069962
 20
1870.413142
 30
0.0
 11
1602.965478
 21
1870.117196
 31
0.0
  0
ARC
  5
25B
102
{ACAD_REACTORS
330
6E9
102
}
330
1F
100
AcDbEntity
  8
LC-009-100-D03-0
 62
     7
370
    25
100
AcDbCircle
 10
1613.33468
 20
1750.574294
 30
0.0
 40
1.000000000000125
100
AcDbArc
 50
190.0
 51
265.0
  0
ARC
  5
25C
102
{ACAD_REACTORS
330
6E9
102
}
330
1F
100
AcDbEntity
  8
LC-009-100-D03-0
 62
     7
370
    25
100
AcDbCircle
 10
1613.54513
 20
1748.548242
 30
0.0
 40
0.9999999999999809
100
AcDbArc
 50
4.0
 51
85.0
  0
ARC
  5
25D
102
{ACAD_REACTORS
330
6E9
102
}
330
1F
100
AcDbEntity
  8
LC-009-100-D03-0
 62
     7
370
    25
100
AcDbCircle
 10
1613.54513
 20
1866.891756
 30
0.0
 40
0.9999999999998402
100
AcDbArc
 50
275.0
 51
356.0
  0
LINE
  5
25E
102
{ACAD_REACTORS
330
6E9
102
}
330
1F
100
AcDbEntity
  8
LC-004-100-D01-0
 62
     7
370
    25
100
AcDbLine
 10
1613.247524
 20
1865.861898
 30
0.0
 11
1613.632286
 21
1865.895562
 31
0.0
  0
ARC
  5
25F
102
{ACAD_REACTORS
330
6E9
102
}
330
1F
100
AcDbEntity
  8
LC-009-100-D03-0
 62
     7
370
    25
100
AcDbCircle
 10
1603.483116
 20
1868.185346
 30
0.0
 40
1.999999999999563
100
AcDbArc
 50
105.0
 51
180.0
  0
ARC
  5
260
102
{ACAD_REACTORS
330
6E9
102
}
330
1F
100
AcDbEntity
  8
LC-009-100-D03-0
 62
     7
370
    25
100
AcDbCircle
 10
1603.034686
 20
1874.276846
 30
0.0
 40
4.000000000000122
100
AcDbArc
 50
285.0
 51
356.0
  0
ARC
  5
261
102
{ACAD_REACTORS
330
6E9
102
}
330
1F
100
AcDbEntity
  8
LC-009-100-D03-0
 62
     7
370
    25
100
AcDbCircle
 10
1613.33468
 20
1864.865704
 30
0.0
 40
0.9999999999998402
100
AcDbArc
 50
95.0
 51
170.0
  0
ARC
  5
262
102
{ACAD_REACTORS
330
6E9
102
}
330
1F
100
AcDbEntity
  8
LC-009-100-D03-0
 62
     7
370
    25
100
AcDbCircle
 10
1605.406694
 20
1854.45648
 30
0.0
 40
5.000000000000231
100
AcDbArc
 50
339.677985
 51
350.0
  0
LINE
  5
263
102
{ACAD_REACTORS
330
6E9
102
}
330
1F
100
AcDbEntity
  8
LC-004-100-D01-0
 62
     7
370
    25
100
AcDbLine
 10
1610.330732
 20
1761.851758
 30
0.0
 11
1612.349872
 21
1750.400646
 31
0.0
  0
ARC
  5
264
102
{ACAD_REACTORS
330
6E9
102
}
330
1F
100
AcDbEntity
  8
LC-009-100-D03-0
 62
     7
370
    25
100
AcDbCircle
 10
1605.406694
 20
1760.983518
 30
0.0
 40
4.999999999999649
100
AcDbArc
 50
10.0
 51
20.32204
  0
LINE
  5
265
102
{ACAD_REACTORS
330
6E9
102
}
330
1F
100
AcDbEntity
  8
LC-004-100-D01-0
 62
     7
370
    25
100
AcDbLine
 10
1601.483116
 20
1747.254654
 30
0.0
 11
1601.483116
 21
1762.72
 31
0.0
  0
ARC
  5
266
102
{ACAD_REACTORS
330
6E9
102
}
330
1F
100
AcDbEntity
  8
LC-009-100-D03-0
 62
     7
370
    25
100
AcDbCircle
 10
1603.483116
 20
1747.254654
 30
0.0
 40
2.0
100
AcDbArc
 50
180.0
 51
255.0
  0
LINE
  5
267
102
{ACAD_REACTORS
330
6E9
102
}
330
1F
100
AcDbEntity
  8
LC-004-100-D01-0
 62
     7
370
    25
100
AcDbLine
 10
1604.069962
 20
1745.026856
 30
0.0
 11
1602.965478
 21
1745.322802
 31
0.0
  0
ARC
  5
268
102
{ACAD_REACTORS
330
6E9
102
}
330
1F
100
AcDbEntity
  8
LC-009-100-D03-0
 62
     7
370
    25
100
AcDbCircle
 10
1603.034686
 20
1741.163152
 30
0.0
 40
4.000000000000019
100
AcDbArc
 50
4.0
 51
75.0
  0
LINE
  5
269
102
{ACAD_REACTORS
330
6E9
102
}
330
1F
100
AcDbEntity
  8
LC-004-100-D01-0
 62
     7
370
    25
100
AcDbLine
 10
1613.247524
 20
1749.5781
 30
0.0
 11
1613.632286
 21
1749.544438
 31
0.0
  0
LINE
  5
26A
102
{ACAD_REACTORS
330
6E9
102
}
330
1F
100
AcDbEntity
  8
LC-004-100-D01-0
 62
     7
370
    25
100
AcDbLine
 10
1601.483116
 20
1868.185346
 30
0.0
 11
1601.483116
 21
1852.72
 31
0.0
  0
LINE
  5
26B
102
{ACAD_REACTORS
330
6E9
102
}
330
1F
100
AcDbEntity
  8
LC-004-100-D01-0
 62
     7
370
    25
100
AcDbLine
 10
1618.826374
 20
1928.081458
 30
0.0
 11
1614.542694
 21
1866.822
 31
0.0
  0
LINE
  5
26C
102
{ACAD_REACTORS
330
6E9
102
}
330
1F
100
AcDbEntity
  8
LC-004-100-D01-0
 62
     7
370
    25
100
AcDbLine
 10
1611.24756
 20
1934.384076
 30
0.0
 11
1607.024942
 21
1873.99782
 31
0.0
  0
LINE
  5
26D
102
{ACAD_REACTORS
330
6E9
102
}
330
1F
100
AcDbEntity
  8
LC-004-100-D01-0
 62
     7
370
    25
100
AcDbLine
 10
1614.542694
 20
1748.617998
 30
0.0
 11
1618.826374
 21
1687.35854
 31
0.0
  0
LINE
  5
26E
102
{ACAD_REACTORS
330
6E9
102
}
330
1F
100
AcDbEntity
  8
LC-004-100-D01-0
 62
     7
370
    25
100
AcDbLine
 10
1607.024942
 20
1741.442178
 30
0.0
 11
1611.24756
 21
1681.055922
 31
0.0
  0
LINE
  5
26F
102
{ACAD_REACTORS
330
6E7
102
}
330
1F
100
AcDbEntity
  8
LC-002-002-----0
 62
     7
370
    50
100
AcDbLine
 10
299.036425
 20
2720.05
 30
0.0
 11
282.036425
 21
2720.05
 31
0.0
  0
LINE
  5
270
102
{ACAD_REACTORS
330
6E7
102
}
330
1F
100
AcDbEntity
  8
LC-002-002-----0
 62
     7
370
    50
100
AcDbLine
 10
1264.826645
 20
2720.05
 30
0.0
 11
1264.826645
 21
2716.55
 31
0.0
  0
LINE
  5
271
102
{ACAD_REACTORS
330
6E7
102
}
330
1F
100
AcDbEntity
  8
LC-002-002-----0
 62
     7
370
    50
100
AcDbLine
 10
741.931535
 20
2573.162353
 30
0.0
 11
741.931535
 21
2564.55
 31
0.0
  0
LINE
  5
272
102
{ACAD_REACTORS
330
6E7
102
}
330
1F
100
AcDbEntity
  8
LC-002-002-----0
 62
     7
370
    50
100
AcDbLine
 10
831.931535
 20
2573.162353
 30
0.0
 11
831.931535
 21
2564.55
 31
0.0
  0
LINE
  5
273
102
{ACAD_REACTORS
330
6E7
102
}
330
1F
100
AcDbEntity
  8
LC-002-002-----0
 62
     7
370
    50
100
AcDbLine
 10
831.931535
 20
2564.55
 30
0.0
 11
741.931535
 21
2564.55
 31
0.0
  0
LINE
  5
274
102
{ACAD_REACTORS
330
6E7
102
}
330
1F
100
AcDbEntity
  8
LC-002-002-----0
 62
     7
370
    50
100
AcDbLine
 10
741.931535
 20
2573.162353
 30
0.0
 11
831.931535
 21
2573.162353
 31
0.0
  0
LINE
  5
275
102
{ACAD_REACTORS
330
6E7
102
}
330
1F
100
AcDbEntity
  8
LC-005-006-MLN-0
 62
     7
370
    25
100
AcDbLine
 10
786.931535
 20
2580.55
 30
0.0
 11
786.931535
 21
2561.55
 31
0.0
  0
LINE
  5
276
102
{ACAD_REACTORS
330
6E7
102
}
330
1F
100
AcDbEntity
  8
LC-002-002-----0
 62
     7
370
    50
100
AcDbLine
 10
299.036425
 20
2716.55
 30
0.0
 11
299.036425
 21
2720.05
 31
0.0
  0
LINE
  5
277
102
{ACAD_REACTORS
330
6E7
102
}
330
1F
100
AcDbEntity
  8
LC-002-002-----0
 62
     7
370
    50
100
AcDbLine
 10
1281.826645
 20
2720.05
 30
0.0
 11
1264.826645
 21
2720.05
 31
0.0
  0
LINE
  5
278
102
{ACAD_REACTORS
330
6E9
102
}
330
1F
100
AcDbEntity
  8
LC-002-002-----0
 62
     7
370
    25
100
AcDbLine
 10
1601.483116
 20
1852.72
 30
0.0
 11
1610.095472
 21
1852.72
 31
0.0
  0
LINE
  5
279
102
{ACAD_REACTORS
330
6E9
102
}
330
1F
100
AcDbEntity
  8
LC-002-002-----0
 62
     7
370
    25
100
AcDbLine
 10
1601.483116
 20
1762.72
 30
0.0
 11
1610.095472
 21
1762.72
 31
0.0
  0
LINE
  5
27A
102
{ACAD_REACTORS
330
6E9
102
}
330
1F
100
AcDbEntity
  8
LC-002-002-----0
 62
     7
370
    25
100
AcDbLine
 10
1601.483116
 20
1852.72
 30
0.0
 11
1601.483116
 21
1762.72
 31
0.0
  0
LINE
  5
27B
102
{ACAD_REACTORS
330
6E9
102
}
330
1F
100
AcDbEntity
  8
LC-002-002-----0
 62
     7
370
    25
100
AcDbLine
 10
1610.095472
 20
1852.72
 30
0.0
 11
1610.095472
 21
1762.72
 31
0.0
  0
LINE
  5
27C
102
{ACAD_REACTORS
330
6E9
102
}
330
1F
100
AcDbEntity
  8
LC-004-100-D01-0
 62
     7
370
    50
100
AcDbLine
 10
1551.022405
 20
1874.163472
 30
0.0
 11
1558.731699
 21
1984.411451
 31
0.0
  0
LINE
  5
27D
102
{ACAD_REACTORS
330
6E9
102
}
330
1F
100
AcDbEntity
  8
LC-004-100-D01-0
 62
     7
370
    50
100
AcDbLine
 10
1554.330731
 20
1853.754572
 30
0.0
 11
1556.349872
 21
1865.205684
 31
0.0
  0
LINE
  5
27E
102
{ACAD_REACTORS
330
6E9
102
}
330
1F
100
AcDbEntity
  8
LC-004-100-D01-0
 62
     7
370
    50
100
AcDbLine
 10
1548.067425
 20
1870.578795
 30
0.0
 11
1546.965478
 21
1870.283529
 31
0.0
  0
ARC
  5
27F
102
{ACAD_REACTORS
330
6E9
102
}
330
1F
100
AcDbEntity
  8
LC-007-100-D02-0
 62
     7
370
    50
100
AcDbCircle
 10
1557.334679
 20
1750.740626
 30
0.0
 40
0.9999999999999668
100
AcDbArc
 50
190.0
 51
265.0
  0
LINE
  5
280
102
{ACAD_REACTORS
330
6E9
102
}
330
1F
100
AcDbEntity
  8
LC-004-100-D01-0
 62
     7
370
    50
100
AcDbLine
 10
1557.247524
 20
1866.028231
 30
0.0
 11
1557.629782
 21
1866.061674
 31
0.0
  0
ARC
  5
281
102
{ACAD_REACTORS
330
6E9
102
}
330
1F
100
AcDbEntity
  8
LC-007-100-D02-0
 62
     7
370
    50
100
AcDbCircle
 10
1547.483116
 20
1868.351677
 30
0.0
 40
2.000000000000002
100
AcDbArc
 50
105.0
 51
180.0
  0
ARC
  5
282
102
{ACAD_REACTORS
330
6E9
102
}
330
1F
100
AcDbEntity
  8
LC-007-100-D02-0
 62
     7
370
    50
100
AcDbCircle
 10
1547.032149
 20
1874.442498
 30
0.0
 40
4.000000000000443
100
AcDbArc
 50
285.0
 51
355.999998
  0
ARC
  5
283
102
{ACAD_REACTORS
330
6E9
102
}
330
1F
100
AcDbEntity
  8
LC-007-100-D02-0
 62
     7
370
    50
100
AcDbCircle
 10
1557.334679
 20
1865.032036
 30
0.0
 40
1.000000000000254
100
AcDbArc
 50
95.0
 51
170.0
  0
ARC
  5
284
102
{ACAD_REACTORS
330
6E9
102
}
330
1F
100
AcDbEntity
  8
LC-007-100-D02-0
 62
     7
370
    50
100
AcDbCircle
 10
1549.406693
 20
1854.622813
 30
0.0
 40
4.999999999995408
100
AcDbArc
 50
339.677963
 51
350.0
  0
LINE
  5
285
102
{ACAD_REACTORS
330
6E9
102
}
330
1F
100
AcDbEntity
  8
LC-004-100-D01-0
 62
     7
370
    50
100
AcDbLine
 10
1554.330731
 20
1762.01809
 30
0.0
 11
1556.349872
 21
1750.566978
 31
0.0
  0
ARC
  5
286
102
{ACAD_REACTORS
330
6E9
102
}
330
1F
100
AcDbEntity
  8
LC-007-100-D02-0
 62
     7
370
    50
100
AcDbCircle
 10
1549.406693
 20
1761.149849
 30
0.0
 40
4.999999999999728
100
AcDbArc
 50
10.0
 51
20.322037
  0
ARC
  5
287
102
{ACAD_REACTORS
330
6E9
102
}
330
1F
100
AcDbEntity
  8
LC-007-100-D02-0
 62
     7
370
    50
100
AcDbCircle
 10
1547.483116
 20
1747.420985
 30
0.0
 40
2.0
100
AcDbArc
 50
180.0
 51
255.0
  0
LINE
  5
288
102
{ACAD_REACTORS
330
6E9
102
}
330
1F
100
AcDbEntity
  8
LC-004-100-D01-0
 62
     7
370
    50
100
AcDbLine
 10
1548.067425
 20
1745.193868
 30
0.0
 11
1546.965478
 21
1745.489133
 31
0.0
  0
ARC
  5
289
102
{ACAD_REACTORS
330
6E9
102
}
330
1F
100
AcDbEntity
  8
LC-007-100-D02-0
 62
     7
370
    50
100
AcDbCircle
 10
1547.032149
 20
1741.330164
 30
0.0
 40
3.999999999999916
100
AcDbArc
 50
4.000002
 51
75.0
  0
LINE
  5
28A
102
{ACAD_REACTORS
330
6E9
102
}
330
1F
100
AcDbEntity
  8
LC-004-100-D01-0
 62
     7
370
    50
100
AcDbLine
 10
1557.247524
 20
1749.744432
 30
0.0
 11
1557.629782
 21
1749.710988
 31
0.0
  0
LINE
  5
28B
102
{ACAD_REACTORS
330
6E9
102
}
330
1F
100
AcDbEntity
  8
LC-004-100-D01-0
 62
     7
370
    50
100
AcDbLine
 10
1743.143151
 20
2024.566465
 30
0.0
 11
1581.057588
 21
2007.530585
 31
0.0
  0
ARC
  5
28C
102
{ACAD_REACTORS
330
6E9
102
}
330
1F
100
AcDbEntity
  8
LC-007-100-D02-0
 62
     7
370
    50
100
AcDbCircle
 10
1759.483116
 20
2026.741986
 30
0.0
 40
5.000000000000052
100
AcDbArc
 50
120.000003
 51
180.0
  0
ARC
  5
28D
102
{ACAD_REACTORS
330
6E9
102
}
330
1F
100
AcDbEntity
  8
LC-007-100-D02-0
 62
     7
370
    50
100
AcDbCircle
 10
1748.483116
 20
2024.12221
 30
0.0
 40
6.000000000000247
100
AcDbArc
 50
276.0
 51
0.0
  0
LINE
  5
28E
102
{ACAD_REACTORS
330
6E9
102
}
330
1F
100
AcDbEntity
  8
LC-004-100-D01-0
 62
     7
370
    50
100
AcDbLine
 10
1753.483116
 20
2040.72
 30
0.0
 11
1753.483116
 21
2039.309785
 31
0.0
  0
LINE
  5
28F
102
{ACAD_REACTORS
330
6E9
102
}
330
1F
100
AcDbEntity
  8
LC-004-100-D01-0
 62
     7
370
    50
100
AcDbLine
 10
1756.983116
 20
2057.72
 30
0.0
 11
1761.622629
 21
2057.395574
 31
0.0
  0
ARC
  5
290
102
{ACAD_REACTORS
330
6E9
102
}
330
1F
100
AcDbEntity
  8
LC-007-100-D02-0
 62
     7
370
    50
100
AcDbCircle
 10
1761.483116
 20
2055.400446
 30
0.0
 40
2.0
100
AcDbArc
 50
0.0
 51
86.0
  0
LINE
  5
291
102
{ACAD_REACTORS
330
6E9
102
}
330
1F
100
AcDbEntity
  8
LC-008-100-D07-0
 62
     7
370
    50
100
AcDbLine
 10
1753.483116
 20
2039.82489
 30
0.0
 11
1752.203353
 21
2039.82489
 31
0.0
  0
ARC
  5
292
102
{ACAD_REACTORS
330
6E9
102
}
330
1F
100
AcDbEntity
  8
LC-007-100-D02-0
 62
     7
370
    50
100
AcDbCircle
 10
1752.203353
 20
2036.82489
 30
0.0
 40
2.999999999999091
100
AcDbArc
 50
90.0
 51
117.0
  0
ARC
  5
293
102
{ACAD_REACTORS
330
6E9
102
}
330
1F
100
AcDbEntity
  8
LC-004-100-D01-0
 62
     7
370
    50
100
AcDbCircle
 10
1760.483116
 20
2027.319336
 30
0.0
 40
12.99999999999991
100
AcDbArc
 50
126.869898
 51
172.91632
  0
ARC
  5
294
102
{ACAD_REACTORS
330
6E9
102
}
330
1F
100
AcDbEntity
  8
LC-007-100-D02-0
 62
     7
370
    50
100
AcDbCircle
 10
1742.620509
 20
2029.539075
 30
0.0
 40
4.999999999999663
100
AcDbArc
 50
276.0
 51
352.91632
  0
ARC
  5
295
102
{ACAD_REACTORS
330
6E9
102
}
330
1F
100
AcDbEntity
  8
LC-007-100-D02-0
 62
     7
370
    50
100
AcDbCircle
 10
1751.483116
 20
2039.319336
 30
0.0
 40
2.0
100
AcDbArc
 50
306.869898
 51
0.0
  0
ARC
  5
296
102
{ACAD_REACTORS
330
6E9
102
}
330
1F
100
AcDbEntity
  8
LC-007-100-D02-0
 62
     7
370
    50
100
AcDbCircle
 10
1734.48033
 20
2028.916885
 30
0.0
 40
2.000000000069763
100
AcDbArc
 50
117.0
 51
243.0
  0
LINE
  5
297
102
{ACAD_REACTORS
330
6E9
102
}
330
1F
100
AcDbEntity
  8
LC-004-100-D01-0
 62
     7
370
    50
100
AcDbLine
 10
1750.841381
 20
2039.49791
 30
0.0
 11
1733.572349
 21
2030.698898
 31
0.0
  0
ARC
  5
298
102
{ACAD_REACTORS
330
6E9
102
}
330
1F
100
AcDbEntity
  8
LC-007-100-D02-0
 62
     7
370
    50
100
AcDbCircle
 10
1735.925805
 20
2024.8134
 30
0.0
 40
1.000000000000275
100
AcDbArc
 50
276.0
 51
63.0
  0
LINE
  5
299
102
{ACAD_REACTORS
330
6E9
102
}
330
1F
100
AcDbEntity
  8
LC-004-100-D01-0
 62
     7
370
    50
100
AcDbLine
 10
1736.379795
 20
2025.704407
 30
0.0
 11
1733.572349
 21
2027.134872
 31
0.0
  0
LINE
  5
29A
102
{ACAD_REACTORS
330
6E9
102
}
330
1F
100
AcDbEntity
  8
LC-004-100-D01-0
 62
     7
370
    50
100
AcDbLine
 10
1749.110287
 20
2018.155079
 30
0.0
 11
1588.640672
 21
2001.289042
 31
0.0
  0
ARC
  5
29B
102
{ACAD_REACTORS
330
6E9
102
}
330
1F
100
AcDbEntity
  8
LC-004-100-D01-0
 62
     7
370
    50
100
AcDbCircle
 10
1761.483116
 20
2035.979591
 30
0.0
 40
2.000000000000164
100
AcDbArc
 50
300.0
 51
0.0
  0
LINE
  5
29C
102
{ACAD_REACTORS
330
6E9
102
}
330
1F
100
AcDbEntity
  8
LC-004-100-D01-0
 62
     7
370
    50
100
AcDbLine
 10
1756.983116
 20
2031.072113
 30
0.0
 11
1762.483116
 21
2034.24754
 31
0.0
  0
LINE
  5
29D
102
{ACAD_REACTORS
330
6E9
102
}
330
1F
100
AcDbEntity
  8
LC-004-100-D01-0
 62
     7
370
    50
100
AcDbLine
 10
1558.54019
 20
1866.988112
 30
0.0
 11
1566.314782
 21
1978.169907
 31
0.0
  0
LINE
  5
29E
102
{ACAD_REACTORS
330
6E9
102
}
330
1F
100
AcDbEntity
  8
LC-004-100-D01-0
 62
     7
370
    50
100
AcDbLine
 10
1763.483116
 20
2055.400446
 30
0.0
 11
1763.483116
 21
2035.979591
 31
0.0
  0
LINE
  5
29F
102
{ACAD_REACTORS
330
6E9
102
}
330
1F
100
AcDbEntity
  8
LC-004-100-D01-0
 62
     7
370
    50
100
AcDbLine
 10
1754.483116
 20
2026.741986
 30
0.0
 11
1754.483116
 21
2024.12221
 31
0.0
  0
LINE
  5
2A0
102
{ACAD_REACTORS
330
6E9
102
}
330
1F
100
AcDbEntity
  8
LC-002-002-----0
 62
     7
370
    50
100
AcDbLine
 10
1756.983116
 20
2040.72
 30
0.0
 11
1753.483116
 21
2040.72
 31
0.0
  0
LINE
  5
2A1
102
{ACAD_REACTORS
330
6E9
102
}
330
1F
100
AcDbEntity
  8
LC-002-002-----0
 62
     7
370
    50
100
AcDbLine
 10
1756.983116
 20
2057.72
 30
0.0
 11
1756.983116
 21
2040.72
 31
0.0
  0
ARC
  5
2A2
102
{ACAD_REACTORS
330
6E9
102
}
330
1F
100
AcDbEntity
  8
LC-004-100-D01-0
 62
     7
370
    50
100
AcDbCircle
 10
1591.253884
 20
1976.425994
 30
0.0
 40
25.0
100
AcDbArc
 50
96.0
 51
175.999998
  0
ARC
  5
2A3
102
{ACAD_REACTORS
330
6E9
102
}
330
1F
100
AcDbEntity
  8
LC-004-100-D01-0
 62
     7
370
    50
100
AcDbCircle
 10
1583.6708
 20
1982.667538
 30
0.0
 40
25.0000000000001
100
AcDbArc
 50
96.0
 51
175.999998
  0
ARC
  5
2A4
102
{ACAD_REACTORS
330
6E9
102
}
330
1F
100
AcDbEntity
  8
LC-004-100-D01-0
 62
     7
370
    50
100
AcDbCircle
 10
1591.253884
 20
1639.346668
 30
0.0
 40
25.0000000000001
100
AcDbArc
 50
184.000002
 51
264.0
  0
ARC
  5
2A5
102
{ACAD_REACTORS
330
6E9
102
}
330
1F
100
AcDbEntity
  8
LC-004-100-D01-0
 62
     7
370
    50
100
AcDbCircle
 10
1583.6708
 20
1633.105124
 30
0.0
 40
25.0000000000001
100
AcDbArc
 50
184.000002
 51
264.0
  0
LINE
  5
2A6
102
{ACAD_REACTORS
330
6E9
102
}
330
1F
100
AcDbEntity
  8
LC-004-100-D01-0
 62
     7
370
    50
100
AcDbLine
 10
1743.143151
 20
1591.206197
 30
0.0
 11
1581.057588
 21
1608.242077
 31
0.0
  0
LINE
  5
2A7
102
{ACAD_REACTORS
330
6E9
102
}
330
1F
100
AcDbEntity
  8
LC-004-100-D01-0
 62
     7
370
    50
100
AcDbLine
 10
1749.110287
 20
1597.617584
 30
0.0
 11
1588.640672
 21
1614.483621
 31
0.0
  0
LINE
  5
2A8
102
{ACAD_REACTORS
330
6E9
102
}
330
1F
100
AcDbEntity
  8
LC-004-100-D01-0
 62
     7
370
    50
100
AcDbLine
 10
1551.022405
 20
1741.60919
 30
0.0
 11
1558.731699
 21
1631.361212
 31
0.0
  0
LINE
  5
2A9
102
{ACAD_REACTORS
330
6E9
102
}
330
1F
100
AcDbEntity
  8
LC-004-100-D01-0
 62
     7
370
    50
100
AcDbLine
 10
1558.54019
 20
1748.78455
 30
0.0
 11
1566.314782
 21
1637.602755
 31
0.0
  0
ARC
  5
2AA
102
{ACAD_REACTORS
330
6E9
102
}
330
1F
100
AcDbEntity
  8
LC-007-100-D02-0
 62
     7
370
    50
100
AcDbCircle
 10
1759.483116
 20
1589.030676
 30
0.0
 40
5.0
100
AcDbArc
 50
180.0
 51
239.999997
  0
ARC
  5
2AB
102
{ACAD_REACTORS
330
6E9
102
}
330
1F
100
AcDbEntity
  8
LC-007-100-D02-0
 62
     7
370
    50
100
AcDbCircle
 10
1748.483116
 20
1591.650452
 30
0.0
 40
6.000000000000227
100
AcDbArc
 50
0.0
 51
84.0
  0
LINE
  5
2AC
102
{ACAD_REACTORS
330
6E9
102
}
330
1F
100
AcDbEntity
  8
LC-004-100-D01-0
 62
     7
370
    50
100
AcDbLine
 10
1753.483116
 20
1575.052662
 30
0.0
 11
1753.483116
 21
1576.453326
 31
0.0
  0
LINE
  5
2AD
102
{ACAD_REACTORS
330
6E9
102
}
330
1F
100
AcDbEntity
  8
LC-004-100-D01-0
 62
     7
370
    50
100
AcDbLine
 10
1756.983116
 20
1558.052662
 30
0.0
 11
1761.622629
 21
1558.377089
 31
0.0
  0
ARC
  5
2AE
102
{ACAD_REACTORS
330
6E9
102
}
330
1F
100
AcDbEntity
  8
LC-007-100-D02-0
 62
     7
370
    50
100
AcDbCircle
 10
1761.483116
 20
1560.372217
 30
0.0
 40
2.000000000000025
100
AcDbArc
 50
274.0
 51
0.0
  0
ARC
  5
2AF
102
{ACAD_REACTORS
330
6E9
102
}
330
1F
100
AcDbEntity
  8
LC-007-100-D02-0
 62
     7
370
    50
100
AcDbCircle
 10
1752.203353
 20
1578.947772
 30
0.0
 40
2.999999999998992
100
AcDbArc
 50
243.0
 51
270.0
  0
ARC
  5
2B0
102
{ACAD_REACTORS
330
6E9
102
}
330
1F
100
AcDbEntity
  8
LC-004-100-D01-0
 62
     7
370
    50
100
AcDbCircle
 10
1760.483116
 20
1588.453326
 30
0.0
 40
13.00000000000001
100
AcDbArc
 50
187.08368
 51
233.130102
  0
ARC
  5
2B1
102
{ACAD_REACTORS
330
6E9
102
}
330
1F
100
AcDbEntity
  8
LC-007-100-D02-0
 62
     7
370
    50
100
AcDbCircle
 10
1742.620509
 20
1586.233587
 30
0.0
 40
4.999999999999772
100
AcDbArc
 50
7.08368
 51
84.0
  0
ARC
  5
2B2
102
{ACAD_REACTORS
330
6E9
102
}
330
1F
100
AcDbEntity
  8
LC-007-100-D02-0
 62
     7
370
    50
100
AcDbCircle
 10
1734.48033
 20
1586.855777
 30
0.0
 40
2.00000000006966
100
AcDbArc
 50
117.0
 51
243.0
  0
LINE
  5
2B3
102
{ACAD_REACTORS
330
6E9
102
}
330
1F
100
AcDbEntity
  8
LC-004-100-D01-0
 62
     7
370
    50
100
AcDbLine
 10
1750.841381
 20
1576.274753
 30
0.0
 11
1733.572349
 21
1585.073764
 31
0.0
  0
ARC
  5
2B4
102
{ACAD_REACTORS
330
6E9
102
}
330
1F
100
AcDbEntity
  8
LC-007-100-D02-0
 62
     7
370
    50
100
AcDbCircle
 10
1735.925805
 20
1590.959262
 30
0.0
 40
1.000000000000207
100
AcDbArc
 50
297.0
 51
61.064639
  0
LINE
  5
2B5
102
{ACAD_REACTORS
330
6E9
102
}
330
1F
100
AcDbEntity
  8
LC-004-100-D01-0
 62
     7
370
    50
100
AcDbLine
 10
1736.379795
 20
1590.068256
 30
0.0
 11
1733.572349
 21
1588.63779
 31
0.0
  0
ARC
  5
2B6
102
{ACAD_REACTORS
330
6E9
102
}
330
1F
100
AcDbEntity
  8
LC-004-100-D01-0
 62
     7
370
    50
100
AcDbCircle
 10
1761.483116
 20
1579.793072
 30
0.0
 40
2.000000000000227
100
AcDbArc
 50
0.0
 51
60.0
  0
LINE
  5
2B7
102
{ACAD_REACTORS
330
6E9
102
}
330
1F
100
AcDbEntity
  8
LC-004-100-D01-0
 62
     7
370
    50
100
AcDbLine
 10
1756.983116
 20
1584.70055
 30
0.0
 11
1762.483116
 21
1581.525123
 31
0.0
  0
LINE
  5
2B8
102
{ACAD_REACTORS
330
6E9
102
}
330
1F
100
AcDbEntity
  8
LC-002-002-----0
 62
     7
370
    50
100
AcDbLine
 10
1756.983116
 20
1575.052662
 30
0.0
 11
1753.483116
 21
1575.052662
 31
0.0
  0
LINE
  5
2B9
102
{ACAD_REACTORS
330
6E9
102
}
330
1F
100
AcDbEntity
  8
LC-002-002-----0
 62
     7
370
    50
100
AcDbLine
 10
1756.983116
 20
1558.052662
 30
0.0
 11
1756.983116
 21
1575.052662
 31
0.0
  0
LINE
  5
2BA
102
{ACAD_REACTORS
330
6E9
102
}
330
1F
100
AcDbEntity
  8
LC-002-002-----0
 62
     7
370
    50
100
AcDbLine
 10
1545.483116
 20
1852.886331
 30
0.0
 11
1554.09547
 21
1852.886331
 31
0.0
  0
LINE
  5
2BB
102
{ACAD_REACTORS
330
6E9
102
}
330
1F
100
AcDbEntity
  8
LC-002-002-----0
 62
     7
370
    50
100
AcDbLine
 10
1545.483116
 20
1762.886331
 30
0.0
 11
1554.09547
 21
1762.886331
 31
0.0
  0
LINE
  5
2BC
102
{ACAD_REACTORS
330
6E9
102
}
330
1F
100
AcDbEntity
  8
LC-002-002-----0
 62
     7
370
    50
100
AcDbLine
 10
1545.483116
 20
1868.351677
 30
0.0
 11
1545.483116
 21
1852.886331
 31
0.0
  0
LINE
  5
2BD
102
{ACAD_REACTORS
330
6E9
102
}
330
1F
100
AcDbEntity
  8
LC-002-002-----0
 62
     7
370
    50
100
AcDbLine
 10
1545.483116
 20
1747.420985
 30
0.0
 11
1545.483116
 21
1762.886331
 31
0.0
  0
LINE
  5
2BE
102
{ACAD_REACTORS
330
6E9
102
}
330
1F
100
AcDbEntity
  8
LC-005-006-MLN-0
 62
     7
370
    25
100
AcDbLine
 10
1617.483116
 20
1807.886331
 30
0.0
 11
1598.483116
 21
1807.886331
 31
0.0
  0
LINE
  5
2BF
102
{ACAD_REACTORS
330
6E9
102
}
330
1F
100
AcDbEntity
  8
LC-002-002-----0
 62
     7
370
    50
100
AcDbLine
 10
1763.483116
 20
1626.709714
 30
0.0
 11
1763.483116
 21
1983.566828
 31
0.0
  0
LINE
  5
2C0
102
{ACAD_REACTORS
330
6E7
102
}
330
1F
100
AcDbEntity
  8
LC-002-002-----0
 62
     7
370
    50
100
AcDbLine
 10
961.931535
 20
2508.55
 30
0.0
 11
961.931535
 21
2517.162353
 31
0.0
  0
LINE
  5
2C1
102
{ACAD_REACTORS
330
6E7
102
}
330
1F
100
AcDbEntity
  8
LC-002-002-----0
 62
     7
370
    50
100
AcDbLine
 10
1051.931535
 20
2508.55
 30
0.0
 11
1051.931535
 21
2517.162353
 31
0.0
  0
LINE
  5
2C2
102
{ACAD_REACTORS
330
6E7
102
}
330
1F
100
AcDbEntity
  8
LC-002-002-----0
 62
     7
370
    50
100
AcDbLine
 10
1067.396881
 20
2508.55
 30
0.0
 11
1051.931535
 21
2508.55
 31
0.0
  0
LINE
  5
2C3
102
{ACAD_REACTORS
330
6E7
102
}
330
1F
100
AcDbEntity
  8
LC-002-002-----0
 62
     7
370
    50
100
AcDbLine
 10
946.466189
 20
2508.55
 30
0.0
 11
961.931535
 21
2508.55
 31
0.0
  0
LINE
  5
2C4
102
{ACAD_REACTORS
330
6E7
102
}
330
1F
100
AcDbEntity
  8
LC-002-002-----0
 62
     7
370
    50
100
AcDbLine
 10
1051.931535
 20
2508.55
 30
0.0
 11
961.931535
 21
2508.55
 31
0.0
  0
LINE
  5
2C5
102
{ACAD_REACTORS
330
6E7
102
}
330
1F
100
AcDbEntity
  8
LC-002-002-----0
 62
     7
370
    50
100
AcDbLine
 10
961.931535
 20
2517.162353
 30
0.0
 11
1051.931535
 21
2517.162353
 31
0.0
  0
INSERT
  5
2E2
102
{ACAD_REACTORS
330
6E7
102
}
330
1F
100
AcDbEntity
  8
LC-012-003-----0
 62
     7
370
    25
100
AcDbBlockReference
  2
LCDIM1
 10
0.0
 20
0.0
 30
0.0
  0
INSERT
  5
2FC
102
{ACAD_REACTORS
330
6E7
102
}
330
1F
100
AcDbEntity
  8
LC-012-003-----0
 62
     7
370
    25
100
AcDbBlockReference
  2
LCDIM2
 10
0.0
 20
0.0
 30
0.0
  0
INSERT
  5
316
102
{ACAD_REACTORS
330
6E9
102
}
330
1F
100
AcDbEntity
  8
LC-012-003-----0
 62
     7
370
    25
100
AcDbBlockReference
  2
LCDIM3
 10
0.0
 20
0.0
 30
0.0
  0
INSERT
  5
330
102
{ACAD_REACTORS
330
6E9
102
}
330
1F
100
AcDbEntity
  8
LC-012-003-----0
 62
     7
370
    25
100
AcDbBlockReference
  2
LCDIM4
 10
0.0
 20
0.0
 30
0.0
  0
LINE
  5
331
102
{ACAD_REACTORS
330
6EC
102
}
330
1F
100
AcDbEntity
  8
LC-002-002-----0
 62
     7
370
    50
100
AcDbLine
 10
400.518564
 20
1039.162575
 30
0.0
 11
400.518564
 21
809.162575
 31
0.0
  0
LINE
  5
332
102
{ACAD_REACTORS
330
6EC
102
}
330
1F
100
AcDbEntity
  8
LC-002-002-----0
 62
     7
370
    50
100
AcDbLine
 10
405.518564
 20
804.162575
 30
0.0
 11
885.518564
 21
804.162575
 31
0.0
  0
LINE
  5
333
102
{ACAD_REACTORS
330
6EC
102
}
330
1F
100
AcDbEntity
  8
LC-002-002-----0
 62
     7
370
    50
100
AcDbLine
 10
890.518564
 20
809.162575
 30
0.0
 11
890.518564
 21
1039.162575
 31
0.0
  0
LINE
  5
334
102
{ACAD_REACTORS
330
6EC
102
}
330
1F
100
AcDbEntity
  8
LC-002-002-----0
 62
     7
370
    50
100
AcDbLine
 10
885.518564
 20
1044.162575
 30
0.0
 11
405.518564
 21
1044.162575
 31
0.0
  0
ARC
  5
335
102
{ACAD_REACTORS
330
6EC
102
}
330
1F
100
AcDbEntity
  8
LC-006-002-RND-0
 62
     7
370
    50
100
AcDbCircle
 10
405.518564
 20
1039.162575
 30
0.0
 40
5.0
100
AcDbArc
 50
90.0
 51
180.0
  0
ARC
  5
336
102
{ACAD_REACTORS
330
6EC
102
}
330
1F
100
AcDbEntity
  8
LC-006-002-RND-0
 62
     7
370
    50
100
AcDbCircle
 10
885.518564
 20
1039.162575
 30
0.0
 40
5.0
100
AcDbArc
 50
0.0
 51
90.0
  0
ARC
  5
337
102
{ACAD_REACTORS
330
6EC
102
}
330
1F
100
AcDbEntity
  8
LC-006-002-RND-0
 62
     7
370
    50
100
AcDbCircle
 10
885.518564
 20
809.162575
 30
0.0
 40
5.0
100
AcDbArc
 50
270.0
 51
0.0
  0
ARC
  5
338
102
{ACAD_REACTORS
330
6EC
102
}
330
1F
100
AcDbEntity
  8
LC-006-002-RND-0
 62
     7
370
    50
100
AcDbCircle
 10
405.518564
 20
809.162575
 30
0.0
 40
5.0
100
AcDbArc
 50
180.0
 51
270.0
  0
INSERT
  5
352
102
{ACAD_REACTORS
330
6EC
102
}
330
1F
100
AcDbEntity
  8
LC-012-003-----0
 62
     7
370
    25
100
AcDbBlockReference
  2
LCDIM5
 10
0.0
 20
0.0
 30
0.0
  0
INSERT
  5
361
102
{ACAD_REACTORS
330
6EC
102
}
330
1F
100
AcDbEntity
  8
LC-012-003-----0
 62
     7
370
    25
100
AcDbBlockReference
  2
LCDIM6
 10
0.0
 20
0.0
 30
0.0
  0
TEXT
  5
363
102
{ACAD_REACTORS
330
6EC
102
}
330
1F
100
AcDbEntity
  8
LC-013-004-----0
 62
     7
370
    35
100
AcDbText
 10
411.680636
 20
1172.644629
 30
0.0
 40
35.0
  1
Ausschnitt übergreifend M 1:20
 41
0.8
  7
LCTX0-400-0-0pDIN-Schrift
100
AcDbText
  0
INSERT
  5
37D
102
{ACAD_REACTORS
330
6E8
102
}
330
1F
100
AcDbEntity
  8
LC-012-003-----0
 62
     7
370
    25
100
AcDbBlockReference
  2
LCDIM7
 10
0.0
 20
0.0
 30
0.0
  0
INSERT
  5
397
102
{ACAD_REACTORS
330
6E8
102
}
330
1F
100
AcDbEntity
  8
LC-012-003-----0
 62
     7
370
    25
100
AcDbBlockReference
  2
LCDIM8
 10
0.0
 20
0.0
 30
0.0
  0
LINE
  5
398
102
{ACAD_REACTORS
330
6E7
102
}
330
1F
100
AcDbEntity
  8
LC-002-002-----0
 62
     7
370
    50
100
AcDbLine
 10
1271.826645
 20
2720.05
 30
0.0
 11
1271.826645
 21
2681.05
 31
0.0
  0
LINE
  5
399
102
{ACAD_REACTORS
330
6E7
102
}
330
1F
100
AcDbEntity
  8
LC-002-002-----0
 62
     7
370
    50
100
AcDbLine
 10
1325.038052
 20
2681.05
 30
0.0
 11
1271.826645
 21
2681.05
 31
0.0
  0
LINE
  5
39A
102
{ACAD_REACTORS
330
6E7
102
}
330
1F
100
AcDbEntity
  8
LC-002-002-----0
 62
     7
370
    50
100
AcDbLine
 10
1271.826645
 20
2720.05
 30
0.0
 11
1318.926066
 21
2720.05
 31
0.0
  0
LINE
  5
39B
102
{ACAD_REACTORS
330
6E7
102
}
330
1F
100
AcDbEntity
  8
LC-002-002-----0
 62
     7
370
    25
100
AcDbLine
 10
1318.926066
 20
2720.05
 30
0.0
 11
1325.038052
 21
2698.02923
 31
0.0
  0
LINE
  5
39C
102
{ACAD_REACTORS
330
6E7
102
}
330
1F
100
AcDbEntity
  8
LC-002-002-----0
 62
     7
370
    25
100
AcDbLine
 10
1325.038052
 20
2698.02923
 30
0.0
 11
1325.038052
 21
2681.05
 31
0.0
  0
INSERT
  5
3A3
102
{ACAD_REACTORS
330
6E7
102
}
330
1F
100
AcDbEntity
  8
LC-014-005-----0
 62
     7
370
    25
100
AcDbBlockReference
  2
*X110
 10
0.0
 20
0.0
 30
0.0
  0
LINE
  5
3A4
102
{ACAD_REACTORS
330
6E9
102
}
330
1F
100
AcDbEntity
  8
LC-004-100-D01-0
 62
     7
370
    50
100
AcDbLine
 10
1754.483116
 20
1591.650452
 30
0.0
 11
1754.483116
 21
1589.030676
 31
0.0
  0
LINE
  5
3A5
102
{ACAD_REACTORS
330
6E9
102
}
330
1F
100
AcDbEntity
  8
LC-004-100-D01-0
 62
     7
370
    50
100
AcDbLine
 10
1763.483116
 20
1579.793072
 30
0.0
 11
1763.483116
 21
1560.372217
 31
0.0
  0
LINE
  5
3A6
102
{ACAD_REACTORS
330
6E9
102
}
330
1F
100
AcDbEntity
  8
LC-004-100-D01-0
 62
     7
370
    25
100
AcDbLine
 10
1754.483116
 20
1652.069982
 30
0.0
 11
1754.483116
 21
1627.119754
 31
0.0
  0
ARC
  5
3A7
102
{ACAD_REACTORS
330
6E9
102
}
330
1F
100
AcDbEntity
  8
LC-004-100-D01-0
 62
     7
370
    50
100
AcDbCircle
 10
1557.542626
 20
1867.057869
 30
0.0
 40
1.000000000000067
100
AcDbArc
 50
275.0
 51
355.999998
  0
ARC
  5
3A8
102
{ACAD_REACTORS
330
6E9
102
}
330
1F
100
AcDbEntity
  8
LC-004-100-D01-0
 62
     7
370
    50
100
AcDbCircle
 10
1557.542626
 20
1748.714794
 30
0.0
 40
0.999999999999971
100
AcDbArc
 50
4.000002
 51
85.0
  0
ARC
  5
3A9
102
{ACAD_REACTORS
330
6E9
102
}
330
1F
100
AcDbEntity
  8
LC-004-100-D01-0
 62
     7
370
    50
100
AcDbCircle
 10
1751.483116
 20
1576.453326
 30
0.0
 40
2.0
100
AcDbArc
 50
0.0
 51
53.130102
  0
LINE
  5
3AA
102
{ACAD_REACTORS
330
6E9
102
}
330
1F
100
AcDbEntity
  8
LC-002-002-----0
 62
     7
370
    50
100
AcDbLine
 10
1545.483116
 20
1852.886331
 30
0.0
 11
1545.483116
 21
1762.886331
 31
0.0
  0
LINE
  5
3AB
102
{ACAD_REACTORS
330
6E9
102
}
330
1F
100
AcDbEntity
  8
LC-002-002-----0
 62
     7
370
    50
100
AcDbLine
 10
1554.09547
 20
1852.886331
 30
0.0
 11
1554.09547
 21
1762.886331
 31
0.0
  0
LINE
  5
3AC
102
{ACAD_REACTORS
330
6E9
102
}
330
1F
100
AcDbEntity
  8
LC-002-002-----0
 62
     7
370
    25
100
AcDbLine
 10
1558.480613
 20
1866.136112
 30
0.0
 11
1558.480613
 21
1807.886331
 31
0.0
  0
LINE
  5
3AD
102
{ACAD_REACTORS
330
6E9
102
}
330
1F
100
AcDbEntity
  8
LC-002-002-----0
 62
     7
370
    25
100
AcDbLine
 10
1558.480613
 20
1749.63655
 30
0.0
 11
1558.480613
 21
1807.886331
 31
0.0
  0
LINE
  5
3AE
102
{ACAD_REACTORS
330
6E9
102
}
330
1F
100
AcDbEntity
  8
LC-002-002-----0
 62
     7
370
    50
100
AcDbLine
 10
1763.483116
 20
2035.979591
 30
0.0
 11
1763.483116
 21
1579.793072
 31
0.0
  0
INSERT
  5
3C8
102
{ACAD_REACTORS
330
6E7
102
}
330
1F
100
AcDbEntity
  8
LC-012-003-----0
 62
     7
370
    25
100
AcDbBlockReference
  2
LCDIM9
 10
0.0
 20
0.0
 30
0.0
  0
INSERT
  5
3E2
102
{ACAD_REACTORS
330
6E7
102
}
330
1F
100
AcDbEntity
  8
LC-012-003-----0
 62
     7
370
    25
100
AcDbBlockReference
  2
LCDIM10
 10
0.0
 20
0.0
 30
0.0
  0
LINE
  5
3E3
102
{ACAD_REACTORS
330
6E7
102
}
330
1F
100
AcDbEntity
  8
LC-005-006-MLN-0
 62
     7
370
    25
100
AcDbLine
 10
896.29559
 20
2675.504715
 30
0.0
 11
909.224375
 21
2676.863585
 31
0.0
  0
LINE
  5
3E4
102
{ACAD_REACTORS
330
6F1
102
}
330
1F
100
AcDbEntity
  8
LC-002-002-----0
 62
     7
370
    50
100
AcDbLine
 10
1271.826645
 20
2681.05
 30
0.0
 11
1271.826645
 21
2594.424578
 31
0.0
  0
LINE
  5
3E5
102
{ACAD_REACTORS
330
6F1
102
}
330
1F
100
AcDbEntity
  8
LC-002-002-----0
 62
     7
370
    50
100
AcDbLine
 10
1252.826645
 20
2681.05
 30
0.0
 11
1252.826645
 21
2594.424578
 31
0.0
  0
LINE
  5
3E6
102
{ACAD_REACTORS
330
6F1
102
}
330
1F
100
AcDbEntity
  8
LC-002-002-----0
 62
     7
370
    50
100
AcDbLine
 10
1252.826645
 20
2681.05
 30
0.0
 11
1271.826645
 21
2681.05
 31
0.0
  0
LINE
  5
3E7
102
{ACAD_REACTORS
330
6F1
102
}
330
1F
100
AcDbEntity
  8
LC-002-002-----0
 62
     7
370
    50
100
AcDbLine
 10
671.826645
 20
2681.05
 30
0.0
 11
671.826645
 21
2594.424578
 31
0.0
  0
LINE
  5
3E8
102
{ACAD_REACTORS
330
6F1
102
}
330
1F
100
AcDbEntity
  8
LC-002-002-----0
 62
     7
370
    50
100
AcDbLine
 10
690.826645
 20
2681.05
 30
0.0
 11
690.826645
 21
2594.424578
 31
0.0
  0
LINE
  5
3E9
102
{ACAD_REACTORS
330
6F1
102
}
330
1F
100
AcDbEntity
  8
LC-002-002-----0
 62
     7
370
    50
100
AcDbLine
 10
671.826645
 20
2681.05
 30
0.0
 11
690.826645
 21
2681.05
 31
0.0
  0
INSERT
  5
403
102
{ACAD_REACTORS
330
6F1
102
}
330
1F
100
AcDbEntity
  8
LC-012-003-----0
 62
     7
370
    25
100
AcDbBlockReference
  2
LCDIM11
 10
0.0
 20
0.0
 30
0.0
  0
LINE
  5
404
102
{ACAD_REACTORS
330
6F3
102
}
330
1F
100
AcDbEntity
  8
LC-002-002-----0
 62
     7
370
    25
100
AcDbLine
 10
897.136322
 20
2696.206
 30
0.0
 11
892.163713
 21
2695.683357
 31
0.0
  0
LINE
  5
405
102
{ACAD_REACTORS
330
6F3
102
}
330
1F
100
AcDbEntity
  8
LC-002-002-----0
 62
     7
370
    25
100
AcDbLine
 10
901.421989
 20
2655.430602
 30
0.0
 11
896.44938
 21
2654.90796
 31
0.0
  0
LINE
  5
406
102
{ACAD_REACTORS
330
6F3
102
}
330
1F
100
AcDbEntity
  8
LC-002-002-----0
 62
     7
370
    25
100
AcDbLine
 10
896.44938
 20
2654.90796
 30
0.0
 11
892.163713
 21
2695.683357
 31
0.0
  0
LINE
  5
407
102
{ACAD_REACTORS
330
6F3
102
}
330
1F
100
AcDbEntity
  8
LC-002-002-----0
 62
     7
370
    25
100
AcDbLine
 10
904.960212
 20
2593.066346
 30
0.0
 11
898.438423
 21
2655.117017
 31
0.0
  0
LINE
  5
408
102
{ACAD_REACTORS
330
6F3
102
}
330
1F
100
AcDbEntity
  8
LC-002-002-----0
 62
     7
370
    25
100
AcDbLine
 10
883.08073
 20
2590.76672
 30
0.0
 11
875.409129
 21
2663.757131
 31
0.0
  0
ARC
  5
409
102
{ACAD_REACTORS
330
6F3
102
}
330
1F
100
AcDbEntity
  8
LC-002-002-----0
 62
     7
370
    25
100
AcDbCircle
 10
881.37626
 20
2664.384302
 30
0.0
 40
6.000000000034613
100
AcDbArc
 50
105.594068
 51
186.0
  0
LINE
  5
40A
102
{ACAD_REACTORS
330
6F3
102
}
330
1F
100
AcDbEntity
  8
LC-002-002-----0
 62
     7
370
    25
100
AcDbLine
 10
892.451166
 20
2692.948422
 30
0.0
 11
890.959383
 21
2692.791629
 31
0.0
  0
LINE
  5
40B
102
{ACAD_REACTORS
330
6F3
102
}
330
1F
100
AcDbEntity
  8
LC-002-002-----0
 62
     7
370
    25
100
AcDbLine
 10
880.486267
 20
2663.285252
 30
0.0
 11
878.348056
 21
2683.628964
 31
0.0
  0
LINE
  5
40C
102
{ACAD_REACTORS
330
6F3
102
}
330
1F
100
AcDbEntity
  8
LC-002-002-----0
 62
     7
370
    25
100
AcDbLine
 10
890.959383
 20
2692.791629
 30
0.0
 11
878.348056
 21
2683.628964
 31
0.0
  0
LINE
  5
40D
102
{ACAD_REACTORS
330
6F3
102
}
330
1F
100
AcDbEntity
  8
LC-002-002-----0
 62
     7
370
    25
100
AcDbLine
 10
895.822209
 20
2660.875091
 30
0.0
 11
884.882468
 21
2659.725278
 31
0.0
  0
ARC
  5
40E
102
{ACAD_REACTORS
330
6F3
102
}
330
1F
100
AcDbEntity
  8
LC-006-002-RND-0
 62
     7
370
    25
100
AcDbCircle
 10
884.464354
 20
2663.703365
 30
0.0
 40
4.000000000000038
100
AcDbArc
 50
186.0
 51
276.0
  0
LINE
  5
40F
102
{ACAD_REACTORS
330
6E9
102
}
330
1F
100
AcDbEntity
  8
LC-005-006-MLN-0
 62
     7
370
    25
100
AcDbLine
 10
1561.480613
 20
1807.886331
 30
0.0
 11
1542.483116
 21
1807.886331
 31
0.0
  0
INSERT
  5
417
102
{ACAD_REACTORS
330
6E7
102
}
330
1F
100
AcDbEntity
  8
LC-014-005-----0
 62
     7
370
    25
100
AcDbBlockReference
  2
*X214
 10
0.0
 20
0.0
 30
0.0
  0
INSERT
  5
431
330
1F
100
AcDbEntity
  8
LC-012-003-----0
 62
     7
370
    25
100
AcDbBlockReference
  2
LCDIM12
 10
0.0
 20
0.0
 30
0.0
  0
INSERT
  5
44B
330
1F
100
AcDbEntity
  8
LC-012-003-----0
 62
     7
370
    25
100
AcDbBlockReference
  2
LCDIM13
 10
0.0
 20
0.0
 30
0.0
  0
LINE
  5
44C
102
{ACAD_REACTORS
330
6F5
102
}
330
1F
100
AcDbEntity
  8
LC-002-002-----0
 62
     7
370
    25
100
AcDbLine
 10
957.027814
 20
2412.156631
 30
0.0
 11
982.727814
 21
2412.156631
 31
0.0
  0
LINE
  5
44D
102
{ACAD_REACTORS
330
6F5
102
}
330
1F
100
AcDbEntity
  8
LC-002-002-----0
 62
     7
370
    25
100
AcDbLine
 10
985.127814
 20
2414.556631
 30
0.0
 11
987.144185
 21
2414.556631
 31
0.0
  0
LINE
  5
44E
102
{ACAD_REACTORS
330
6F5
102
}
330
1F
100
AcDbEntity
  8
LC-002-002-----0
 62
     7
370
    25
100
AcDbLine
 10
957.027814
 20
2455.738912
 30
0.0
 11
978.58962
 21
2455.738912
 31
0.0
  0
LINE
  5
44F
102
{ACAD_REACTORS
330
6F5
102
}
330
1F
100
AcDbEntity
  8
LC-002-002-----0
 62
     7
370
    25
100
AcDbLine
 10
982.727814
 20
2420.466843
 30
0.0
 11
982.727814
 21
2412.156631
 31
0.0
  0
LINE
  5
450
102
{ACAD_REACTORS
330
6F5
102
}
330
1F
100
AcDbEntity
  8
LC-002-002-----0
 62
     7
370
    25
100
AcDbLine
 10
982.727924
 20
2412.156741
 30
0.0
 11
985.12786
 21
2414.556677
 31
0.0
  0
INSERT
  5
45B
102
{ACAD_REACTORS
330
6F5
102
}
330
1F
100
AcDbEntity
  8
LC-015-100-D00-0
 62
     6
370
    25
100
AcDbBlockReference
  2
POLY1
 10
0.0
 20
0.0
 30
0.0
  0
LINE
  5
45C
102
{ACAD_REACTORS
330
6F5
102
}
330
1F
100
AcDbEntity
  8
LC-002-002-----0
 62
     7
370
    25
100
AcDbLine
 10
954.527814
 20
2406.242978
 30
0.0
 11
957.027814
 21
2406.242978
 31
0.0
  0
LINE
  5
45D
102
{ACAD_REACTORS
330
6F5
102
}
330
1F
100
AcDbEntity
  8
LC-002-002-----0
 62
     7
370
    25
100
AcDbLine
 10
953.527814
 20
2406.992978
 30
0.0
 11
953.777814
 21
2406.992978
 31
0.0
  0
LINE
  5
45E
102
{ACAD_REACTORS
330
6F5
102
}
330
1F
100
AcDbEntity
  8
LC-002-002-----0
 62
     7
370
    25
100
AcDbLine
 10
953.527814
 20
2408.147772
 30
0.0
 11
940.027814
 21
2408.147772
 31
0.0
  0
LINE
  5
45F
102
{ACAD_REACTORS
330
6F5
102
}
330
1F
100
AcDbEntity
  8
LC-002-002-----0
 62
     7
370
    25
100
AcDbLine
 10
953.777813
 20
2406.992979
 30
0.0
 11
954.527813
 21
2406.242979
 31
0.0
  0
LINE
  5
460
102
{ACAD_REACTORS
330
6F5
102
}
330
1F
100
AcDbEntity
  8
LC-002-002-----0
 62
     7
370
    25
100
AcDbLine
 10
938.027814
 20
2457.747772
 30
0.0
 11
938.027814
 21
2410.147772
 31
0.0
  0
LINE
  5
461
102
{ACAD_REACTORS
330
6F5
102
}
330
1F
100
AcDbEntity
  8
LC-002-002-----0
 62
     7
370
    25
100
AcDbLine
 10
957.027814
 20
2461.652565
 30
0.0
 11
957.027814
 21
2406.242978
 31
0.0
  0
ARC
  5
462
102
{ACAD_REACTORS
330
6F5
102
}
330
1F
100
AcDbEntity
  8
LC-002-002-----0
 62
     7
370
    25
100
AcDbCircle
 10
940.027814
 20
2410.147772
 30
0.0
 40
2.0
100
AcDbArc
 50
180.0
 51
270.0
  0
INSERT
  5
472
102
{ACAD_REACTORS
330
6F5
102
}
330
1F
100
AcDbEntity
  8
LC-002-002-----0
 62
     7
370
    25
100
AcDbBlockReference
  2
POLY2
 10
0.0
 20
0.0
 30
0.0
  0
LINE
  5
473
102
{ACAD_REACTORS
330
6F5
102
}
330
1F
100
AcDbEntity
  8
LC-002-002-----0
 62
     7
370
    25
100
AcDbLine
 10
953.527814
 20
2433.946319
 30
0.0
 11
940.027814
 21
2433.946319
 31
0.0
  0
ARC
  5
474
102
{ACAD_REACTORS
330
6F5
102
}
330
1F
100
AcDbEntity
  8
LC-002-002-----0
 62
     7
370
    25
100
AcDbCircle
 10
1006.931535
 20
2433.947772
 30
0.0
 40
22.0
100
AcDbArc
 50
180.0
 51
0.0
  0
LINE
  5
475
102
{ACAD_REACTORS
330
6F5
102
}
330
1F
100
AcDbEntity
  8
LC-002-002-----0
 62
     7
370
    25
100
AcDbLine
 10
984.931535
 20
2433.947772
 30
0.0
 11
984.931535
 21
2447.638956
 31
0.0
  0
LINE
  5
476
102
{ACAD_REACTORS
330
6F5
102
}
330
1F
100
AcDbEntity
  8
LC-002-002-----0
 62
     7
370
    25
100
AcDbLine
 10
1028.931535
 20
2433.947772
 30
0.0
 11
1028.931535
 21
2447.638956
 31
0.0
  0
LINE
  5
477
102
{ACAD_REACTORS
330
6F5
102
}
330
1F
100
AcDbEntity
  8
LC-002-002-----0
 62
     7
370
    25
100
AcDbLine
 10
1044.431535
 20
2465.907319
 30
0.0
 11
969.431535
 21
2465.907319
 31
0.0
  0
LINE
  5
478
102
{ACAD_REACTORS
330
6F5
102
}
330
1F
100
AcDbEntity
  8
LC-002-002-----0
 62
     7
370
    25
100
AcDbLine
 10
1042.429673
 20
2465.204074
 30
0.0
 11
1042.429673
 21
2465.907319
 31
0.0
  0
LINE
  5
479
102
{ACAD_REACTORS
330
6F5
102
}
330
1F
100
AcDbEntity
  8
LC-002-002-----0
 62
     7
370
    25
100
AcDbLine
 10
1044.431535
 20
2468.407319
 30
0.0
 11
1044.431535
 21
2465.907319
 31
0.0
  0
LINE
  5
47A
102
{ACAD_REACTORS
330
6F5
102
}
330
1F
100
AcDbEntity
  8
LC-002-002-----0
 62
     7
370
    25
100
AcDbLine
 10
1035.220474
 20
2455.448938
 30
0.0
 11
1035.698921
 21
2458.067802
 31
0.0
  0
ARC
  5
47B
102
{ACAD_REACTORS
330
6F5
102
}
330
1F
100
AcDbEntity
  8
LC-002-002-----0
 62
     7
370
    25
100
AcDbCircle
 10
1028.82631
 20
2456.617129
 30
0.0
 40
6.500000000000005
100
AcDbArc
 50
289.07704
 51
349.645823
  0
ARC
  5
47C
102
{ACAD_REACTORS
330
6F5
102
}
330
1F
100
AcDbEntity
  8
LC-002-002-----0
 62
     7
370
    25
100
AcDbCircle
 10
1031.931535
 20
2447.638956
 30
0.0
 40
3.000000000000295
100
AcDbArc
 50
109.055448
 51
180.0
  0
ARC
  5
47D
102
{ACAD_REACTORS
330
6F5
102
}
330
1F
100
AcDbEntity
  8
LC-002-002-----0
 62
     7
370
    25
100
AcDbCircle
 10
1040.429673
 20
2465.204074
 30
0.0
 40
1.999999999999772
100
AcDbArc
 50
334.152631
 51
0.0
  0
ARC
  5
47E
102
{ACAD_REACTORS
330
6F5
102
}
330
1F
100
AcDbEntity
  8
LC-002-002-----0
 62
     7
370
    25
100
AcDbCircle
 10
1036.829739
 20
2466.947772
 30
0.0
 40
5.999999999999909
100
AcDbArc
 50
286.283517
 51
334.155028
  0
ARC
  5
47F
102
{ACAD_REACTORS
330
6F5
102
}
330
1F
100
AcDbEntity
  8
LC-002-002-----0
 62
     7
370
    25
100
AcDbCircle
 10
1039.633798
 20
2457.348956
 30
0.0
 40
4.000000000000306
100
AcDbArc
 50
106.281751
 51
169.647048
  0
LINE
  5
480
102
{ACAD_REACTORS
330
6F5
102
}
330
1F
100
AcDbEntity
  8
LC-002-002-----0
 62
     7
370
    25
100
AcDbLine
 10
971.433398
 20
2465.204074
 30
0.0
 11
971.433398
 21
2465.907319
 31
0.0
  0
LINE
  5
481
102
{ACAD_REACTORS
330
6F5
102
}
330
1F
100
AcDbEntity
  8
LC-002-002-----0
 62
     7
370
    25
100
AcDbLine
 10
969.431535
 20
2468.407319
 30
0.0
 11
969.431535
 21
2465.907319
 31
0.0
  0
LINE
  5
482
102
{ACAD_REACTORS
330
6F5
102
}
330
1F
100
AcDbEntity
  8
LC-002-002-----0
 62
     7
370
    25
100
AcDbLine
 10
978.642596
 20
2455.448938
 30
0.0
 11
978.16415
 21
2458.067802
 31
0.0
  0
ARC
  5
483
102
{ACAD_REACTORS
330
6F5
102
}
330
1F
100
AcDbEntity
  8
LC-002-002-----0
 62
     7
370
    25
100
AcDbCircle
 10
985.03676
 20
2456.617129
 30
0.0
 40
6.499999999999891
100
AcDbArc
 50
190.354177
 51
250.92296
  0
ARC
  5
484
102
{ACAD_REACTORS
330
6F5
102
}
330
1F
100
AcDbEntity
  8
LC-002-002-----0
 62
     7
370
    25
100
AcDbCircle
 10
981.931535
 20
2447.638956
 30
0.0
 40
2.999999995699682
100
AcDbArc
 50
0.0
 51
70.944552
  0
ARC
  5
485
102
{ACAD_REACTORS
330
6F5
102
}
330
1F
100
AcDbEntity
  8
LC-002-002-----0
 62
     7
370
    25
100
AcDbCircle
 10
973.433398
 20
2465.204074
 30
0.0
 40
1.999999999999773
100
AcDbArc
 50
180.0
 51
205.847369
  0
ARC
  5
486
102
{ACAD_REACTORS
330
6F5
102
}
330
1F
100
AcDbEntity
  8
LC-002-002-----0
 62
     7
370
    25
100
AcDbCircle
 10
977.033331
 20
2466.947772
 30
0.0
 40
5.999999999999802
100
AcDbArc
 50
205.844972
 51
253.716483
  0
ARC
  5
487
102
{ACAD_REACTORS
330
6F5
102
}
330
1F
100
AcDbEntity
  8
LC-002-002-----0
 62
     7
370
    25
100
AcDbCircle
 10
974.229272
 20
2457.348956
 30
0.0
 40
3.999999999999939
100
AcDbArc
 50
10.352952
 51
73.718249
  0
ARC
  5
488
102
{ACAD_REACTORS
330
6F5
102
}
330
1F
100
AcDbEntity
  8
LC-002-002-----0
 62
     7
370
    25
100
AcDbCircle
 10
1006.931535
 20
2433.947772
 30
0.0
 40
27.70479324130034
100
AcDbArc
 50
145.394244
 51
34.605756
  0
LINE
  5
489
102
{ACAD_REACTORS
330
6F5
102
}
330
1F
100
AcDbEntity
  8
LC-002-002-----0
 62
     7
370
    25
100
AcDbLine
 10
951.931535
 20
2508.55
 30
0.0
 11
1061.931535
 21
2508.55
 31
0.0
  0
LINE
  5
48A
102
{ACAD_REACTORS
330
6F5
102
}
330
1F
100
AcDbEntity
  8
LC-002-002-----0
 62
     7
370
    25
100
AcDbLine
 10
1061.931535
 20
2504.55
 30
0.0
 11
1061.931535
 21
2508.55
 31
0.0
  0
LINE
  5
48B
102
{ACAD_REACTORS
330
6F5
102
}
330
1F
100
AcDbEntity
  8
LC-002-002-----0
 62
     7
370
    25
100
AcDbLine
 10
1046.436499
 20
2468.407319
 30
0.0
 11
1044.431535
 21
2468.407319
 31
0.0
  0
LINE
  5
48C
102
{ACAD_REACTORS
330
6F5
102
}
330
1F
100
AcDbEntity
  8
LC-002-002-----0
 62
     7
370
    25
100
AcDbLine
 10
951.931535
 20
2501.336832
 30
0.0
 11
951.931535
 21
2504.55
 31
0.0
  0
LINE
  5
48D
102
{ACAD_REACTORS
330
6F5
102
}
330
1F
100
AcDbEntity
  8
LC-002-002-----0
 62
     7
370
    25
100
AcDbLine
 10
1049.680925
 20
2472.737093
 30
0.0
 11
1051.4309
 21
2473.747442
 31
0.0
  0
LINE
  5
48E
102
{ACAD_REACTORS
330
6F5
102
}
330
1F
100
AcDbEntity
  8
LC-002-002-----0
 62
     7
370
    25
100
AcDbLine
 10
1054.431535
 20
2478.943961
 30
0.0
 11
1054.431535
 21
2494.407319
 31
0.0
  0
LINE
  5
48F
102
{ACAD_REACTORS
330
6F5
102
}
330
1F
100
AcDbEntity
  8
LC-002-002-----0
 62
     7
370
    25
100
AcDbLine
 10
1061.931535
 20
2504.089777
 30
0.0
 11
1061.931535
 21
2504.55
 31
0.0
  0
ARC
  5
490
102
{ACAD_REACTORS
330
6F5
102
}
330
1F
100
AcDbEntity
  8
LC-002-002-----0
 62
     7
370
    25
100
AcDbCircle
 10
1058.431535
 20
2494.407319
 30
0.0
 40
3.999999999999812
100
AcDbArc
 50
104.492147
 51
180.0
  0
ARC
  5
491
102
{ACAD_REACTORS
330
6F5
102
}
330
1F
100
AcDbEntity
  8
LC-002-002-----0
 62
     7
370
    25
100
AcDbCircle
 10
1055.931535
 20
2504.089777
 30
0.0
 40
5.999999999999658
100
AcDbArc
 50
284.469452
 51
0.0
  0
ARC
  5
492
102
{ACAD_REACTORS
330
6F5
102
}
330
1F
100
AcDbEntity
  8
LC-002-002-----0
 62
     7
370
    25
100
AcDbCircle
 10
1048.431535
 20
2478.943961
 30
0.0
 40
5.999999999999977
100
AcDbArc
 50
299.988476
 51
0.0
  0
ARC
  5
493
102
{ACAD_REACTORS
330
6F5
102
}
330
1F
100
AcDbEntity
  8
LC-002-002-----0
 62
     7
370
    25
100
AcDbCircle
 10
1052.181535
 20
2468.407319
 30
0.0
 40
4.999999999999906
100
AcDbArc
 50
120.016153
 51
172.072225
  0
ARC
  5
494
102
{ACAD_REACTORS
330
6F5
102
}
330
1F
100
AcDbEntity
  8
LC-002-002-----0
 62
     7
370
    25
100
AcDbCircle
 10
961.681535
 20
2468.407319
 30
0.0
 40
4.999999999999969
100
AcDbArc
 50
7.927775
 51
33.954632
  0
ARC
  5
495
102
{ACAD_REACTORS
330
6F5
102
}
330
1F
100
AcDbEntity
  8
LC-002-002-----0
 62
     7
370
    25
100
AcDbCircle
 10
1046.436973
 20
2469.207319
 30
0.0
 40
0.7999999999997272
100
AcDbArc
 50
270.0
 51
352.062606
  0
ARC
  5
496
102
{ACAD_REACTORS
330
6F5
102
}
330
1F
100
AcDbEntity
  8
LC-002-002-----0
 62
     7
370
    25
100
AcDbCircle
 10
967.426098
 20
2469.207319
 30
0.0
 40
0.7999999999998813
100
AcDbArc
 50
187.937394
 51
270.0
  0
INSERT
  5
4A0
102
{ACAD_REACTORS
330
6F5
102
}
330
1F
100
AcDbEntity
  8
LC-002-002-----0
 62
     7
370
    25
100
AcDbBlockReference
  2
POLY3
 10
0.0
 20
0.0
 30
0.0
  0
INSERT
  5
4AA
102
{ACAD_REACTORS
330
6F5
102
}
330
1F
100
AcDbEntity
  8
LC-002-002-----0
 62
     7
370
    25
100
AcDbBlockReference
  2
POLY4
 10
0.0
 20
0.0
 30
0.0
  0
INSERT
  5
4B8
102
{ACAD_REACTORS
330
6F5
102
}
330
1F
100
AcDbEntity
  8
LC-002-002-----0
 62
     7
370
    25
100
AcDbBlockReference
  2
POLY5
 10
0.0
 20
0.0
 30
0.0
  0
INSERT
  5
4C6
102
{ACAD_REACTORS
330
6F5
102
}
330
1F
100
AcDbEntity
  8
LC-002-002-----0
 62
     7
370
    25
100
AcDbBlockReference
  2
POLY6
 10
0.0
 20
0.0
 30
0.0
  0
INSERT
  5
4D6
102
{ACAD_REACTORS
330
6F5
102
}
330
1F
100
AcDbEntity
  8
LC-002-002-----0
 62
     7
370
    25
100
AcDbBlockReference
  2
POLY7
 10
0.0
 20
0.0
 30
0.0
  0
INSERT
  5
4E4
102
{ACAD_REACTORS
330
6F5
102
}
330
1F
100
AcDbEntity
  8
LC-002-002-----0
 62
     7
370
    25
100
AcDbBlockReference
  2
POLY8
 10
0.0
 20
0.0
 30
0.0
  0
LINE
  5
4E5
102
{ACAD_REACTORS
330
6F5
102
}
330
1F
100
AcDbEntity
  8
LC-002-002-----0
 62
     7
370
    25
100
AcDbLine
 10
961.895923
 20
2494.407319
 30
0.0
 11
961.895923
 21
2486.3
 31
0.0
  0
LINE
  5
4E6
102
{ACAD_REACTORS
330
6F5
102
}
330
1F
100
AcDbEntity
  8
LC-002-002-----0
 62
     7
370
    25
100
AcDbLine
 10
951.931535
 20
2504.55
 30
0.0
 11
951.931535
 21
2508.55
 31
0.0
  0
LINE
  5
4E7
102
{ACAD_REACTORS
330
6F5
102
}
330
1F
100
AcDbEntity
  8
LC-002-002-----0
 62
     7
370
    25
100
AcDbLine
 10
949.681535
 20
2466.3
 30
0.0
 11
947.681535
 21
2466.3
 31
0.0
  0
LINE
  5
4E8
102
{ACAD_REACTORS
330
6F5
102
}
330
1F
100
AcDbEntity
  8
LC-002-002-----0
 62
     7
370
    25
100
AcDbLine
 10
946.931534
 20
2468.342762
 30
0.0
 11
935.192301
 21
2468.342762
 31
0.0
  0
LINE
  5
4E9
102
{ACAD_REACTORS
330
6F5
102
}
330
1F
100
AcDbEntity
  8
LC-002-002-----0
 62
     7
370
    25
100
AcDbLine
 10
946.931534
 20
2504.257238
 30
0.0
 11
935.192301
 21
2504.257238
 31
0.0
  0
LINE
  5
4EA
102
{ACAD_REACTORS
330
6F5
102
}
330
1F
100
AcDbEntity
  8
LC-002-002-----0
 62
     7
370
    25
100
AcDbLine
 10
949.681535
 20
2506.3
 30
0.0
 11
947.681535
 21
2506.3
 31
0.0
  0
LINE
  5
4EB
102
{ACAD_REACTORS
330
6F5
102
}
330
1F
100
AcDbEntity
  8
LC-002-002-----0
 62
     7
370
    25
100
AcDbLine
 10
947.681438
 20
2466.300097
 30
0.0
 11
946.931548
 21
2467.049987
 31
0.0
  0
LINE
  5
4EC
102
{ACAD_REACTORS
330
6F5
102
}
330
1F
100
AcDbEntity
  8
LC-002-002-----0
 62
     7
370
    25
100
AcDbLine
 10
935.181535
 20
2468.55019
 30
0.0
 11
935.181535
 21
2504.04981
 31
0.0
  0
LINE
  5
4ED
102
{ACAD_REACTORS
330
6F5
102
}
330
1F
100
AcDbEntity
  8
LC-002-002-----0
 62
     7
370
    25
100
AcDbLine
 10
946.931548
 20
2467.049987
 30
0.0
 11
946.931548
 21
2468.342762
 31
0.0
  0
LINE
  5
4EE
102
{ACAD_REACTORS
330
6F5
102
}
330
1F
100
AcDbEntity
  8
LC-002-002-----0
 62
     7
370
    25
100
AcDbLine
 10
946.931539
 20
2504.257238
 30
0.0
 11
946.931548
 21
2505.550013
 31
0.0
  0
LINE
  5
4EF
102
{ACAD_REACTORS
330
6F5
102
}
330
1F
100
AcDbEntity
  8
LC-002-002-----0
 62
     7
370
    25
100
AcDbLine
 10
949.681535
 20
2466.3
 30
0.0
 11
949.681535
 21
2506.3
 31
0.0
  0
LINE
  5
4F0
102
{ACAD_REACTORS
330
6F5
102
}
330
1F
100
AcDbEntity
  8
LC-002-002-----0
 62
     7
370
    25
100
AcDbLine
 10
947.681438
 20
2506.299903
 30
0.0
 11
946.931548
 21
2505.550013
 31
0.0
  0
ARC
  5
4F1
102
{ACAD_REACTORS
330
6F5
102
}
330
1F
100
AcDbEntity
  8
LC-002-002-----0
 62
     7
370
    25
100
AcDbCircle
 10
937.181535
 20
2504.05
 30
0.0
 40
2.000000000000042
100
AcDbArc
 50
174.05239
 51
180.0
  0
ARC
  5
4F2
102
{ACAD_REACTORS
330
6F5
102
}
330
1F
100
AcDbEntity
  8
LC-002-002-----0
 62
     7
370
    25
100
AcDbCircle
 10
937.181535
 20
2468.55
 30
0.0
 40
2.0
100
AcDbArc
 50
180.0
 51
185.94761
  0
LINE
  5
4F3
102
{ACAD_REACTORS
330
6F5
102
}
330
1F
100
AcDbEntity
  8
LC-002-002-----0
 62
     7
370
    25
100
AcDbLine
 10
949.681535
 20
2501.4
 30
0.0
 11
951.948948
 21
2501.4
 31
0.0
  0
LINE
  5
4F4
102
{ACAD_REACTORS
330
6F5
102
}
330
1F
100
AcDbEntity
  8
LC-002-002-----0
 62
     7
370
    25
100
AcDbLine
 10
949.681535
 20
2471.2
 30
0.0
 11
965.828936
 21
2471.2
 31
0.0
  0
LINE
  5
4F5
102
{ACAD_REACTORS
330
6F4
102
}
330
1F
100
AcDbEntity
  8
LC-002-002-----0
 62
     7
370
    25
100
AcDbLine
 10
786.931535
 20
2413.947772
 30
0.0
 11
938.027814
 21
2413.947772
 31
0.0
  0
LINE
  5
4F6
102
{ACAD_REACTORS
330
6F4
102
}
330
1F
100
AcDbEntity
  8
LC-002-002-----0
 62
     7
370
    25
100
AcDbLine
 10
806.931535
 20
2453.947772
 30
0.0
 11
938.027814
 21
2453.947772
 31
0.0
  0
LINE
  5
4F7
102
{ACAD_REACTORS
330
6F2
102
}
330
1F
100
AcDbEntity
  8
LC-002-002-----0
 62
     7
370
    25
100
AcDbLine
 10
888.14001
 20
2506.272441
 30
0.0
 11
888.837464
 21
2486.29999
 31
0.0
  0
LINE
  5
4F8
102
{ACAD_REACTORS
330
6F2
102
}
330
1F
100
AcDbEntity
  8
LC-002-002-----0
 62
     7
370
    25
100
AcDbLine
 10
881.337463
 20
2521.3
 30
0.0
 11
881.337463
 21
2527.3
 31
0.0
  0
LINE
  5
4F9
102
{ACAD_REACTORS
330
6ED
102
}
330
1F
100
AcDbEntity
  8
LC-002-002-----0
 62
     7
370
    25
100
AcDbLine
 10
881.641211
 20
2590.112666
 30
0.0
 11
887.583748
 21
2533.573212
 31
0.0
  0
LINE
  5
4FA
102
{ACAD_REACTORS
330
6ED
102
}
330
1F
100
AcDbEntity
  8
LC-002-002-----0
 62
     7
370
    25
100
AcDbLine
 10
906.504259
 20
2592.725878
 30
0.0
 11
912.446795
 21
2536.186423
 31
0.0
  0
LINE
  5
4FB
102
{ACAD_REACTORS
330
6F2
102
}
330
1F
100
AcDbEntity
  8
LC-002-002-----0
 62
     7
370
    25
100
AcDbLine
 10
921.337463
 20
2521.3
 30
0.0
 11
921.337463
 21
2527.3
 31
0.0
  0
LINE
  5
4FC
102
{ACAD_REACTORS
330
6F2
102
}
330
1F
100
AcDbEntity
  8
LC-002-002-----0
 62
     7
370
    25
100
AcDbLine
 10
914.534916
 20
2506.272441
 30
0.0
 11
914.272206
 21
2498.749396
 31
0.0
  0
LINE
  5
4FD
102
{ACAD_REACTORS
330
6F2
102
}
330
1F
100
AcDbEntity
  8
LC-002-002-----0
 62
     7
370
    25
100
AcDbLine
 10
935.181535
 20
2473.8
 30
0.0
 11
901.336995
 21
2473.8
 31
0.0
  0
LINE
  5
4FE
102
{ACAD_REACTORS
330
6F2
102
}
330
1F
100
AcDbEntity
  8
LC-002-002-----0
 62
     7
370
    25
100
AcDbLine
 10
935.181535
 20
2498.8
 30
0.0
 11
914.273973
 21
2498.8
 31
0.0
  0
LINE
  5
4FF
102
{ACAD_REACTORS
330
6F2
102
}
330
1F
100
AcDbEntity
  8
LC-002-002-----0
 62
     7
370
    25
100
AcDbLine
 10
881.337463
 20
2527.3
 30
0.0
 11
921.337463
 21
2527.3
 31
0.0
  0
LINE
  5
500
102
{ACAD_REACTORS
330
6ED
102
}
330
1F
100
AcDbEntity
  8
LC-002-002-----0
 62
     7
370
    25
100
AcDbLine
 10
912.446795
 20
2536.186423
 30
0.0
 11
887.583748
 21
2533.573212
 31
0.0
  0
LINE
  5
501
102
{ACAD_REACTORS
330
6ED
102
}
330
1F
100
AcDbEntity
  8
LC-002-002-----0
 62
     7
370
    25
100
AcDbLine
 10
905.954734
 20
2593.170874
 30
0.0
 11
882.086208
 21
2590.662191
 31
0.0
  0
ARC
  5
502
102
{ACAD_REACTORS
330
6F2
102
}
330
1F
100
AcDbEntity
  8
LC-002-002-----0
 62
     7
370
    25
100
AcDbCircle
 10
901.337463
 20
2521.3
 30
0.0
 40
19.99999999999994
100
AcDbArc
 50
311.290426
 51
0.0
  0
ARC
  5
503
102
{ACAD_REACTORS
330
6F2
102
}
330
1F
100
AcDbEntity
  8
LC-002-002-----0
 62
     7
370
    25
100
AcDbCircle
 10
901.337463
 20
2521.3
 30
0.0
 40
20.0
100
AcDbArc
 50
180.0
 51
228.709438
  0
ARC
  5
504
102
{ACAD_REACTORS
330
6F2
102
}
330
1F
100
AcDbEntity
  8
LC-002-002-----0
 62
     7
370
    25
100
AcDbCircle
 10
901.337445
 20
2486.300019
 30
0.0
 40
12.49998146380004
100
AcDbArc
 50
180.000085
 51
270.0
  0
ARC
  5
505
102
{ACAD_REACTORS
330
6ED
102
}
330
1F
100
AcDbEntity
  8
LC-002-002-----0
 62
     7
370
    25
100
AcDbCircle
 10
906.006998
 20
2592.673613
 30
0.0
 40
0.5000000000000344
100
AcDbArc
 50
6.0
 51
96.0
  0
ARC
  5
506
102
{ACAD_REACTORS
330
6ED
102
}
330
1F
100
AcDbEntity
  8
LC-002-002-----0
 62
     7
370
    25
100
AcDbCircle
 10
882.138472
 20
2590.16493
 30
0.0
 40
0.4999999999998858
100
AcDbArc
 50
96.0
 51
186.0
  0
ARC
  5
507
102
{ACAD_REACTORS
330
6ED
102
}
330
1F
100
AcDbEntity
  8
LC-002-002-----0
 62
     7
370
    25
100
AcDbCircle
 10
913.441317
 20
2536.290952
 30
0.0
 40
0.9999999999999738
100
AcDbArc
 50
186.0
 51
229.137678
  0
ARC
  5
508
102
{ACAD_REACTORS
330
6ED
102
}
330
1F
100
AcDbEntity
  8
LC-002-002-----0
 62
     7
370
    25
100
AcDbCircle
 10
886.589226
 20
2533.468683
 30
0.0
 40
0.9999999999994477
100
AcDbArc
 50
322.862322
 51
6.0
  0
ARC
  5
509
102
{ACAD_REACTORS
330
6ED
102
}
330
1F
100
AcDbEntity
  8
LC-002-002-----0
 62
     7
370
    25
100
AcDbCircle
 10
901.337463
 20
2522.3
 30
0.0
 40
17.50000000000014
100
AcDbArc
 50
142.85835
 51
163.398451
  0
ARC
  5
50A
102
{ACAD_REACTORS
330
6ED
102
}
330
1F
100
AcDbEntity
  8
LC-002-002-----0
 62
     7
370
    25
100
AcDbCircle
 10
901.337463
 20
2522.3
 30
0.0
 40
17.49999999999998
100
AcDbArc
 50
16.601548
 51
49.141806
  0
INSERT
  5
534
102
{ACAD_REACTORS
330
6F2
102
}
330
1F
100
AcDbEntity
  8
LC-002-002-----0
 62
     7
370
    25
100
AcDbBlockReference
  2
POLY9
 10
0.0
 20
0.0
 30
0.0
  0
ARC
  5
535
102
{ACAD_REACTORS
330
6F4
102
}
330
1F
100
AcDbEntity
  8
LC-002-002-----0
 62
     7
370
    25
100
AcDbCircle
 10
786.931535
 20
2489.947772
 30
0.0
 40
22.0
100
AcDbArc
 50
180.0
 51
0.0
  0
LINE
  5
536
102
{ACAD_REACTORS
330
6F4
102
}
330
1F
100
AcDbEntity
  8
LC-002-002-----0
 62
     7
370
    25
100
AcDbLine
 10
764.931535
 20
2489.947772
 30
0.0
 11
764.931535
 21
2503.638956
 31
0.0
  0
LINE
  5
537
102
{ACAD_REACTORS
330
6F4
102
}
330
1F
100
AcDbEntity
  8
LC-002-002-----0
 62
     7
370
    25
100
AcDbLine
 10
808.931535
 20
2489.947772
 30
0.0
 11
808.931535
 21
2503.638956
 31
0.0
  0
LINE
  5
538
102
{ACAD_REACTORS
330
6F4
102
}
330
1F
100
AcDbEntity
  8
LC-002-002-----0
 62
     7
370
    25
100
AcDbLine
 10
731.931535
 20
2564.55
 30
0.0
 11
841.931535
 21
2564.55
 31
0.0
  0
LINE
  5
539
102
{ACAD_REACTORS
330
6F4
102
}
330
1F
100
AcDbEntity
  8
LC-002-002-----0
 62
     7
370
    25
100
AcDbLine
 10
841.931535
 20
2560.55
 30
0.0
 11
841.931535
 21
2564.55
 31
0.0
  0
LINE
  5
53A
102
{ACAD_REACTORS
330
6F4
102
}
330
1F
100
AcDbEntity
  8
LC-002-002-----0
 62
     7
370
    25
100
AcDbLine
 10
824.431535
 20
2521.907319
 30
0.0
 11
749.431535
 21
2521.907319
 31
0.0
  0
LINE
  5
53B
102
{ACAD_REACTORS
330
6F4
102
}
330
1F
100
AcDbEntity
  8
LC-002-002-----0
 62
     7
370
    25
100
AcDbLine
 10
826.436499
 20
2524.407319
 30
0.0
 11
824.431535
 21
2524.407319
 31
0.0
  0
LINE
  5
53C
102
{ACAD_REACTORS
330
6F4
102
}
330
1F
100
AcDbEntity
  8
LC-002-002-----0
 62
     7
370
    25
100
AcDbLine
 10
829.680925
 20
2528.737093
 30
0.0
 11
831.4309
 21
2529.747442
 31
0.0
  0
LINE
  5
53D
102
{ACAD_REACTORS
330
6F4
102
}
330
1F
100
AcDbEntity
  8
LC-002-002-----0
 62
     7
370
    25
100
AcDbLine
 10
822.429673
 20
2521.204074
 30
0.0
 11
822.429673
 21
2521.907319
 31
0.0
  0
LINE
  5
53E
102
{ACAD_REACTORS
330
6F4
102
}
330
1F
100
AcDbEntity
  8
LC-002-002-----0
 62
     7
370
    25
100
AcDbLine
 10
824.431535
 20
2524.407319
 30
0.0
 11
824.431535
 21
2521.907319
 31
0.0
  0
LINE
  5
53F
102
{ACAD_REACTORS
330
6F4
102
}
330
1F
100
AcDbEntity
  8
LC-002-002-----0
 62
     7
370
    25
100
AcDbLine
 10
834.431535
 20
2534.943961
 30
0.0
 11
834.431535
 21
2550.407319
 31
0.0
  0
LINE
  5
540
102
{ACAD_REACTORS
330
6F4
102
}
330
1F
100
AcDbEntity
  8
LC-002-002-----0
 62
     7
370
    25
100
AcDbLine
 10
815.220474
 20
2511.448938
 30
0.0
 11
815.698921
 21
2514.067802
 31
0.0
  0
LINE
  5
541
102
{ACAD_REACTORS
330
6F4
102
}
330
1F
100
AcDbEntity
  8
LC-002-002-----0
 62
     7
370
    25
100
AcDbLine
 10
841.931535
 20
2560.089777
 30
0.0
 11
841.931535
 21
2560.55
 31
0.0
  0
ARC
  5
542
102
{ACAD_REACTORS
330
6F4
102
}
330
1F
100
AcDbEntity
  8
LC-002-002-----0
 62
     7
370
    25
100
AcDbCircle
 10
838.431535
 20
2550.407319
 30
0.0
 40
3.999999999999812
100
AcDbArc
 50
104.492147
 51
180.0
  0
ARC
  5
543
102
{ACAD_REACTORS
330
6F4
102
}
330
1F
100
AcDbEntity
  8
LC-002-002-----0
 62
     7
370
    25
100
AcDbCircle
 10
835.931535
 20
2560.089777
 30
0.0
 40
5.999999999999658
100
AcDbArc
 50
284.469452
 51
0.0
  0
ARC
  5
544
102
{ACAD_REACTORS
330
6F4
102
}
330
1F
100
AcDbEntity
  8
LC-002-002-----0
 62
     7
370
    25
100
AcDbCircle
 10
828.431535
 20
2534.943961
 30
0.0
 40
5.999999999999977
100
AcDbArc
 50
299.988476
 51
0.0
  0
ARC
  5
545
102
{ACAD_REACTORS
330
6F4
102
}
330
1F
100
AcDbEntity
  8
LC-002-002-----0
 62
     7
370
    25
100
AcDbCircle
 10
832.181535
 20
2524.407319
 30
0.0
 40
4.999999999999906
100
AcDbArc
 50
120.016153
 51
172.072225
  0
ARC
  5
546
102
{ACAD_REACTORS
330
6F4
102
}
330
1F
100
AcDbEntity
  8
LC-002-002-----0
 62
     7
370
    25
100
AcDbCircle
 10
826.436973
 20
2525.207319
 30
0.0
 40
0.7999999999997272
100
AcDbArc
 50
270.0
 51
352.062606
  0
ARC
  5
547
102
{ACAD_REACTORS
330
6F4
102
}
330
1F
100
AcDbEntity
  8
LC-002-002-----0
 62
     7
370
    25
100
AcDbCircle
 10
808.82631
 20
2512.617129
 30
0.0
 40
6.500000000000005
100
AcDbArc
 50
289.07704
 51
349.645823
  0
ARC
  5
548
102
{ACAD_REACTORS
330
6F4
102
}
330
1F
100
AcDbEntity
  8
LC-002-002-----0
 62
     7
370
    25
100
AcDbCircle
 10
811.931535
 20
2503.638956
 30
0.0
 40
3.000000000000295
100
AcDbArc
 50
109.055448
 51
180.0
  0
ARC
  5
549
102
{ACAD_REACTORS
330
6F4
102
}
330
1F
100
AcDbEntity
  8
LC-002-002-----0
 62
     7
370
    25
100
AcDbCircle
 10
820.429673
 20
2521.204074
 30
0.0
 40
1.999999999999772
100
AcDbArc
 50
334.152631
 51
0.0
  0
ARC
  5
54A
102
{ACAD_REACTORS
330
6F4
102
}
330
1F
100
AcDbEntity
  8
LC-002-002-----0
 62
     7
370
    25
100
AcDbCircle
 10
816.829739
 20
2522.947772
 30
0.0
 40
5.999999999999909
100
AcDbArc
 50
286.283517
 51
334.155028
  0
ARC
  5
54B
102
{ACAD_REACTORS
330
6F4
102
}
330
1F
100
AcDbEntity
  8
LC-002-002-----0
 62
     7
370
    25
100
AcDbCircle
 10
819.633798
 20
2513.348956
 30
0.0
 40
4.000000000000306
100
AcDbArc
 50
106.281751
 51
169.647048
  0
LINE
  5
54C
102
{ACAD_REACTORS
330
6F4
102
}
330
1F
100
AcDbEntity
  8
LC-002-002-----0
 62
     7
370
    25
100
AcDbLine
 10
731.931535
 20
2560.55
 30
0.0
 11
731.931535
 21
2564.55
 31
0.0
  0
LINE
  5
54D
102
{ACAD_REACTORS
330
6F4
102
}
330
1F
100
AcDbEntity
  8
LC-002-002-----0
 62
     7
370
    25
100
AcDbLine
 10
744.182145
 20
2528.737093
 30
0.0
 11
742.43217
 21
2529.747442
 31
0.0
  0
LINE
  5
54E
102
{ACAD_REACTORS
330
6F4
102
}
330
1F
100
AcDbEntity
  8
LC-002-002-----0
 62
     7
370
    25
100
AcDbLine
 10
751.433398
 20
2521.204074
 30
0.0
 11
751.433398
 21
2521.907319
 31
0.0
  0
LINE
  5
54F
102
{ACAD_REACTORS
330
6F4
102
}
330
1F
100
AcDbEntity
  8
LC-002-002-----0
 62
     7
370
    25
100
AcDbLine
 10
749.431535
 20
2524.407319
 30
0.0
 11
749.431535
 21
2521.907319
 31
0.0
  0
LINE
  5
550
102
{ACAD_REACTORS
330
6F4
102
}
330
1F
100
AcDbEntity
  8
LC-002-002-----0
 62
     7
370
    25
100
AcDbLine
 10
739.431535
 20
2534.943961
 30
0.0
 11
739.431535
 21
2550.407319
 31
0.0
  0
LINE
  5
551
102
{ACAD_REACTORS
330
6F4
102
}
330
1F
100
AcDbEntity
  8
LC-002-002-----0
 62
     7
370
    25
100
AcDbLine
 10
758.642596
 20
2511.448938
 30
0.0
 11
758.16415
 21
2514.067802
 31
0.0
  0
LINE
  5
552
102
{ACAD_REACTORS
330
6F4
102
}
330
1F
100
AcDbEntity
  8
LC-002-002-----0
 62
     7
370
    25
100
AcDbLine
 10
731.931535
 20
2560.089777
 30
0.0
 11
731.931535
 21
2560.55
 31
0.0
  0
ARC
  5
553
102
{ACAD_REACTORS
330
6F4
102
}
330
1F
100
AcDbEntity
  8
LC-002-002-----0
 62
     7
370
    25
100
AcDbCircle
 10
735.431535
 20
2550.407319
 30
0.0
 40
4.0
100
AcDbArc
 50
0.0
 51
75.507853
  0
ARC
  5
554
102
{ACAD_REACTORS
330
6F4
102
}
330
1F
100
AcDbEntity
  8
LC-002-002-----0
 62
     7
370
    25
100
AcDbCircle
 10
737.931535
 20
2560.089777
 30
0.0
 40
6.0
100
AcDbArc
 50
180.0
 51
255.530548
  0
ARC
  5
555
102
{ACAD_REACTORS
330
6F4
102
}
330
1F
100
AcDbEntity
  8
LC-002-002-----0
 62
     7
370
    25
100
AcDbCircle
 10
745.431535
 20
2534.943961
 30
0.0
 40
6.0
100
AcDbArc
 50
180.0
 51
240.011524
  0
ARC
  5
556
102
{ACAD_REACTORS
330
6F4
102
}
330
1F
100
AcDbEntity
  8
LC-002-002-----0
 62
     7
370
    25
100
AcDbCircle
 10
741.681535
 20
2524.407319
 30
0.0
 40
5.000000000000194
100
AcDbArc
 50
7.927775
 51
59.983847
  0
ARC
  5
557
102
{ACAD_REACTORS
330
6F4
102
}
330
1F
100
AcDbEntity
  8
LC-002-002-----0
 62
     7
370
    25
100
AcDbCircle
 10
747.426098
 20
2525.207319
 30
0.0
 40
0.799999999999944
100
AcDbArc
 50
187.937394
 51
270.0
  0
ARC
  5
558
102
{ACAD_REACTORS
330
6F4
102
}
330
1F
100
AcDbEntity
  8
LC-002-002-----0
 62
     7
370
    25
100
AcDbCircle
 10
765.03676
 20
2512.617129
 30
0.0
 40
6.499999999999891
100
AcDbArc
 50
190.354177
 51
250.92296
  0
ARC
  5
559
102
{ACAD_REACTORS
330
6F4
102
}
330
1F
100
AcDbEntity
  8
LC-002-002-----0
 62
     7
370
    25
100
AcDbCircle
 10
761.931535
 20
2503.638956
 30
0.0
 40
2.999999995699682
100
AcDbArc
 50
0.0
 51
70.944552
  0
ARC
  5
55A
102
{ACAD_REACTORS
330
6F4
102
}
330
1F
100
AcDbEntity
  8
LC-002-002-----0
 62
     7
370
    25
100
AcDbCircle
 10
753.433398
 20
2521.204074
 30
0.0
 40
1.999999999999773
100
AcDbArc
 50
180.0
 51
205.847369
  0
ARC
  5
55B
102
{ACAD_REACTORS
330
6F4
102
}
330
1F
100
AcDbEntity
  8
LC-002-002-----0
 62
     7
370
    25
100
AcDbCircle
 10
757.033331
 20
2522.947772
 30
0.0
 40
5.999999999999802
100
AcDbArc
 50
205.844972
 51
253.716483
  0
ARC
  5
55C
102
{ACAD_REACTORS
330
6F4
102
}
330
1F
100
AcDbEntity
  8
LC-002-002-----0
 62
     7
370
    25
100
AcDbCircle
 10
754.229272
 20
2513.348956
 30
0.0
 40
4.000000000000051
100
AcDbArc
 50
10.352952
 51
73.718249
  0
ARC
  5
55D
102
{ACAD_REACTORS
330
6F4
102
}
330
1F
100
AcDbEntity
  8
LC-002-002-----0
 62
     7
370
    25
100
AcDbCircle
 10
786.931535
 20
2489.947772
 30
0.0
 40
27.70479324130034
100
AcDbArc
 50
145.394244
 51
34.605756
  0
LINE
  5
55E
102
{ACAD_REACTORS
330
6EA
102
}
330
1F
100
AcDbEntity
  8
LC-002-002-----0
 62
     7
370
    25
100
AcDbLine
 10
1432.651434
 20
2018.26079
 30
0.0
 11
1433.421979
 21
2019.740992
 31
0.0
  0
LINE
  5
55F
102
{ACAD_REACTORS
330
6EA
102
}
330
1F
100
AcDbEntity
  8
LC-002-002-----0
 62
     7
370
    25
100
AcDbLine
 10
1434.192254
 20
2018.260677
 30
0.0
 11
1434.962912
 21
2019.741097
 31
0.0
  0
LINE
  5
560
102
{ACAD_REACTORS
330
6EA
102
}
330
1F
100
AcDbEntity
  8
LC-002-002-----0
 62
     7
370
    25
100
AcDbLine
 10
1435.733191
 20
2018.26079
 30
0.0
 11
1436.503624
 21
2019.740777
 31
0.0
  0
LINE
  5
561
102
{ACAD_REACTORS
330
6EA
102
}
330
1F
100
AcDbEntity
  8
LC-002-002-----0
 62
     7
370
    25
100
AcDbLine
 10
1437.27407
 20
2018.26079
 30
0.0
 11
1438.044502
 21
2019.740777
 31
0.0
  0
LINE
  5
562
102
{ACAD_REACTORS
330
6EA
102
}
330
1F
100
AcDbEntity
  8
LC-002-002-----0
 62
     7
370
    25
100
AcDbLine
 10
1438.814948
 20
2018.26079
 30
0.0
 11
1439.585381
 21
2019.740777
 31
0.0
  0
LINE
  5
563
102
{ACAD_REACTORS
330
6EA
102
}
330
1F
100
AcDbEntity
  8
LC-002-002-----0
 62
     7
370
    25
100
AcDbLine
 10
1440.355827
 20
2018.26079
 30
0.0
 11
1441.126259
 21
2019.740777
 31
0.0
  0
LINE
  5
564
102
{ACAD_REACTORS
330
6EA
102
}
330
1F
100
AcDbEntity
  8
LC-002-002-----0
 62
     7
370
    25
100
AcDbLine
 10
1441.896705
 20
2018.26079
 30
0.0
 11
1442.667138
 21
2019.740777
 31
0.0
  0
LINE
  5
565
102
{ACAD_REACTORS
330
6EA
102
}
330
1F
100
AcDbEntity
  8
LC-002-002-----0
 62
     7
370
    25
100
AcDbLine
 10
1444.667164
 20
2019.02686
 30
0.0
 11
1447.780912
 21
2022.140608
 31
0.0
  0
LINE
  5
566
102
{ACAD_REACTORS
330
6EA
102
}
330
1F
100
AcDbEntity
  8
LC-002-002-----0
 62
     7
370
    25
100
AcDbLine
 10
1430.880888
 20
2019.740584
 30
0.0
 11
1430.880888
 21
2064.540584
 31
0.0
  0
LINE
  5
567
102
{ACAD_REACTORS
330
6EA
102
}
330
1F
100
AcDbEntity
  8
LC-002-002-----0
 62
     7
370
    25
100
AcDbLine
 10
1448.881008
 20
2014.235491
 30
0.0
 11
1450.880912
 21
2016.235395
 31
0.0
  0
LINE
  5
568
102
{ACAD_REACTORS
330
6EA
102
}
330
1F
100
AcDbEntity
  8
LC-002-002-----0
 62
     7
370
    25
100
AcDbLine
 10
1447.780888
 20
2062.140584
 30
0.0
 11
1450.880888
 21
2062.140584
 31
0.0
  0
LINE
  5
569
102
{ACAD_REACTORS
330
6EA
102
}
330
1F
100
AcDbEntity
  8
LC-002-002-----0
 62
     7
370
    25
100
AcDbLine
 10
1443.176095
 20
1989.73537
 30
0.0
 11
1443.176095
 21
1992.23537
 31
0.0
  0
LINE
  5
56A
102
{ACAD_REACTORS
330
6EA
102
}
330
1F
100
AcDbEntity
  8
LC-002-002-----0
 62
     7
370
    25
100
AcDbLine
 10
1443.926095
 20
1988.73537
 30
0.0
 11
1443.926095
 21
1988.98537
 31
0.0
  0
LINE
  5
56B
102
{ACAD_REACTORS
330
6EA
102
}
330
1F
100
AcDbEntity
  8
LC-002-002-----0
 62
     7
370
    25
100
AcDbLine
 10
1444.667164
 20
2019.02686
 30
0.0
 11
1444.667164
 21
2065.254308
 31
0.0
  0
LINE
  5
56C
102
{ACAD_REACTORS
330
6EA
102
}
330
1F
100
AcDbEntity
  8
LC-002-002-----0
 62
     7
370
    25
100
AcDbLine
 10
1445.080888
 20
1988.73537
 30
0.0
 11
1445.080888
 21
1975.23537
 31
0.0
  0
LINE
  5
56D
102
{ACAD_REACTORS
330
6EA
102
}
330
1F
100
AcDbEntity
  8
LC-002-002-----0
 62
     7
370
    25
100
AcDbLine
 10
1448.880888
 20
1992.23537
 30
0.0
 11
1448.880888
 21
2014.23537
 31
0.0
  0
LINE
  5
56E
102
{ACAD_REACTORS
330
6EA
102
}
330
1F
100
AcDbEntity
  8
LC-002-002-----0
 62
     7
370
    25
100
AcDbLine
 10
1450.880888
 20
1952.05807
 30
0.0
 11
1450.880888
 21
1973.23537
 31
0.0
  0
LINE
  5
56F
102
{ACAD_REACTORS
330
6EA
102
}
330
1F
100
AcDbEntity
  8
LC-002-002-----0
 62
     7
370
    25
100
AcDbLine
 10
1450.880888
 20
2021.635968
 30
0.0
 11
1450.880888
 21
2016.23537
 31
0.0
  0
LINE
  5
570
102
{ACAD_REACTORS
330
6EA
102
}
330
1F
100
AcDbEntity
  8
LC-002-002-----0
 62
     7
370
    25
100
AcDbLine
 10
1490.880888
 20
1952.05807
 30
0.0
 11
1490.880888
 21
1973.23537
 31
0.0
  0
LINE
  5
571
102
{ACAD_REACTORS
330
6EA
102
}
330
1F
100
AcDbEntity
  8
LC-002-002-----0
 62
     7
370
    25
100
AcDbLine
 10
1490.880888
 20
2022.140584
 30
0.0
 11
1490.880888
 21
2016.23537
 31
0.0
  0
LINE
  5
572
102
{ACAD_REACTORS
330
6EA
102
}
330
1F
100
AcDbEntity
  8
LC-002-002-----0
 62
     7
370
    25
100
AcDbLine
 10
1492.880888
 20
1992.23537
 30
0.0
 11
1492.880888
 21
2014.23537
 31
0.0
  0
LINE
  5
573
102
{ACAD_REACTORS
330
6EA
102
}
330
1F
100
AcDbEntity
  8
LC-002-002-----0
 62
     7
370
    25
100
AcDbLine
 10
1497.83568
 20
1988.985369
 30
0.0
 11
1498.58568
 21
1989.735369
 31
0.0
  0
LINE
  5
574
102
{ACAD_REACTORS
330
6EA
102
}
330
1F
100
AcDbEntity
  8
LC-002-002-----0
 62
     7
370
    25
100
AcDbLine
 10
1447.780888
 20
2022.140584
 30
0.0
 11
1450.376272
 21
2022.140584
 31
0.0
  0
LINE
  5
575
102
{ACAD_REACTORS
330
6EA
102
}
330
1F
100
AcDbEntity
  8
LC-002-002-----0
 62
     7
370
    25
100
AcDbLine
 10
1430.880888
 20
2019.740584
 30
0.0
 11
1431.880888
 21
2019.740584
 31
0.0
  0
LINE
  5
576
102
{ACAD_REACTORS
330
6EA
102
}
330
1F
100
AcDbEntity
  8
LC-002-002-----0
 62
     7
370
    25
100
AcDbLine
 10
1442.667037
 20
2019.740584
 30
0.0
 11
1444.667037
 21
2019.740584
 31
0.0
  0
LINE
  5
577
102
{ACAD_REACTORS
330
6EA
102
}
330
1F
100
AcDbEntity
  8
LC-002-002-----0
 62
     7
370
    25
100
AcDbLine
 10
1496.680888
 20
1988.73537
 30
0.0
 11
1496.680888
 21
1975.23537
 31
0.0
  0
LINE
  5
578
102
{ACAD_REACTORS
330
6EA
102
}
330
1F
100
AcDbEntity
  8
LC-002-002-----0
 62
     7
370
    25
100
AcDbLine
 10
1497.835681
 20
1988.73537
 30
0.0
 11
1497.835681
 21
1988.98537
 31
0.0
  0
LINE
  5
579
102
{ACAD_REACTORS
330
6EA
102
}
330
1F
100
AcDbEntity
  8
LC-002-002-----0
 62
     7
370
    25
100
AcDbLine
 10
1498.585681
 20
1989.73537
 30
0.0
 11
1498.585681
 21
1992.23537
 31
0.0
  0
LINE
  5
57A
102
{ACAD_REACTORS
330
6EA
102
}
330
1F
100
AcDbEntity
  8
LC-002-002-----0
 62
     7
370
    25
100
AcDbLine
 10
1443.176095
 20
1992.23537
 30
0.0
 11
1498.585681
 21
1992.23537
 31
0.0
  0
LINE
  5
57B
102
{ACAD_REACTORS
330
6EA
102
}
330
1F
100
AcDbEntity
  8
LC-002-002-----0
 62
     7
370
    25
100
AcDbLine
 10
1497.835681
 20
1988.73537
 30
0.0
 11
1496.680888
 21
1988.73537
 31
0.0
  0
LINE
  5
57C
102
{ACAD_REACTORS
330
6EA
102
}
330
1F
100
AcDbEntity
  8
LC-002-002-----0
 62
     7
370
    25
100
AcDbLine
 10
1494.681008
 20
1973.23537
 30
0.0
 11
1447.080888
 21
1973.23537
 31
0.0
  0
LINE
  5
57D
102
{ACAD_REACTORS
330
6EA
102
}
330
1F
100
AcDbEntity
  8
LC-002-002-----0
 62
     7
370
    25
100
AcDbLine
 10
1444.667164
 20
2065.254308
 30
0.0
 11
1447.780912
 21
2062.140559
 31
0.0
  0
LINE
  5
57E
102
{ACAD_REACTORS
330
6EA
102
}
330
1F
100
AcDbEntity
  8
LC-002-002-----0
 62
     7
370
    25
100
AcDbLine
 10
1492.880768
 20
2014.235491
 30
0.0
 11
1490.88083
 21
2016.235428
 31
0.0
  0
LINE
  5
57F
102
{ACAD_REACTORS
330
6EA
102
}
330
1F
100
AcDbEntity
  8
LC-002-002-----0
 62
     7
370
    25
100
AcDbLine
 10
1443.926096
 20
1988.985369
 30
0.0
 11
1443.176096
 21
1989.735369
 31
0.0
  0
LINE
  5
580
102
{ACAD_REACTORS
330
6EA
102
}
330
1F
100
AcDbEntity
  8
LC-002-002-----0
 62
     7
370
    25
100
AcDbLine
 10
1441.126113
 20
2019.740672
 30
0.0
 11
1441.896549
 21
2018.260677
 31
0.0
  0
LINE
  5
581
102
{ACAD_REACTORS
330
6EA
102
}
330
1F
100
AcDbEntity
  8
LC-002-002-----0
 62
     7
370
    25
100
AcDbLine
 10
1439.585235
 20
2019.740672
 30
0.0
 11
1440.355671
 21
2018.260677
 31
0.0
  0
LINE
  5
582
102
{ACAD_REACTORS
330
6EA
102
}
330
1F
100
AcDbEntity
  8
LC-002-002-----0
 62
     7
370
    25
100
AcDbLine
 10
1438.044356
 20
2019.740672
 30
0.0
 11
1438.814792
 21
2018.260677
 31
0.0
  0
LINE
  5
583
102
{ACAD_REACTORS
330
6EA
102
}
330
1F
100
AcDbEntity
  8
LC-002-002-----0
 62
     7
370
    25
100
AcDbLine
 10
1436.503478
 20
2019.740672
 30
0.0
 11
1437.273914
 21
2018.260677
 31
0.0
  0
LINE
  5
584
102
{ACAD_REACTORS
330
6EA
102
}
330
1F
100
AcDbEntity
  8
LC-002-002-----0
 62
     7
370
    25
100
AcDbLine
 10
1434.962433
 20
2019.740992
 30
0.0
 11
1435.733035
 21
2018.260677
 31
0.0
  0
LINE
  5
585
102
{ACAD_REACTORS
330
6EA
102
}
330
1F
100
AcDbEntity
  8
LC-002-002-----0
 62
     7
370
    25
100
AcDbLine
 10
1433.421499
 20
2019.741097
 30
0.0
 11
1434.192099
 21
2018.26079
 31
0.0
  0
LINE
  5
586
102
{ACAD_REACTORS
330
6EA
102
}
330
1F
100
AcDbEntity
  8
LC-002-002-----0
 62
     7
370
    25
100
AcDbLine
 10
1431.880676
 20
2019.740992
 30
0.0
 11
1432.651279
 21
2018.260677
 31
0.0
  0
ARC
  5
587
102
{ACAD_REACTORS
330
6EA
102
}
330
1F
100
AcDbEntity
  8
LC-002-002-----0
 62
     7
370
    25
100
AcDbCircle
 10
1450.880888
 20
2022.140584
 30
0.0
 40
39.99972357249999
100
AcDbArc
 50
0.0
 51
90.0
  0
ARC
  5
588
102
{ACAD_REACTORS
330
6EA
102
}
330
1F
100
AcDbEntity
  8
LC-002-002-----0
 62
     7
370
    25
100
AcDbCircle
 10
1447.080888
 20
1975.23537
 30
0.0
 40
2.0
100
AcDbArc
 50
180.0
 51
270.0
  0
ARC
  5
589
102
{ACAD_REACTORS
330
6EA
102
}
330
1F
100
AcDbEntity
  8
LC-002-002-----0
 62
     7
370
    25
100
AcDbCircle
 10
1494.680888
 20
1975.23537
 30
0.0
 40
2.0
100
AcDbArc
 50
270.0
 51
360.0
  0
LINE
  5
58A
102
{ACAD_REACTORS
330
6EA
102
}
330
1F
100
AcDbEntity
  8
LC-002-002-----0
 62
     7
370
    25
100
AcDbLine
 10
1450.376272
 20
2022.140584
 30
0.0
 11
1450.734441
 21
2021.994137
 31
0.0
  0
LINE
  5
58B
102
{ACAD_REACTORS
330
6EA
102
}
330
1F
100
AcDbEntity
  8
LC-002-002-----0
 62
     7
370
    25
100
AcDbLine
 10
1450.734441
 20
2021.994137
 30
0.0
 11
1450.880888
 21
2021.635968
 31
0.0
  0
LINE
  5
58C
102
{ACAD_REACTORS
330
6EA
102
}
330
1F
100
AcDbEntity
  8
LC-002-002-----0
 62
     7
370
    25
100
AcDbLine
 10
1432.651434
 20
2066.020378
 30
0.0
 11
1433.421979
 21
2064.540176
 31
0.0
  0
LINE
  5
58D
102
{ACAD_REACTORS
330
6EA
102
}
330
1F
100
AcDbEntity
  8
LC-002-002-----0
 62
     7
370
    25
100
AcDbLine
 10
1434.192254
 20
2066.02049
 30
0.0
 11
1434.962912
 21
2064.540071
 31
0.0
  0
LINE
  5
58E
102
{ACAD_REACTORS
330
6EA
102
}
330
1F
100
AcDbEntity
  8
LC-002-002-----0
 62
     7
370
    25
100
AcDbLine
 10
1435.733191
 20
2066.020378
 30
0.0
 11
1436.503624
 21
2064.540391
 31
0.0
  0
LINE
  5
58F
102
{ACAD_REACTORS
330
6EA
102
}
330
1F
100
AcDbEntity
  8
LC-002-002-----0
 62
     7
370
    25
100
AcDbLine
 10
1437.27407
 20
2066.020378
 30
0.0
 11
1438.044502
 21
2064.540391
 31
0.0
  0
LINE
  5
590
102
{ACAD_REACTORS
330
6EA
102
}
330
1F
100
AcDbEntity
  8
LC-002-002-----0
 62
     7
370
    25
100
AcDbLine
 10
1438.814948
 20
2066.020378
 30
0.0
 11
1439.585381
 21
2064.540391
 31
0.0
  0
LINE
  5
591
102
{ACAD_REACTORS
330
6EA
102
}
330
1F
100
AcDbEntity
  8
LC-002-002-----0
 62
     7
370
    25
100
AcDbLine
 10
1440.355827
 20
2066.020378
 30
0.0
 11
1441.126259
 21
2064.540391
 31
0.0
  0
LINE
  5
592
102
{ACAD_REACTORS
330
6EA
102
}
330
1F
100
AcDbEntity
  8
LC-002-002-----0
 62
     7
370
    25
100
AcDbLine
 10
1441.896705
 20
2066.020378
 30
0.0
 11
1442.667138
 21
2064.540391
 31
0.0
  0
LINE
  5
593
102
{ACAD_REACTORS
330
6EA
102
}
330
1F
100
AcDbEntity
  8
LC-002-002-----0
 62
     7
370
    25
100
AcDbLine
 10
1430.880888
 20
2064.540584
 30
0.0
 11
1431.880888
 21
2064.540584
 31
0.0
  0
LINE
  5
594
102
{ACAD_REACTORS
330
6EA
102
}
330
1F
100
AcDbEntity
  8
LC-002-002-----0
 62
     7
370
    25
100
AcDbLine
 10
1442.667037
 20
2064.540584
 30
0.0
 11
1444.667037
 21
2064.540584
 31
0.0
  0
LINE
  5
595
102
{ACAD_REACTORS
330
6EA
102
}
330
1F
100
AcDbEntity
  8
LC-002-002-----0
 62
     7
370
    25
100
AcDbLine
 10
1441.126113
 20
2064.540496
 30
0.0
 11
1441.896549
 21
2066.02049
 31
0.0
  0
LINE
  5
596
102
{ACAD_REACTORS
330
6EA
102
}
330
1F
100
AcDbEntity
  8
LC-002-002-----0
 62
     7
370
    25
100
AcDbLine
 10
1439.585235
 20
2064.540496
 30
0.0
 11
1440.355671
 21
2066.02049
 31
0.0
  0
LINE
  5
597
102
{ACAD_REACTORS
330
6EA
102
}
330
1F
100
AcDbEntity
  8
LC-002-002-----0
 62
     7
370
    25
100
AcDbLine
 10
1438.044356
 20
2064.540496
 30
0.0
 11
1438.814792
 21
2066.02049
 31
0.0
  0
LINE
  5
598
102
{ACAD_REACTORS
330
6EA
102
}
330
1F
100
AcDbEntity
  8
LC-002-002-----0
 62
     7
370
    25
100
AcDbLine
 10
1436.503478
 20
2064.540496
 30
0.0
 11
1437.273914
 21
2066.02049
 31
0.0
  0
LINE
  5
599
102
{ACAD_REACTORS
330
6EA
102
}
330
1F
100
AcDbEntity
  8
LC-002-002-----0
 62
     7
370
    25
100
AcDbLine
 10
1434.962433
 20
2064.540176
 30
0.0
 11
1435.733035
 21
2066.02049
 31
0.0
  0
LINE
  5
59A
102
{ACAD_REACTORS
330
6EA
102
}
330
1F
100
AcDbEntity
  8
LC-002-002-----0
 62
     7
370
    25
100
AcDbLine
 10
1433.421499
 20
2064.540071
 30
0.0
 11
1434.192099
 21
2066.020378
 31
0.0
  0
LINE
  5
59B
102
{ACAD_REACTORS
330
6EA
102
}
330
1F
100
AcDbEntity
  8
LC-002-002-----0
 62
     7
370
    25
100
AcDbLine
 10
1431.880676
 20
2064.540176
 30
0.0
 11
1432.651279
 21
2066.02049
 31
0.0
  0
LINE
  5
59C
102
{ACAD_REACTORS
330
6EA
102
}
330
1F
100
AcDbEntity
  8
LC-002-002-----0
 62
     7
370
    25
100
AcDbLine
 10
1470.879436
 20
1988.73537
 30
0.0
 11
1470.879436
 21
1975.23537
 31
0.0
  0
INSERT
  5
5AC
102
{ACAD_REACTORS
330
6EA
102
}
330
1F
100
AcDbEntity
  8
LC-002-002-----0
 62
     7
370
    25
100
AcDbBlockReference
  2
POLY10
 10
0.0
 20
0.0
 30
0.0
  0
LINE
  5
5AD
102
{ACAD_REACTORS
330
6EF
102
}
330
1F
100
AcDbEntity
  8
LC-002-002-----0
 62
     7
370
    25
100
AcDbLine
 10
1448.480888
 20
1834.386331
 30
0.0
 11
1448.480888
 21
1857.886331
 31
0.0
  0
LINE
  5
5AE
102
{ACAD_REACTORS
330
6F0
102
}
330
1F
100
AcDbEntity
  8
LC-002-002-----0
 62
     7
370
    25
100
AcDbLine
 10
1450.880888
 20
1876.886331
 30
0.0
 11
1450.880888
 21
1932.886331
 31
0.0
  0
LINE
  5
5AF
102
{ACAD_REACTORS
330
6F0
102
}
330
1F
100
AcDbEntity
  8
LC-002-002-----0
 62
     7
370
    25
100
AcDbLine
 10
1490.880888
 20
1876.886331
 30
0.0
 11
1490.880888
 21
1932.886331
 31
0.0
  0
LINE
  5
5B0
102
{ACAD_REACTORS
330
6EF
102
}
330
1F
100
AcDbEntity
  8
LC-002-002-----0
 62
     7
370
    25
100
AcDbLine
 10
1493.280888
 20
1836.33948
 30
0.0
 11
1493.280888
 21
1857.886331
 31
0.0
  0
ARC
  5
5B1
102
{ACAD_REACTORS
330
6F0
102
}
330
1F
100
AcDbEntity
  8
LC-002-002-----0
 62
     7
370
    25
100
AcDbCircle
 10
1470.880888
 20
1932.886331
 30
0.0
 40
20.0
100
AcDbArc
 50
0.0
 51
180.0
  0
LINE
  5
5B2
102
{ACAD_REACTORS
330
6EF
102
}
330
1F
100
AcDbEntity
  8
LC-002-002-----0
 62
     7
370
    25
100
AcDbLine
 10
1443.176095
 20
1860.386331
 30
0.0
 11
1443.176095
 21
1857.886331
 31
0.0
  0
LINE
  5
5B3
102
{ACAD_REACTORS
330
6EF
102
}
330
1F
100
AcDbEntity
  8
LC-002-002-----0
 62
     7
370
    25
100
AcDbLine
 10
1443.926095
 20
1861.386331
 30
0.0
 11
1443.926095
 21
1861.136331
 31
0.0
  0
LINE
  5
5B4
102
{ACAD_REACTORS
330
6EF
102
}
330
1F
100
AcDbEntity
  8
LC-002-002-----0
 62
     7
370
    25
100
AcDbLine
 10
1445.080888
 20
1861.386331
 30
0.0
 11
1445.080888
 21
1874.886331
 31
0.0
  0
LINE
  5
5B5
102
{ACAD_REACTORS
330
6EF
102
}
330
1F
100
AcDbEntity
  8
LC-002-002-----0
 62
     7
370
    25
100
AcDbLine
 10
1496.680888
 20
1861.386331
 30
0.0
 11
1496.680888
 21
1874.886331
 31
0.0
  0
LINE
  5
5B6
102
{ACAD_REACTORS
330
6EF
102
}
330
1F
100
AcDbEntity
  8
LC-002-002-----0
 62
     7
370
    25
100
AcDbLine
 10
1497.835681
 20
1861.386331
 30
0.0
 11
1497.835681
 21
1861.136331
 31
0.0
  0
LINE
  5
5B7
102
{ACAD_REACTORS
330
6EF
102
}
330
1F
100
AcDbEntity
  8
LC-002-002-----0
 62
     7
370
    25
100
AcDbLine
 10
1498.585681
 20
1860.386331
 30
0.0
 11
1498.585681
 21
1857.886331
 31
0.0
  0
LINE
  5
5B8
102
{ACAD_REACTORS
330
6EF
102
}
330
1F
100
AcDbEntity
  8
LC-002-002-----0
 62
     7
370
    25
100
AcDbLine
 10
1443.926096
 20
1861.136332
 30
0.0
 11
1443.176096
 21
1860.386332
 31
0.0
  0
LINE
  5
5B9
102
{ACAD_REACTORS
330
6EF
102
}
330
1F
100
AcDbEntity
  8
LC-002-002-----0
 62
     7
370
    25
100
AcDbLine
 10
1494.680888
 20
1876.886331
 30
0.0
 11
1447.080888
 21
1876.886331
 31
0.0
  0
LINE
  5
5BA
102
{ACAD_REACTORS
330
6EF
102
}
330
1F
100
AcDbEntity
  8
LC-002-002-----0
 62
     7
370
    25
100
AcDbLine
 10
1497.835664
 20
1861.386331
 30
0.0
 11
1496.680888
 21
1861.386331
 31
0.0
  0
LINE
  5
5BB
102
{ACAD_REACTORS
330
6EF
102
}
330
1F
100
AcDbEntity
  8
LC-002-002-----0
 62
     7
370
    25
100
AcDbLine
 10
1498.585681
 20
1857.886331
 30
0.0
 11
1443.176095
 21
1857.886331
 31
0.0
  0
LINE
  5
5BC
102
{ACAD_REACTORS
330
6EF
102
}
330
1F
100
AcDbEntity
  8
LC-002-002-----0
 62
     7
370
    25
100
AcDbLine
 10
1497.83568
 20
1861.136332
 30
0.0
 11
1498.58568
 21
1860.386332
 31
0.0
  0
ARC
  5
5BD
102
{ACAD_REACTORS
330
6EF
102
}
330
1F
100
AcDbEntity
  8
LC-002-002-----0
 62
     7
370
    25
100
AcDbCircle
 10
1494.680888
 20
1874.886331
 30
0.0
 40
2.0
100
AcDbArc
 50
0.0
 51
90.0
  0
ARC
  5
5BE
102
{ACAD_REACTORS
330
6EF
102
}
330
1F
100
AcDbEntity
  8
LC-002-002-----0
 62
     7
370
    25
100
AcDbCircle
 10
1447.080888
 20
1874.886331
 30
0.0
 40
2.0
100
AcDbArc
 50
90.0
 51
180.0
  0
LINE
  5
5BF
102
{ACAD_REACTORS
330
6EF
102
}
330
1F
100
AcDbEntity
  8
LC-002-002-----0
 62
     7
370
    25
100
AcDbLine
 10
1470.879436
 20
1861.386331
 30
0.0
 11
1470.879436
 21
1874.886331
 31
0.0
  0
INSERT
  5
5CF
102
{ACAD_REACTORS
330
6EF
102
}
330
1F
100
AcDbEntity
  8
LC-002-002-----0
 62
     7
370
    25
100
AcDbBlockReference
  2
POLY11
 10
0.0
 20
0.0
 30
0.0
  0
ARC
  5
5D0
102
{ACAD_REACTORS
330
6F0
102
}
330
1F
100
AcDbEntity
  8
LC-002-002-----0
 62
     7
370
    25
100
AcDbCircle
 10
1470.880888
 20
1932.886331
 30
0.0
 40
27.70479324130114
100
AcDbArc
 50
316.211302
 51
223.788698
  0
LINE
  5
5D1
102
{ACAD_REACTORS
330
6EF
102
}
330
1F
100
AcDbEntity
  8
LC-002-002-----0
 62
     7
370
    25
100
AcDbLine
 10
1448.880888
 20
1807.886331
 30
0.0
 11
1448.880888
 21
1833.986331
 31
0.0
  0
ARC
  5
5D2
102
{ACAD_REACTORS
330
6EF
102
}
330
1F
100
AcDbEntity
  8
LC-006-002-RND-0
 62
     7
370
    25
100
AcDbCircle
 10
1470.880888
 20
1807.886331
 30
0.0
 40
22.0
100
AcDbArc
 50
180.0
 51
270.0
  0
LINE
  5
5D3
102
{ACAD_REACTORS
330
6EF
102
}
330
1F
100
AcDbEntity
  8
LC-002-002-----0
 62
     7
370
    25
100
AcDbLine
 10
1502.840435
 20
1770.386331
 30
0.0
 11
1502.840435
 21
1845.386331
 31
0.0
  0
LINE
  5
5D4
102
{ACAD_REACTORS
330
6EF
102
}
330
1F
100
AcDbEntity
  8
LC-002-002-----0
 62
     7
370
    25
100
AcDbLine
 10
1493.280888
 20
1836.33948
 30
0.0
 11
1495.000918
 21
1836.653716
 31
0.0
  0
LINE
  5
5D5
102
{ACAD_REACTORS
330
6EF
102
}
330
1F
100
AcDbEntity
  8
LC-002-002-----0
 62
     7
370
    25
100
AcDbLine
 10
1505.340435
 20
1845.386331
 30
0.0
 11
1502.840435
 21
1845.386331
 31
0.0
  0
LINE
  5
5D6
102
{ACAD_REACTORS
330
6EF
102
}
330
1F
100
AcDbEntity
  8
LC-002-002-----0
 62
     7
370
    25
100
AcDbLine
 10
1502.137191
 20
1843.384469
 30
0.0
 11
1502.840435
 21
1843.384469
 31
0.0
  0
LINE
  5
5D7
102
{ACAD_REACTORS
330
6EF
102
}
330
1F
100
AcDbEntity
  8
LC-002-002-----0
 62
     7
370
    25
100
AcDbLine
 10
1470.880888
 20
1785.886331
 30
0.0
 11
1484.572073
 21
1785.886331
 31
0.0
  0
LINE
  5
5D8
102
{ACAD_REACTORS
330
6EF
102
}
330
1F
100
AcDbEntity
  8
LC-002-002-----0
 62
     7
370
    25
100
AcDbLine
 10
1502.137191
 20
1772.388194
 30
0.0
 11
1502.840435
 21
1772.388194
 31
0.0
  0
LINE
  5
5D9
102
{ACAD_REACTORS
330
6EF
102
}
330
1F
100
AcDbEntity
  8
LC-002-002-----0
 62
     7
370
    25
100
AcDbLine
 10
1505.340435
 20
1770.386331
 30
0.0
 11
1502.840435
 21
1770.386331
 31
0.0
  0
LINE
  5
5DA
102
{ACAD_REACTORS
330
6EF
102
}
330
1F
100
AcDbEntity
  8
LC-002-002-----0
 62
     7
370
    25
100
AcDbLine
 10
1492.382055
 20
1779.597392
 30
0.0
 11
1495.000918
 21
1779.118946
 31
0.0
  0
LINE
  5
5DB
102
{ACAD_REACTORS
330
6EF
102
}
330
1F
100
AcDbEntity
  8
LC-002-002-----0
 62
     7
370
    25
100
AcDbLine
 10
1448.480915
 20
1834.386304
 30
0.0
 11
1448.880996
 21
1833.986223
 31
0.0
  0
ARC
  5
5DC
102
{ACAD_REACTORS
330
6EF
102
}
330
1F
100
AcDbEntity
  8
LC-002-002-----0
 62
     7
370
    25
100
AcDbCircle
 10
1493.550245
 20
1785.991556
 30
0.0
 40
6.500000000000005
100
AcDbArc
 50
199.07704
 51
259.645823
  0
ARC
  5
5DD
102
{ACAD_REACTORS
330
6EF
102
}
330
1F
100
AcDbEntity
  8
LC-002-002-----0
 62
     7
370
    25
100
AcDbCircle
 10
1484.572073
 20
1782.886331
 30
0.0
 40
3.000000000000295
100
AcDbArc
 50
19.055448
 51
90.0
  0
ARC
  5
5DE
102
{ACAD_REACTORS
330
6EF
102
}
330
1F
100
AcDbEntity
  8
LC-002-002-----0
 62
     7
370
    25
100
AcDbCircle
 10
1502.137191
 20
1774.388194
 30
0.0
 40
2.000000000000076
100
AcDbArc
 50
244.152631
 51
270.0
  0
ARC
  5
5DF
102
{ACAD_REACTORS
330
6EF
102
}
330
1F
100
AcDbEntity
  8
LC-002-002-----0
 62
     7
370
    25
100
AcDbCircle
 10
1502.137191
 20
1841.384469
 30
0.0
 40
2.0
100
AcDbArc
 50
90.0
 51
115.847369
  0
ARC
  5
5E0
102
{ACAD_REACTORS
330
6EF
102
}
330
1F
100
AcDbEntity
  8
LC-002-002-----0
 62
     7
370
    25
100
AcDbCircle
 10
1503.880888
 20
1777.988127
 30
0.0
 40
5.999999999999973
100
AcDbArc
 50
196.283517
 51
244.155028
  0
ARC
  5
5E1
102
{ACAD_REACTORS
330
6EF
102
}
330
1F
100
AcDbEntity
  8
LC-002-002-----0
 62
     7
370
    25
100
AcDbCircle
 10
1503.880888
 20
1837.784535
 30
0.0
 40
6.000000000000001
100
AcDbArc
 50
115.844972
 51
163.716483
  0
ARC
  5
5E2
102
{ACAD_REACTORS
330
6EF
102
}
330
1F
100
AcDbEntity
  8
LC-002-002-----0
 62
     7
370
    25
100
AcDbCircle
 10
1494.282073
 20
1775.184068
 30
0.0
 40
3.999999999999933
100
AcDbArc
 50
16.281751
 51
79.647048
  0
ARC
  5
5E3
102
{ACAD_REACTORS
330
6EF
102
}
330
1F
100
AcDbEntity
  8
LC-002-002-----0
 62
     7
370
    25
100
AcDbCircle
 10
1494.282073
 20
1840.588594
 30
0.0
 40
4.00000000000002
100
AcDbArc
 50
280.352952
 51
343.718249
  0
LINE
  5
5E4
102
{ACAD_REACTORS
330
6EF
102
}
330
1F
100
AcDbEntity
  8
LC-002-002-----0
 62
     7
370
    25
100
AcDbLine
 10
1545.483116
 20
1862.886331
 30
0.0
 11
1545.483116
 21
1752.886331
 31
0.0
  0
LINE
  5
5E5
102
{ACAD_REACTORS
330
6EF
102
}
330
1F
100
AcDbEntity
  8
LC-002-002-----0
 62
     7
370
    25
100
AcDbLine
 10
1541.483116
 20
1752.886331
 30
0.0
 11
1545.483116
 21
1752.886331
 31
0.0
  0
LINE
  5
5E6
102
{ACAD_REACTORS
330
6EF
102
}
330
1F
100
AcDbEntity
  8
LC-002-002-----0
 62
     7
370
    25
100
AcDbLine
 10
1505.340435
 20
1768.381368
 30
0.0
 11
1505.340435
 21
1770.386331
 31
0.0
  0
LINE
  5
5E7
102
{ACAD_REACTORS
330
6EF
102
}
330
1F
100
AcDbEntity
  8
LC-002-002-----0
 62
     7
370
    25
100
AcDbLine
 10
1509.67021
 20
1765.136941
 30
0.0
 11
1510.680558
 21
1763.386966
 31
0.0
  0
LINE
  5
5E8
102
{ACAD_REACTORS
330
6EF
102
}
330
1F
100
AcDbEntity
  8
LC-002-002-----0
 62
     7
370
    25
100
AcDbLine
 10
1515.877078
 20
1760.386331
 30
0.0
 11
1531.340435
 21
1760.386331
 31
0.0
  0
LINE
  5
5E9
102
{ACAD_REACTORS
330
6EF
102
}
330
1F
100
AcDbEntity
  8
LC-002-002-----0
 62
     7
370
    25
100
AcDbLine
 10
1541.022893
 20
1752.886331
 30
0.0
 11
1541.483116
 21
1752.886331
 31
0.0
  0
ARC
  5
5EA
102
{ACAD_REACTORS
330
6EF
102
}
330
1F
100
AcDbEntity
  8
LC-002-002-----0
 62
     7
370
    25
100
AcDbCircle
 10
1531.340435
 20
1756.386331
 30
0.0
 40
3.999999999999755
100
AcDbArc
 50
14.492147
 51
90.0
  0
ARC
  5
5EB
102
{ACAD_REACTORS
330
6EF
102
}
330
1F
100
AcDbEntity
  8
LC-002-002-----0
 62
     7
370
    25
100
AcDbCircle
 10
1541.022893
 20
1758.886331
 30
0.0
 40
5.999999999999878
100
AcDbArc
 50
194.469452
 51
270.0
  0
ARC
  5
5EC
102
{ACAD_REACTORS
330
6EF
102
}
330
1F
100
AcDbEntity
  8
LC-002-002-----0
 62
     7
370
    25
100
AcDbCircle
 10
1515.877078
 20
1766.386331
 30
0.0
 40
6.000000000000091
100
AcDbArc
 50
209.988476
 51
270.0
  0
ARC
  5
5ED
102
{ACAD_REACTORS
330
6EF
102
}
330
1F
100
AcDbEntity
  8
LC-002-002-----0
 62
     7
370
    25
100
AcDbCircle
 10
1505.340435
 20
1762.636331
 30
0.0
 40
4.999999999999792
100
AcDbArc
 50
30.016153
 51
82.072225
  0
ARC
  5
5EE
102
{ACAD_REACTORS
330
6EF
102
}
330
1F
100
AcDbEntity
  8
LC-002-002-----0
 62
     7
370
    25
100
AcDbCircle
 10
1506.140435
 20
1768.380894
 30
0.0
 40
0.7999999999997272
100
AcDbArc
 50
180.0
 51
262.062606
  0
LINE
  5
5EF
102
{ACAD_REACTORS
330
6EF
102
}
330
1F
100
AcDbEntity
  8
LC-002-002-----0
 62
     7
370
    25
100
AcDbLine
 10
1541.483116
 20
1862.886331
 30
0.0
 11
1545.483116
 21
1862.886331
 31
0.0
  0
LINE
  5
5F0
102
{ACAD_REACTORS
330
6EF
102
}
330
1F
100
AcDbEntity
  8
LC-002-002-----0
 62
     7
370
    25
100
AcDbLine
 10
1509.67021
 20
1850.635721
 30
0.0
 11
1510.680558
 21
1852.385696
 31
0.0
  0
LINE
  5
5F1
102
{ACAD_REACTORS
330
6EF
102
}
330
1F
100
AcDbEntity
  8
LC-002-002-----0
 62
     7
370
    25
100
AcDbLine
 10
1515.877078
 20
1855.386331
 30
0.0
 11
1531.340435
 21
1855.386331
 31
0.0
  0
LINE
  5
5F2
102
{ACAD_REACTORS
330
6EF
102
}
330
1F
100
AcDbEntity
  8
LC-002-002-----0
 62
     7
370
    25
100
AcDbLine
 10
1541.022893
 20
1862.886331
 30
0.0
 11
1541.483116
 21
1862.886331
 31
0.0
  0
ARC
  5
5F3
102
{ACAD_REACTORS
330
6EF
102
}
330
1F
100
AcDbEntity
  8
LC-002-002-----0
 62
     7
370
    25
100
AcDbCircle
 10
1531.340435
 20
1859.386331
 30
0.0
 40
4.0
100
AcDbArc
 50
270.0
 51
345.507853
  0
ARC
  5
5F4
102
{ACAD_REACTORS
330
6EF
102
}
330
1F
100
AcDbEntity
  8
LC-002-002-----0
 62
     7
370
    25
100
AcDbCircle
 10
1541.022893
 20
1856.886331
 30
0.0
 40
6.0
100
AcDbArc
 50
90.0
 51
165.530548
  0
ARC
  5
5F5
102
{ACAD_REACTORS
330
6EF
102
}
330
1F
100
AcDbEntity
  8
LC-002-002-----0
 62
     7
370
    25
100
AcDbCircle
 10
1515.877078
 20
1849.386331
 30
0.0
 40
6.0
100
AcDbArc
 50
90.0
 51
150.011524
  0
ARC
  5
5F6
102
{ACAD_REACTORS
330
6EF
102
}
330
1F
100
AcDbEntity
  8
LC-002-002-----0
 62
     7
370
    25
100
AcDbCircle
 10
1505.340435
 20
1853.136331
 30
0.0
 40
4.999999999999969
100
AcDbArc
 50
277.927775
 51
329.983847
  0
ARC
  5
5F7
102
{ACAD_REACTORS
330
6EF
102
}
330
1F
100
AcDbEntity
  8
LC-002-002-----0
 62
     7
370
    25
100
AcDbCircle
 10
1506.140435
 20
1847.391769
 30
0.0
 40
0.7999999999996874
100
AcDbArc
 50
97.937394
 51
180.0
  0
LINE
  5
5F8
102
{ACAD_REACTORS
330
6F4
102
}
330
1F
100
AcDbEntity
  8
LC-002-002-----0
 62
     7
370
    25
100
AcDbLine
 10
749.431535
 20
2524.407319
 30
0.0
 11
747.426098
 21
2524.407319
 31
0.0
  0
LINE
  5
5F9
102
{ACAD_REACTORS
330
6F5
102
}
330
1F
100
AcDbEntity
  8
LC-002-002-----0
 62
     7
370
    25
100
AcDbLine
 10
969.431535
 20
2468.407319
 30
0.0
 11
967.426572
 21
2468.407319
 31
0.0
  0
INSERT
  5
601
102
{ACAD_REACTORS
330
6F1
102
}
330
1F
100
AcDbEntity
  8
LC-014-005-----0
 62
     7
370
    25
100
AcDbBlockReference
  2
*X328
 10
0.0
 20
0.0
 30
0.0
  0
INSERT
  5
609
102
{ACAD_REACTORS
330
6F1
102
}
330
1F
100
AcDbEntity
  8
LC-014-005-----0
 62
     7
370
    25
100
AcDbBlockReference
  2
*X429
 10
0.0
 20
0.0
 30
0.0
  0
LINE
  5
60A
102
{ACAD_REACTORS
330
6EF
102
}
330
1F
100
AcDbEntity
  8
LC-002-002-----0
 62
     7
370
    25
100
AcDbLine
 10
1505.340435
 20
1845.386331
 30
0.0
 11
1505.340435
 21
1847.391769
 31
0.0
  0
LINE
  5
60B
102
{ACAD_REACTORS
330
6EE
102
}
330
1F
100
AcDbEntity
  8
LC-002-002-----0
 62
     7
370
    25
100
AcDbLine
 10
1504.480888
 20
1849.24443
 30
0.0
 11
1504.480888
 21
1857.886331
 31
0.0
  0
LINE
  5
60C
102
{ACAD_REACTORS
330
6EB
102
}
330
1F
100
AcDbEntity
  8
LC-002-002-----0
 62
     7
370
    25
100
AcDbLine
 10
1506.880888
 20
1876.886331
 30
0.0
 11
1506.880888
 21
1932.886331
 31
0.0
  0
LINE
  5
60D
102
{ACAD_REACTORS
330
6EB
102
}
330
1F
100
AcDbEntity
  8
LC-002-002-----0
 62
     7
370
    25
100
AcDbLine
 10
1546.880888
 20
1876.886331
 30
0.0
 11
1546.880888
 21
1932.886331
 31
0.0
  0
ARC
  5
60E
102
{ACAD_REACTORS
330
6EB
102
}
330
1F
100
AcDbEntity
  8
LC-002-002-----0
 62
     7
370
    25
100
AcDbCircle
 10
1526.880888
 20
1932.886331
 30
0.0
 40
20.0
100
AcDbArc
 50
0.0
 51
180.0
  0
LINE
  5
60F
102
{ACAD_REACTORS
330
6EE
102
}
330
1F
100
AcDbEntity
  8
LC-002-002-----0
 62
     7
370
    25
100
AcDbLine
 10
1499.176095
 20
1860.386331
 30
0.0
 11
1499.176095
 21
1857.886331
 31
0.0
  0
LINE
  5
610
102
{ACAD_REACTORS
330
6EE
102
}
330
1F
100
AcDbEntity
  8
LC-002-002-----0
 62
     7
370
    25
100
AcDbLine
 10
1499.926095
 20
1861.386331
 30
0.0
 11
1499.926095
 21
1861.136331
 31
0.0
  0
LINE
  5
611
102
{ACAD_REACTORS
330
6EE
102
}
330
1F
100
AcDbEntity
  8
LC-002-002-----0
 62
     7
370
    25
100
AcDbLine
 10
1501.080888
 20
1861.386331
 30
0.0
 11
1501.080888
 21
1874.886331
 31
0.0
  0
LINE
  5
612
102
{ACAD_REACTORS
330
6EE
102
}
330
1F
100
AcDbEntity
  8
LC-002-002-----0
 62
     7
370
    25
100
AcDbLine
 10
1499.926096
 20
1861.136332
 30
0.0
 11
1499.176096
 21
1860.386332
 31
0.0
  0
LINE
  5
613
102
{ACAD_REACTORS
330
6EE
102
}
330
1F
100
AcDbEntity
  8
LC-002-002-----0
 62
     7
370
    25
100
AcDbLine
 10
1550.680888
 20
1876.886331
 30
0.0
 11
1503.080888
 21
1876.886331
 31
0.0
  0
LINE
  5
614
102
{ACAD_REACTORS
330
6EE
102
}
330
1F
100
AcDbEntity
  8
LC-002-002-----0
 62
     7
370
    25
100
AcDbLine
 10
1533.029569
 20
1857.886331
 30
0.0
 11
1499.176095
 21
1857.886331
 31
0.0
  0
ARC
  5
615
102
{ACAD_REACTORS
330
6EE
102
}
330
1F
100
AcDbEntity
  8
LC-002-002-----0
 62
     7
370
    25
100
AcDbCircle
 10
1503.080888
 20
1874.886331
 30
0.0
 40
2.0
100
AcDbArc
 50
90.0
 51
180.0
  0
LINE
  5
616
102
{ACAD_REACTORS
330
6EE
102
}
330
1F
100
AcDbEntity
  8
LC-002-002-----0
 62
     7
370
    25
100
AcDbLine
 10
1526.879436
 20
1861.386331
 30
0.0
 11
1526.879436
 21
1874.886331
 31
0.0
  0
INSERT
  5
626
102
{ACAD_REACTORS
330
6EE
102
}
330
1F
100
AcDbEntity
  8
LC-002-002-----0
 62
     7
370
    25
100
AcDbBlockReference
  2
POLY12
 10
0.0
 20
0.0
 30
0.0
  0
ARC
  5
627
102
{ACAD_REACTORS
330
6EB
102
}
330
1F
100
AcDbEntity
  8
LC-002-002-----0
 62
     7
370
    25
100
AcDbCircle
 10
1526.880888
 20
1932.886331
 30
0.0
 40
27.70479324130114
100
AcDbArc
 50
316.211302
 51
223.788698
  0
LINE
  5
628
102
{ACAD_REACTORS
330
6EE
102
}
330
1F
100
AcDbEntity
  8
LC-002-002-----0
 62
     7
370
    25
100
AcDbLine
 10
1601.483116
 20
1862.886331
 30
0.0
 11
1601.483116
 21
1752.886331
 31
0.0
  0
LINE
  5
629
102
{ACAD_REACTORS
330
6EE
102
}
330
1F
100
AcDbEntity
  8
LC-002-002-----0
 62
     7
370
    25
100
AcDbLine
 10
1597.483116
 20
1752.886331
 30
0.0
 11
1601.483116
 21
1752.886331
 31
0.0
  0
LINE
  5
62A
102
{ACAD_REACTORS
330
6EE
102
}
330
1F
100
AcDbEntity
  8
LC-002-002-----0
 62
     7
370
    25
100
AcDbLine
 10
1561.340435
 20
1768.381368
 30
0.0
 11
1561.340435
 21
1770.386331
 31
0.0
  0
LINE
  5
62B
102
{ACAD_REACTORS
330
6EE
102
}
330
1F
100
AcDbEntity
  8
LC-002-002-----0
 62
     7
370
    25
100
AcDbLine
 10
1565.67021
 20
1765.136941
 30
0.0
 11
1566.680558
 21
1763.386966
 31
0.0
  0
LINE
  5
62C
102
{ACAD_REACTORS
330
6EE
102
}
330
1F
100
AcDbEntity
  8
LC-002-002-----0
 62
     7
370
    25
100
AcDbLine
 10
1571.877078
 20
1760.386331
 30
0.0
 11
1587.340435
 21
1760.386331
 31
0.0
  0
LINE
  5
62D
102
{ACAD_REACTORS
330
6EE
102
}
330
1F
100
AcDbEntity
  8
LC-002-002-----0
 62
     7
370
    25
100
AcDbLine
 10
1597.022893
 20
1752.886331
 30
0.0
 11
1597.483116
 21
1752.886331
 31
0.0
  0
ARC
  5
62E
102
{ACAD_REACTORS
330
6EE
102
}
330
1F
100
AcDbEntity
  8
LC-002-002-----0
 62
     7
370
    25
100
AcDbCircle
 10
1587.340435
 20
1756.386331
 30
0.0
 40
3.999999999999755
100
AcDbArc
 50
14.492147
 51
90.0
  0
ARC
  5
62F
102
{ACAD_REACTORS
330
6EE
102
}
330
1F
100
AcDbEntity
  8
LC-002-002-----0
 62
     7
370
    25
100
AcDbCircle
 10
1597.022893
 20
1758.886331
 30
0.0
 40
5.999999999999878
100
AcDbArc
 50
194.469452
 51
270.0
  0
ARC
  5
630
102
{ACAD_REACTORS
330
6EE
102
}
330
1F
100
AcDbEntity
  8
LC-002-002-----0
 62
     7
370
    25
100
AcDbCircle
 10
1571.877078
 20
1766.386331
 30
0.0
 40
6.000000000000091
100
AcDbArc
 50
209.988476
 51
270.0
  0
ARC
  5
631
102
{ACAD_REACTORS
330
6EE
102
}
330
1F
100
AcDbEntity
  8
LC-002-002-----0
 62
     7
370
    25
100
AcDbCircle
 10
1561.340435
 20
1762.636331
 30
0.0
 40
4.999999999999792
100
AcDbArc
 50
30.016153
 51
82.072225
  0
ARC
  5
632
102
{ACAD_REACTORS
330
6EE
102
}
330
1F
100
AcDbEntity
  8
LC-002-002-----0
 62
     7
370
    25
100
AcDbCircle
 10
1562.140435
 20
1768.380894
 30
0.0
 40
0.7999999999997272
100
AcDbArc
 50
180.0
 51
262.062606
  0
LINE
  5
633
102
{ACAD_REACTORS
330
6EE
102
}
330
1F
100
AcDbEntity
  8
LC-002-002-----0
 62
     7
370
    25
100
AcDbLine
 10
1597.483116
 20
1862.886331
 30
0.0
 11
1601.483116
 21
1862.886331
 31
0.0
  0
LINE
  5
634
102
{ACAD_REACTORS
330
6EE
102
}
330
1F
100
AcDbEntity
  8
LC-002-002-----0
 62
     7
370
    25
100
AcDbLine
 10
1565.67021
 20
1850.635721
 30
0.0
 11
1566.680558
 21
1852.385696
 31
0.0
  0
LINE
  5
635
102
{ACAD_REACTORS
330
6EE
102
}
330
1F
100
AcDbEntity
  8
LC-002-002-----0
 62
     7
370
    25
100
AcDbLine
 10
1571.877078
 20
1855.386331
 30
0.0
 11
1587.340435
 21
1855.386331
 31
0.0
  0
LINE
  5
636
102
{ACAD_REACTORS
330
6EE
102
}
330
1F
100
AcDbEntity
  8
LC-002-002-----0
 62
     7
370
    25
100
AcDbLine
 10
1597.022893
 20
1862.886331
 30
0.0
 11
1597.483116
 21
1862.886331
 31
0.0
  0
ARC
  5
637
102
{ACAD_REACTORS
330
6EE
102
}
330
1F
100
AcDbEntity
  8
LC-002-002-----0
 62
     7
370
    25
100
AcDbCircle
 10
1587.340435
 20
1859.386331
 30
0.0
 40
4.0
100
AcDbArc
 50
270.0
 51
345.507853
  0
ARC
  5
638
102
{ACAD_REACTORS
330
6EE
102
}
330
1F
100
AcDbEntity
  8
LC-002-002-----0
 62
     7
370
    25
100
AcDbCircle
 10
1597.022893
 20
1856.886331
 30
0.0
 40
6.0
100
AcDbArc
 50
90.0
 51
165.530548
  0
ARC
  5
639
102
{ACAD_REACTORS
330
6EE
102
}
330
1F
100
AcDbEntity
  8
LC-002-002-----0
 62
     7
370
    25
100
AcDbCircle
 10
1571.877078
 20
1849.386331
 30
0.0
 40
6.0
100
AcDbArc
 50
90.0
 51
150.011524
  0
ARC
  5
63A
102
{ACAD_REACTORS
330
6EE
102
}
330
1F
100
AcDbEntity
  8
LC-002-002-----0
 62
     7
370
    25
100
AcDbCircle
 10
1561.340435
 20
1853.136331
 30
0.0
 40
4.999999999999969
100
AcDbArc
 50
277.927775
 51
329.983847
  0
ARC
  5
63B
102
{ACAD_REACTORS
330
6EE
102
}
330
1F
100
AcDbEntity
  8
LC-002-002-----0
 62
     7
370
    25
100
AcDbCircle
 10
1562.140435
 20
1847.391769
 30
0.0
 40
0.7999999999996874
100
AcDbArc
 50
97.937394
 51
180.0
  0
LINE
  5
63C
330
1F
100
AcDbEntity
  8
LC-002-002-----0
 62
     7
370
    25
100
AcDbLine
 10
1490.880888
 20
1912.886331
 30
0.0
 11
1506.880888
 21
1912.886331
 31
0.0
  0
INSERT
  5
656
330
1F
100
AcDbEntity
  8
LC-012-003-----0
 62
     7
370
    25
100
AcDbBlockReference
  2
LCDIM14
 10
0.0
 20
0.0
 30
0.0
  0
LINE
  5
657
102
{ACAD_REACTORS
330
6EA
102
}
330
1F
100
AcDbEntity
  8
LC-002-002-----0
 62
     7
370
    25
100
AcDbLine
 10
1445.080888
 20
1988.73537
 30
0.0
 11
1443.926095
 21
1988.73537
 31
0.0
  0
LINE
  5
658
102
{ACAD_REACTORS
330
6EF
102
}
330
1F
100
AcDbEntity
  8
LC-002-002-----0
 62
     7
370
    25
100
AcDbLine
 10
1445.080888
 20
1861.386331
 30
0.0
 11
1443.926112
 21
1861.386331
 31
0.0
  0
LINE
  5
659
102
{ACAD_REACTORS
330
6EE
102
}
330
1F
100
AcDbEntity
  8
LC-002-002-----0
 62
     7
370
    25
100
AcDbLine
 10
1501.080888
 20
1861.386331
 30
0.0
 11
1499.926112
 21
1861.386331
 31
0.0
  0
LINE
  5
65A
102
{ACAD_REACTORS
330
6F5
102
}
330
1F
100
AcDbEntity
  8
LC-002-002-----0
 62
     7
370
    25
100
AcDbLine
 10
953.527814
 20
2408.147772
 30
0.0
 11
953.527814
 21
2406.992996
 31
0.0
  0
INSERT
  5
674
102
{ACAD_REACTORS
330
6E8
102
}
330
1F
100
AcDbEntity
  8
LC-012-003-----0
 62
     7
370
    25
100
AcDbBlockReference
  2
LCDIM15
 10
0.0
 20
0.0
 30
0.0
  0
LINE
  5
675
102
{ACAD_REACTORS
330
6F4
102
}
330
1F
100
AcDbEntity
  8
LC-002-002-----0
 62
     7
370
    25
100
AcDbLine
 10
766.931535
 20
2433.947772
 30
0.0
 11
766.931535
 21
2470.776033
 31
0.0
  0
LINE
  5
676
102
{ACAD_REACTORS
330
6F4
102
}
330
1F
100
AcDbEntity
  8
LC-002-002-----0
 62
     7
370
    25
100
AcDbLine
 10
806.931535
 20
2453.947772
 30
0.0
 11
806.931535
 21
2470.776033
 31
0.0
  0
LINE
  5
677
102
{ACAD_REACTORS
330
6F5
102
}
330
1F
100
AcDbEntity
  8
LC-002-002-----0
 62
     7
370
    25
100
AcDbLine
 10
954.527814
 20
2461.652565
 30
0.0
 11
957.027814
 21
2461.652565
 31
0.0
  0
LINE
  5
678
102
{ACAD_REACTORS
330
6F5
102
}
330
1F
100
AcDbEntity
  8
LC-002-002-----0
 62
     7
370
    25
100
AcDbLine
 10
953.527814
 20
2460.902565
 30
0.0
 11
953.777814
 21
2460.902565
 31
0.0
  0
LINE
  5
679
102
{ACAD_REACTORS
330
6F5
102
}
330
1F
100
AcDbEntity
  8
LC-002-002-----0
 62
     7
370
    25
100
AcDbLine
 10
953.527814
 20
2459.747772
 30
0.0
 11
940.027814
 21
2459.747772
 31
0.0
  0
LINE
  5
67A
102
{ACAD_REACTORS
330
6F5
102
}
330
1F
100
AcDbEntity
  8
LC-002-002-----0
 62
     7
370
    25
100
AcDbLine
 10
953.777813
 20
2460.902564
 30
0.0
 11
954.527813
 21
2461.652564
 31
0.0
  0
ARC
  5
67B
102
{ACAD_REACTORS
330
6F5
102
}
330
1F
100
AcDbEntity
  8
LC-002-002-----0
 62
     7
370
    25
100
AcDbCircle
 10
940.027814
 20
2457.747772
 30
0.0
 40
2.0
100
AcDbArc
 50
90.0
 51
180.0
  0
LINE
  5
67C
102
{ACAD_REACTORS
330
6F5
102
}
330
1F
100
AcDbEntity
  8
LC-002-002-----0
 62
     7
370
    25
100
AcDbLine
 10
953.527814
 20
2459.747772
 30
0.0
 11
953.527814
 21
2460.902547
 31
0.0
  0
TEXT
  5
67D
330
1F
100
AcDbEntity
  8
LC-013-004-----0
 62
     7
370
    25
100
AcDbText
 10
1250.205591
 20
475.301014
 30
0.0
 40
25.0
  1
Art. Nr. 926
 41
0.8
  7
LCTX0-400-0-0pDIN-Schrift
100
AcDbText
  0
LINE
  5
67E
102
{ACAD_REACTORS
330
6E6
102
}
330
1F
100
AcDbEntity
  8
LC-005-006-MLN-0
 62
     7
370
    25
100
AcDbLine
 10
1335.697392
 20
918.876021
 30
0.0
 11
1834.197392
 21
918.876021
 31
0.0
  0
LINE
  5
67F
102
{ACAD_REACTORS
330
6E6
102
}
330
1F
100
AcDbEntity
  8
LC-005-006-MLN-0
 62
     7
370
    25
100
AcDbLine
 10
1584.947392
 20
794.626021
 30
0.0
 11
1584.947392
 21
1043.126021
 31
0.0
  0
TEXT
  5
680
102
{ACAD_REACTORS
330
6E6
102
}
330
1F
100
AcDbEntity
  8
LC-013-004-----0
 62
     7
370
    35
100
AcDbText
 10
1345.660592
 20
1082.193172
 30
0.0
 40
35.0
  1
Ausschnitt Unterbau  1:20
 41
0.8
  7
LCTX0-400-0-0pDIN-Schrift
100
AcDbText
  0
INSERT
  5
69A
102
{ACAD_REACTORS
330
6E8
102
}
330
1F
100
AcDbEntity
  8
LC-012-003-----0
 62
     7
370
    25
100
AcDbBlockReference
  2
LCDIM16
 10
0.0
 20
0.0
 30
0.0
  0
LINE
  5
69B
102
{ACAD_REACTORS
330
6E6
102
}
330
1F
100
AcDbEntity
  8
LC-002-002-----0
 62
     7
370
    50
100
AcDbLine
 10
1811.197392
 20
1040.126021
 30
0.0
 11
1358.697392
 21
1040.126021
 31
0.0
  0
LINE
  5
69C
102
{ACAD_REACTORS
330
6E6
102
}
330
1F
100
AcDbEntity
  8
LC-002-002-----0
 62
     7
370
    50
100
AcDbLine
 10
1338.697392
 20
1020.126021
 30
0.0
 11
1338.697392
 21
817.626021
 31
0.0
  0
LINE
  5
69D
102
{ACAD_REACTORS
330
6E6
102
}
330
1F
100
AcDbEntity
  8
LC-002-002-----0
 62
     7
370
    50
100
AcDbLine
 10
1358.697392
 20
797.626021
 30
0.0
 11
1811.197392
 21
797.626021
 31
0.0
  0
LINE
  5
69E
102
{ACAD_REACTORS
330
6E6
102
}
330
1F
100
AcDbEntity
  8
LC-002-002-----0
 62
     7
370
    50
100
AcDbLine
 10
1831.197392
 20
817.626021
 30
0.0
 11
1831.197392
 21
1020.126021
 31
0.0
  0
INSERT
  5
6B8
102
{ACAD_REACTORS
330
6E6
102
}
330
1F
100
AcDbEntity
  8
LC-012-003-----0
 62
     7
370
    25
100
AcDbBlockReference
  2
LCDIM17
 10
0.0
 20
0.0
 30
0.0
  0
INSERT
  5
6D2
102
{ACAD_REACTORS
330
6E6
102
}
330
1F
100
AcDbEntity
  8
LC-012-003-----0
 62
     7
370
    25
100
AcDbBlockReference
  2
LCDIM18
 10
0.0
 20
0.0
 30
0.0
  0
INSERT
  5
6E1
102
{ACAD_REACTORS
330
6E6
102
}
330
1F
100
AcDbEntity
  8
LC-012-003-----0
 62
     7
370
    25
100
AcDbBlockReference
  2
LCDIM19
 10
0.0
 20
0.0
 30
0.0
  0
TEXT
  5
6E2
330
1F
100
AcDbEntity
  8
LC-013-004-----0
 62
     7
370
    25
100
AcDbText
 10
194.153846
 20
400.0
 30
0.0
 40
25.0
  1
a
 41
0.8
  7
LCTX0-400-0-0pDIN-Schrift
100
AcDbText
  0
TEXT
  5
6E3
330
1F
100
AcDbEntity
  8
LC-013-004-----0
 62
     7
370
    25
100
AcDbText
 10
272.153846
 20
400.0
 30
0.0
 40
25.0
  1
Ausschnitt Unterbau
 41
0.7
  7
LCTX0-400-0-0pDIN-Schrift
100
AcDbText
  0
TEXT
  5
6E4
330
1F
100
AcDbEntity
  8
LC-013-004-----0
 62
     7
370
    25
100
AcDbText
 10
532.153846
 20
400.0
 30
0.0
 40
25.0
  1
25.02.08
 41
0.7
  7
LCTX0-400-0-0pDIN-Schrift
100
AcDbText
  0
TEXT
  5
6E5
330
1F
100
AcDbEntity
  8
LC-013-004-----0
 62
     7
370
    25
100
AcDbText
 10
662.153846
 20
400.0
 30
0.0
 40
25.0
  1
HÄ
 41
0.8
  7
LCTX0-400-0-0pDIN-Schrift
100
AcDbText
  0
ENDSEC
  0
SECTION
  2
OBJECTS
  0
DICTIONARY
  5
C
330
0
100
AcDbDictionary
281
     1
  3
ACAD_GROUP
350
D
  3
ACAD_LAYOUT
350
1A
  3
ACAD_MLINESTYLE
350
17
  3
ACAD_PLOTSETTINGS
350
19
  3
ACAD_PLOTSTYLENAME
350
E
  0
DICTIONARY
  5
D
102
{ACAD_REACTORS
330
C
102
}
330
C
100
AcDbDictionary
281
     1
  3
LCGROUP1147
350
6E8
  3
LCGROUP1407
350
6E7
  3
LCGROUP1703
350
6E9
  3
LCGROUP1777
350
6EC
  3
LCGROUP1867
350
6F1
  3
LCGROUP1893
350
6F3
  3
LCGROUP1900
350
6F5
  3
LCGROUP1901
350
6F4
  3
LCGROUP1903
350
6F2
  3
LCGROUP2072
350
6ED
  3
LCGROUP2271
350
6EA
  3
LCGROUP2363
350
6EF
  3
LCGROUP2368
350
6F0
  3
LCGROUP2558
350
6EB
  3
LCGROUP2637
350
6EE
  3
LCGROUP2741
350
6E6
  0
DICTIONARY
  5
1A
102
{ACAD_REACTORS
330
C
102
}
330
C
100
AcDbDictionary
281
     1
  3
Layout1
350
1E
  3
Layout2
350
26
  3
Model
350
22
  0
DICTIONARY
  5
17
102
{ACAD_REACTORS
330
C
102
}
330
C
100
AcDbDictionary
281
     1
  3
Standard
350
18
  0
DICTIONARY
  5
19
102
{ACAD_REACTORS
330
C
102
}
330
C
100
AcDbDictionary
281
     1
  0
ACDBDICTIONARYWDFLT
  5
E
102
{ACAD_REACTORS
330
C
102
}
330
C
100
AcDbDictionary
281
     1
  3
Normal
350
F
100
AcDbDictionaryWithDefault
340
F
  0
GROUP
  5
6E8
102
{ACAD_REACTORS
330
D
102
}
330
D
100
AcDbGroup
300
GRP1147
 70
     1
 71
     1
340
106
340
11E
340
11F
340
120
340
121
340
123
340
124
340
125
340
126
340
127
340
128
340
129
340
12A
340
12B
340
12C
340
12D
340
12E
340
12F
340
130
340
131
340
132
340
133
340
134
340
135
340
136
340
137
340
138
340
139
340
13A
340
13B
340
13C
340
13D
340
13E
340
13F
340
140
340
141
340
142
340
143
340
144
340
145
340
146
340
148
340
149
340
14A
340
14B
340
14C
340
14D
340
14E
340
14F
340
150
340
151
340
152
340
153
340
154
340
155
340
156
340
157
340
158
340
159
340
15A
340
15B
340
15C
340
15D
340
15E
340
15F
340
160
340
161
340
162
340
163
340
164
340
165
340
166
340
167
340
168
340
169
340
16A
340
16B
340
16C
340
16D
340
16E
340
16F
340
170
340
171
340
172
340
173
340
174
340
175
340
176
340
177
340
178
340
179
340
17A
340
17B
340
17C
340
17D
340
17E
340
17F
340
180
340
181
340
182
340
183
340
184
340
185
340
186
340
187
340
188
340
189
340
18A
340
18B
340
18C
340
18D
340
18E
340
18F
340
190
340
191
340
192
340
193
340
194
340
195
340
196
340
197
340
198
340
199
340
19A
340
19B
340
19C
340
19D
340
19E
340
19F
340
1A0
340
1A1
340
1A2
340
1A3
340
1A4
340
1A5
340
1A6
340
1A7
340
1A8
340
1A9
340
1AA
340
1AB
340
1AC
340
1AD
340
1AE
340
1AF
340
1B0
340
1B1
340
1B2
340
1B3
340
1B4
340
1B5
340
1B6
340
1B7
340
1B8
340
1B9
340
1BA
340
1BB
340
1BC
340
1BD
340
1BE
340
1BF
340
1C0
340
1C1
340
1C2
340
1C3
340
1C4
340
1C5
340
1C6
340
1C7
340
1C8
340
1C9
340
1CA
340
1CB
340
1CC
340
1CD
340
1CE
340
1CF
340
1D0
340
1D1
340
1D2
340
1D3
340
1D4
340
1D5
340
1D6
340
1D7
340
1D8
340
1D9
340
1DA
340
1DB
340
1DC
340
1DD
340
1DE
340
1DF
340
1E0
340
1E1
340
37D
340
397
340
674
340
69A
  0
GROUP
  5
6E7
102
{ACAD_REACTORS
330
D
102
}
330
D
100
AcDbGroup
300
GRP1407
 70
     1
 71
     1
340
103
340
104
340
107
340
108
340
109
340
112
340
1E2
340
1E3
340
1E4
340
1E5
340
1E6
340
1E7
340
1E8
340
1E9
340
1EA
340
1EB
340
1EC
340
1ED
340
1EE
340
1EF
340
1F0
340
1F1
340
1F2
340
1F3
340
1F4
340
1F5
340
1F6
340
1F7
340
1F8
340
1F9
340
1FA
340
1FB
340
1FC
340
1FD
340
1FE
340
1FF
340
200
340
201
340
202
340
203
340
204
340
205
340
206
340
207
340
208
340
209
340
20A
340
20B
340
20C
340
20D
340
20E
340
20F
340
210
340
211
340
212
340
213
340
214
340
215
340
216
340
217
340
218
340
219
340
21A
340
21B
340
21C
340
21D
340
21E
340
21F
340
220
340
221
340
222
340
223
340
224
340
225
340
226
340
227
340
228
340
229
340
22A
340
22B
340
22C
340
22D
340
22E
340
22F
340
230
340
231
340
232
340
233
340
234
340
235
340
236
340
237
340
238
340
239
340
23A
340
23B
340
23C
340
23D
340
23E
340
23F
340
240
340
241
340
242
340
243
340
26F
340
270
340
271
340
272
340
273
340
274
340
275
340
276
340
277
340
2C0
340
2C1
340
2C2
340
2C3
340
2C4
340
2C5
340
2E2
340
2FC
340
398
340
399
340
39A
340
39B
340
39C
340
3A3
340
3C8
340
3E2
340
3E3
340
417
  0
GROUP
  5
6E9
102
{ACAD_REACTORS
330
D
102
}
330
D
100
AcDbGroup
300
GRP1703
 70
     1
 71
     1
340
244
340
246
340
247
340
248
340
249
340
24A
340
24B
340
24C
340
24D
340
24E
340
24F
340
250
340
251
340
252
340
253
340
254
340
255
340
256
340
257
340
258
340
259
340
25A
340
25B
340
25C
340
25D
340
25E
340
25F
340
260
340
261
340
262
340
263
340
264
340
265
340
266
340
267
340
268
340
269
340
26A
340
26B
340
26C
340
26D
340
26E
340
278
340
279
340
27A
340
27B
340
27C
340
27D
340
27E
340
27F
340
280
340
281
340
282
340
283
340
284
340
285
340
286
340
287
340
288
340
289
340
28A
340
28B
340
28C
340
28D
340
28E
340
28F
340
290
340
291
340
292
340
293
340
294
340
295
340
296
340
297
340
298
340
299
340
29A
340
29B
340
29C
340
29D
340
29E
340
29F
340
2A0
340
2A1
340
2A2
340
2A3
340
2A4
340
2A5
340
2A6
340
2A7
340
2A8
340
2A9
340
2AA
340
2AB
340
2AC
340
2AD
340
2AE
340
2AF
340
2B0
340
2B1
340
2B2
340
2B3
340
2B4
340
2B5
340
2B6
340
2B7
340
2B8
340
2B9
340
2BA
340
2BB
340
2BC
340
2BD
340
2BE
340
2BF
340
316
340
330
340
3A4
340
3A5
340
3A6
340
3A7
340
3A8
340
3A9
340
3AA
340
3AB
340
3AC
340
3AD
340
3AE
340
40F
  0
GROUP
  5
6EC
102
{ACAD_REACTORS
330
D
102
}
330
D
100
AcDbGroup
300
GRP1777
 70
     1
 71
     1
340
331
340
332
340
333
340
334
340
335
340
336
340
337
340
338
340
352
340
361
340
363
  0
GROUP
  5
6F1
102
{ACAD_REACTORS
330
D
102
}
330
D
100
AcDbGroup
300
GRP1867-LCMaster-LCGROUP1407
 70
     1
 71
     1
340
113
340
114
340
115
340
116
340
3E4
340
3E5
340
3E6
340
3E7
340
3E8
340
3E9
340
403
340
601
340
609
  0
GROUP
  5
6F3
102
{ACAD_REACTORS
330
D
102
}
330
D
100
AcDbGroup
300
GRP1893
 70
     1
 71
     1
340
404
340
405
340
406
340
407
340
408
340
409
340
40A
340
40B
340
40C
340
40D
340
40E
  0
GROUP
  5
6F5
102
{ACAD_REACTORS
330
D
102
}
330
D
100
AcDbGroup
300
GRP1900
 70
     1
 71
     1
340
10F
340
44C
340
44D
340
44E
340
44F
340
450
340
45B
340
45C
340
45D
340
45E
340
45F
340
460
340
461
340
462
340
472
340
473
340
474
340
475
340
476
340
477
340
478
340
479
340
47A
340
47B
340
47C
340
47D
340
47E
340
47F
340
480
340
481
340
482
340
483
340
484
340
485
340
486
340
487
340
488
340
489
340
48A
340
48B
340
48C
340
48D
340
48E
340
48F
340
490
340
491
340
492
340
493
340
494
340
495
340
496
340
4A0
340
4AA
340
4B8
340
4C6
340
4D6
340
4E4
340
4E5
340
4E6
340
4E7
340
4E8
340
4E9
340
4EA
340
4EB
340
4EC
340
4ED
340
4EE
340
4EF
340
4F0
340
4F1
340
4F2
340
4F3
340
4F4
340
5F9
340
65A
340
677
340
678
340
679
340
67A
340
67B
340
67C
  0
GROUP
  5
6F4
102
{ACAD_REACTORS
330
D
102
}
330
D
100
AcDbGroup
300
GRP1901-LCMaster-LCGROUP1900
 70
     1
 71
     1
340
11D
340
4F5
340
4F6
340
535
340
536
340
537
340
538
340
539
340
53A
340
53B
340
53C
340
53D
340
53E
340
53F
340
540
340
541
340
542
340
543
340
544
340
545
340
546
340
547
340
548
340
549
340
54A
340
54B
340
54C
340
54D
340
54E
340
54F
340
550
340
551
340
552
340
553
340
554
340
555
340
556
340
557
340
558
340
559
340
55A
340
55B
340
55C
340
55D
340
5F8
340
675
340
676
  0
GROUP
  5
6F2
102
{ACAD_REACTORS
330
D
102
}
330
D
100
AcDbGroup
300
GRP2319-LCMaster-LCGROUP1902
 70
     1
 71
     1
340
4F7
340
4F8
340
4FB
340
4FC
340
4FD
340
4FE
340
4FF
340
502
340
503
340
504
340
534
  0
GROUP
  5
6ED
102
{ACAD_REACTORS
330
D
102
}
330
D
100
AcDbGroup
300
GRP2072-LCMaster-LCGROUP1903
 70
     1
 71
     1
340
4F9
340
4FA
340
500
340
501
340
505
340
506
340
507
340
508
340
509
340
50A
  0
GROUP
  5
6EA
102
{ACAD_REACTORS
330
D
102
}
330
D
100
AcDbGroup
300
GRP2961-LCMaster-LCGROUP2368
 70
     1
 71
     1
340
55E
340
55F
340
560
340
561
340
562
340
563
340
564
340
565
340
566
340
567
340
568
340
569
340
56A
340
56B
340
56C
340
56D
340
56E
340
56F
340
570
340
571
340
572
340
573
340
574
340
575
340
576
340
577
340
578
340
579
340
57A
340
57B
340
57C
340
57D
340
57E
340
57F
340
580
340
581
340
582
340
583
340
584
340
585
340
586
340
587
340
588
340
589
340
58A
340
58B
340
58C
340
58D
340
58E
340
58F
340
590
340
591
340
592
340
593
340
594
340
595
340
596
340
597
340
598
340
599
340
59A
340
59B
340
59C
340
5AC
340
657
  0
GROUP
  5
6EF
102
{ACAD_REACTORS
330
D
102
}
330
D
100
AcDbGroup
300
GRP2363
 70
     1
 71
     1
340
5AD
340
5B0
340
5B2
340
5B3
340
5B4
340
5B5
340
5B6
340
5B7
340
5B8
340
5B9
340
5BA
340
5BB
340
5BC
340
5BD
340
5BE
340
5BF
340
5CF
340
5D1
340
5D2
340
5D3
340
5D4
340
5D5
340
5D6
340
5D7
340
5D8
340
5D9
340
5DA
340
5DB
340
5DC
340
5DD
340
5DE
340
5DF
340
5E0
340
5E1
340
5E2
340
5E3
340
5E4
340
5E5
340
5E6
340
5E7
340
5E8
340
5E9
340
5EA
340
5EB
340
5EC
340
5ED
340
5EE
340
5EF
340
5F0
340
5F1
340
5F2
340
5F3
340
5F4
340
5F5
340
5F6
340
5F7
340
60A
340
658
  0
GROUP
  5
6F0
102
{ACAD_REACTORS
330
D
102
}
330
D
100
AcDbGroup
300
GRP2368-LCMaster-LCGROUP2363
 70
     1
 71
     1
340
5AE
340
5AF
340
5B1
340
5D0
  0
GROUP
  5
6EB
102
{ACAD_REACTORS
330
D
102
}
330
D
100
AcDbGroup
300
GRP2558-LCMaster-LCGROUP2637
 70
     1
 71
     1
340
60C
340
60D
340
60E
340
627
  0
GROUP
  5
6EE
102
{ACAD_REACTORS
330
D
102
}
330
D
100
AcDbGroup
300
GRP2637
 70
     1
 71
     1
340
60B
340
60F
340
610
340
611
340
612
340
613
340
614
340
615
340
616
340
626
340
628
340
629
340
62A
340
62B
340
62C
340
62D
340
62E
340
62F
340
630
340
631
340
632
340
633
340
634
340
635
340
636
340
637
340
638
340
639
340
63A
340
63B
340
659
  0
GROUP
  5
6E6
102
{ACAD_REACTORS
330
D
102
}
330
D
100
AcDbGroup
300
GRP2741
 70
     1
 71
     1
340
119
340
11A
340
11B
340
11C
340
67E
340
67F
340
680
340
69B
340
69C
340
69D
340
69E
340
6B8
340
6D2
340
6E1
  0
LAYOUT
  5
1E
102
{ACAD_REACTORS
330
1A
102
}
330
1A
100
AcDbPlotSettings
  1

  2

  4

  6

 40
0.0
 41
0.0
 42
0.0
 43
0.0
 44
0.0
 45
0.0
 46
0.0
 47
0.0
 48
0.0
 49
0.0
140
0.0
141
0.0
142
1.0
143
1.0
 70
   688
 72
     0
 73
     0
 74
     5
  7

 75
    16
147
1.0
148
0.0
149
0.0
100
AcDbLayout
  1
Layout1
 70
     1
 71
     1
 10
0.0
 20
0.0
 11
2100.0
 21
2970.0
 12
0.0
 22
0.0
 32
0.0
 14
0.0
 24
0.0
 34
0.0
 15
2100.0
 25
2970.0
 35
0.0
146
0.0
 13
0.0
 23
0.0
 33
0.0
 16
1.0
 26
0.0
 36
0.0
 17
0.0
 27
1.0
 37
0.0
 76
     0
330
1B
  0
LAYOUT
  5
26
102
{ACAD_REACTORS
330
1A
102
}
330
1A
100
AcDbPlotSettings
  1

  2

  4

  6

 40
0.0
 41
0.0
 42
0.0
 43
0.0
 44
0.0
 45
0.0
 46
0.0
 47
0.0
 48
0.0
 49
0.0
140
0.0
141
0.0
142
1.0
143
1.0
 70
   688
 72
     0
 73
     0
 74
     5
  7

 75
    16
147
1.0
148
0.0
149
0.0
100
AcDbLayout
  1
Layout2
 70
     1
 71
     2
 10
0.0
 20
0.0
 11
0.0
 21
0.0
 12
0.0
 22
0.0
 32
0.0
 14
0.0
 24
0.0
 34
0.0
 15
0.0
 25
0.0
 35
0.0
146
0.0
 13
0.0
 23
0.0
 33
0.0
 16
1.0
 26
0.0
 36
0.0
 17
0.0
 27
1.0
 37
0.0
 76
     0
330
23
  0
LAYOUT
  5
22
102
{ACAD_REACTORS
330
1A
102
}
330
1A
100
AcDbPlotSettings
  1

  2

  4

  6

 40
0.0
 41
0.0
 42
0.0
 43
0.0
 44
0.0
 45
0.0
 46
0.0
 47
0.0
 48
0.0
 49
0.0
140
0.0
141
0.0
142
1.0
143
1.0
 70
  1776
 72
     0
 73
     0
 74
     0
  7

 75
     0
147
1.0
148
0.0
149
0.0
100
AcDbLayout
  1
Model
 70
     1
 71
     0
 10
0.0
 20
0.0
 11
2100.0
 21
2970.0
 12
0.0
 22
0.0
 32
0.0
 14
0.0
 24
0.0
 34
0.0
 15
2100.0
 25
2970.0
 35
0.0
146
0.0
 13
0.0
 23
0.0
 33
0.0
 16
1.0
 26
0.0
 36
0.0
 17
0.0
 27
1.0
 37
0.0
 76
     0
330
1F
  0
MLINESTYLE
  5
18
102
{ACAD_REACTORS
330
17
102
}
330
17
100
AcDbMlineStyle
  2
Standard
 70
     0
  3

 62
   256
 51
90.0
 52
90.0
 71
     2
 49
0.5
 62
   256
  6
BYLAYER
 49
-0.5
 62
   256
  6
BYLAYER
  0
ACDBPLACEHOLDER
  5
F
102
{ACAD_REACTORS
330
E
102
}
330
E
  0
ENDSEC
  0
EOF
