  0
SECTION
  2
HEADER
  9
$ACADVER
  1
AC1015
  9
$ACADMAINTVER
 70
     6
  9
$DWGCODEPAGE
  3
ANSI_1252
  9
$INSBASE
 10
0.0
 20
0.0
 30
0.0
  9
$EXTMIN
 10
0.0
 20
0.0
 30
0.0
  9
$EXTMAX
 10
2100.0
 20
2970.0
 30
0.0
  9
$LIMMIN
 10
0.0
 20
0.0
  9
$LIMMAX
 10
2100.0
 20
2970.0
  9
$ORTHOMODE
 70
     0
  9
$REGENMODE
 70
     1
  9
$FILLMODE
 70
     1
  9
$QTEXTMODE
 70
     0
  9
$MIRRTEXT
 70
     1
  9
$LTSCALE
 40
10.0
  9
$ATTMODE
 70
     1
  9
$TEXTSIZE
 40
2.5
  9
$TRACEWID
 40
1.0
  9
$TEXTSTYLE
  7
Standard
  9
$CLAYER
  8
0
  9
$CELTYPE
  6
ByLayer
  9
$CECOLOR
 62
     7
  9
$CELTSCALE
 40
1.0
  9
$DISPSILH
 70
     0
  9
$DIMSCALE
 40
10.0
  9
$DIMASZ
 40
3.5
  9
$DIMEXO
 40
0.625
  9
$DIMDLI
 40
3.75
  9
$DIMRND
 40
0.0
  9
$DIMDLE
 40
0.0
  9
$DIMEXE
 40
1.25
  9
$DIMTP
 40
0.0
  9
$DIMTM
 40
0.0
  9
$DIMTXT
 40
3.5
  9
$DIMCEN
 40
2.5
  9
$DIMTSZ
 40
0.0
  9
$DIMTOL
 70
     0
  9
$DIMLIM
 70
     0
  9
$DIMTIH
 70
     0
  9
$DIMTOH
 70
     0
  9
$DIMSE1
 70
     0
  9
$DIMSE2
 70
     0
  9
$DIMTAD
 70
     1
  9
$DIMZIN
 70
     8
  9
$DIMBLK
  1

  9
$DIMASO
 70
     1
  9
$DIMSHO
 70
     1
  9
$DIMPOST
  1

  9
$DIMAPOST
  1

  9
$DIMALT
 70
     0
  9
$DIMALTD
 70
     3
  9
$DIMALTF
 40
0.03937
  9
$DIMLFAC
 40
1.0
  9
$DIMTOFL
 70
     1
  9
$DIMTVP
 40
0.0
  9
$DIMTIX
 70
     0
  9
$DIMSOXD
 70
     0
  9
$DIMSAH
 70
     0
  9
$DIMBLK1
  1

  9
$DIMBLK2
  1

  9
$DIMSTYLE
  2
ISO-25
  9
$DIMCLRD
 70
     0
  9
$DIMCLRE
 70
     0
  9
$DIMCLRT
 70
     0
  9
$DIMTFAC
 40
1.0
  9
$DIMGAP
 40
0.625
  9
$DIMJUST
 70
     0
  9
$DIMSD1
 70
     0
  9
$DIMSD2
 70
     0
  9
$DIMTOLJ
 70
     0
  9
$DIMTZIN
 70
     8
  9
$DIMALTZ
 70
     0
  9
$DIMALTTZ
 70
     0
  9
$DIMUPT
 70
     0
  9
$DIMDEC
 70
     2
  9
$DIMTDEC
 70
     2
  9
$DIMALTU
 70
     2
  9
$DIMALTTD
 70
     3
  9
$DIMTXSTY
  7
Standard
  9
$DIMAUNIT
 70
     0
  9
$DIMADEC
 70
     0
  9
$DIMALTRND
 40
0.0
  9
$DIMAZIN
 70
     0
  9
$DIMDSEP
 70
    44
  9
$DIMATFIT
 70
     3
  9
$DIMFRAC
 70
     0
  9
$DIMLDRBLK
  1

  9
$DIMLUNIT
 70
     2
  9
$DIMLWD
 70
    -2
  9
$DIMLWE
 70
    -2
  9
$DIMTMOVE
 70
     0
  9
$LUNITS
 70
     2
  9
$LUPREC
 70
     4
  9
$SKETCHINC
 40
1.0
  9
$FILLETRAD
 40
10.0
  9
$AUNITS
 70
     0
  9
$AUPREC
 70
     0
  9
$MENU
  1
.
  9
$ELEVATION
 40
0.0
  9
$PELEVATION
 40
0.0
  9
$THICKNESS
 40
0.0
  9
$LIMCHECK
 70
     0
  9
$CHAMFERA
 40
10.0
  9
$CHAMFERB
 40
10.0
  9
$CHAMFERC
 40
20.0
  9
$CHAMFERD
 40
0.0
  9
$SKPOLY
 70
     0
  9
$TDCREATE
 40
2454875.739598206
  9
$TDUCREATE
 40
2454875.697931539
  9
$TDUPDATE
 40
2454875.739598217
  9
$TDUUPDATE
 40
2454875.697931551
  9
$TDINDWG
 40
0.0000000116
  9
$TDUSRTIMER
 40
0.0000000116
  9
$USRTIMER
 70
     1
  9
$ANGBASE
 50
0.0
  9
$ANGDIR
 70
     0
  9
$PDMODE
 70
     0
  9
$PDSIZE
 40
0.0
  9
$PLINEWID
 40
0.0
  9
$SPLFRAME
 70
     0
  9
$SPLINETYPE
 70
     6
  9
$SPLINESEGS
 70
     8
  9
$HANDSEED
  5
5BA
  9
$SURFTAB1
 70
     6
  9
$SURFTAB2
 70
     6
  9
$SURFTYPE
 70
     6
  9
$SURFU
 70
     6
  9
$SURFV
 70
     6
  9
$UCSBASE
  2

  9
$UCSNAME
  2

  9
$UCSORG
 10
0.0
 20
0.0
 30
0.0
  9
$UCSXDIR
 10
1.0
 20
0.0
 30
0.0
  9
$UCSYDIR
 10
0.0
 20
1.0
 30
0.0
  9
$UCSORTHOREF
  2

  9
$UCSORTHOVIEW
 70
     0
  9
$UCSORGTOP
 10
0.0
 20
0.0
 30
0.0
  9
$UCSORGBOTTOM
 10
0.0
 20
0.0
 30
0.0
  9
$UCSORGLEFT
 10
0.0
 20
0.0
 30
0.0
  9
$UCSORGRIGHT
 10
0.0
 20
0.0
 30
0.0
  9
$UCSORGFRONT
 10
0.0
 20
0.0
 30
0.0
  9
$UCSORGBACK
 10
0.0
 20
0.0
 30
0.0
  9
$PUCSBASE
  2

  9
$PUCSNAME
  2

  9
$PUCSORG
 10
0.0
 20
0.0
 30
0.0
  9
$PUCSXDIR
 10
1.0
 20
0.0
 30
0.0
  9
$PUCSYDIR
 10
0.0
 20
1.0
 30
0.0
  9
$PUCSORTHOREF
  2

  9
$PUCSORTHOVIEW
 70
     0
  9
$PUCSORGTOP
 10
0.0
 20
0.0
 30
0.0
  9
$PUCSORGBOTTOM
 10
0.0
 20
0.0
 30
0.0
  9
$PUCSORGLEFT
 10
0.0
 20
0.0
 30
0.0
  9
$PUCSORGRIGHT
 10
0.0
 20
0.0
 30
0.0
  9
$PUCSORGFRONT
 10
0.0
 20
0.0
 30
0.0
  9
$PUCSORGBACK
 10
0.0
 20
0.0
 30
0.0
  9
$USERI1
 70
     0
  9
$USERI2
 70
     0
  9
$USERI3
 70
     0
  9
$USERI4
 70
     0
  9
$USERI5
 70
     0
  9
$USERR1
 40
0.0
  9
$USERR2
 40
0.0
  9
$USERR3
 40
0.0
  9
$USERR4
 40
0.0
  9
$USERR5
 40
0.0
  9
$WORLDVIEW
 70
     1
  9
$SHADEDGE
 70
     3
  9
$SHADEDIF
 70
    70
  9
$TILEMODE
 70
     1
  9
$MAXACTVP
 70
    64
  9
$PINSBASE
 10
0.0
 20
0.0
 30
0.0
  9
$PLIMCHECK
 70
     0
  9
$PEXTMIN
 10
0.0
 20
0.0
 30
0.0
  9
$PEXTMAX
 10
2100.0
 20
2970.0
 30
0.0
  9
$PLIMMIN
 10
0.0
 20
0.0
  9
$PLIMMAX
 10
2100.0
 20
2970.0
  9
$UNITMODE
 70
     0
  9
$VISRETAIN
 70
     1
  9
$PLINEGEN
 70
     0
  9
$PSLTSCALE
 70
     1
  9
$TREEDEPTH
 70
  3020
  9
$CMLSTYLE
  2
Standard
  9
$CMLJUST
 70
     0
  9
$CMLSCALE
 40
20.0
  9
$PROXYGRAPHICS
 70
     1
  9
$MEASUREMENT
 70
     1
  9
$CELWEIGHT
370
    -1
  9
$ENDCAPS
280
     0
  9
$JOINSTYLE
280
     0
  9
$LWDISPLAY
290
     0
  9
$INSUNITS
 70
     4
  9
$HYPERLINKBASE
  1

  9
$STYLESHEET
  1

  9
$XEDIT
290
     1
  9
$CEPSNTYPE
380
     0
  9
$PSTYLEMODE
290
     1
  9
$FINGERPRINTGUID
  2
{FAEB1C30-E019-11D5-929B-00C0DF256EC4}
  9
$VERSIONGUID
  2
{FAEB1C32-E019-11D5-929B-00C0DF256EC4}
  9
$EXTNAMES
290
     1
  9
$PSVPSCALE
 40
0.0
  9
$OLESTARTUP
290
     0
  0
ENDSEC
  0
SECTION
  2
CLASSES
  0
CLASS
  1
ACDBDICTIONARYWDFLT
  2
AcDbDictionaryWithDefault
  3
ObjectDBX Classes
 90
        0
280
     0
281
     0
  0
CLASS
  1
ACDBPLACEHOLDER
  2
AcDbPlaceHolder
  3
ObjectDBX Classes
 90
        0
280
     0
281
     0
  0
CLASS
  1
LAYOUT
  2
AcDbLayout
  3
ObjectDBX Classes
 90
        0
280
     0
281
     0
  0
ENDSEC
  0
SECTION
  2
TABLES
  0
TABLE
  2
VPORT
  5
8
330
0
100
AcDbSymbolTable
 70
     2
  0
VPORT
  5
29
330
8
100
AcDbSymbolTableRecord
100
AcDbViewportTableRecord
  2
*ACTIVE
 70
     0
 10
0.0
 20
0.0
 11
1.0
 21
1.0
 12
1050.0
 22
1485.0
 13
0.0
 23
0.0
 14
1.0
 24
1.0
 15
0.0
 25
0.0
 16
0.0
 26
0.0
 36
1.0
 17
0.0
 27
0.0
 37
0.0
 40
2970.0
 41
0.707071
 42
50.0
 43
0.0
 44
0.0
 50
0.0
 51
0.0
 71
    16
 72
   100
 73
     1
 74
     0
 75
     0
 76
     0
 77
     0
 78
     0
281
     0
 65
     0
110
0.0
120
0.0
130
0.0
111
1.0
121
0.0
131
0.0
112
0.0
122
1.0
132
0.0
 79
     0
146
0.0
  0
ENDTAB
  0
TABLE
  2
LTYPE
  5
5
330
0
100
AcDbSymbolTable
 70
     4
  0
LTYPE
  5
14
330
5
100
AcDbSymbolTableRecord
100
AcDbLinetypeTableRecord
  2
ByBlock
 70
     0
  3

 72
    65
 73
     0
 40
0.0
  0
LTYPE
  5
15
330
5
100
AcDbSymbolTableRecord
100
AcDbLinetypeTableRecord
  2
ByLayer
 70
     0
  3

 72
    65
 73
     0
 40
0.0
  0
LTYPE
  5
16
330
5
100
AcDbSymbolTableRecord
100
AcDbLinetypeTableRecord
  2
Continuous
 70
     0
  3
Solid line
 72
    65
 73
     0
 40
0.0
  0
LTYPE
  5
2A
330
5
100
AcDbSymbolTableRecord
100
AcDbLinetypeTableRecord
  2
DASHED
 70
     0
  3
__ __ __ __ __
 72
    65
 73
     2
 40
6.25
 49
5.0
 74
     4
 75
     0
340
0
 46
1.0
 50
0.0
 44
0.0
 45
0.0
 49
-1.25
 74
     4
 75
     0
340
0
 46
1.0
 50
0.0
 44
0.0
 45
0.0
  0
LTYPE
  5
114
330
5
100
AcDbSymbolTableRecord
100
AcDbLinetypeTableRecord
  2
CENTER
 70
     0
  3
__ . __ . __ . __ . __
 72
    65
 73
     4
 40
7.5
 49
5.0
 74
     4
 75
     0
340
0
 46
1.0
 50
0.0
 44
0.0
 45
0.0
 49
-1.25
 74
     4
 75
     0
340
0
 46
1.0
 50
0.0
 44
0.0
 45
0.0
 49
0.0
 74
     4
 75
     0
340
0
 46
1.0
 50
0.0
 44
0.0
 45
0.0
 49
-1.25
 74
     4
 75
     0
340
0
 46
1.0
 50
0.0
 44
0.0
 45
0.0
  0
LTYPE
  5
15A
330
5
100
AcDbSymbolTableRecord
100
AcDbLinetypeTableRecord
  2
DASHDOT
 70
     0
  3
__ . __ . __ . __ . __
 72
    65
 73
     4
 40
7.5
 49
5.0
 74
     4
 75
     0
340
0
 46
1.0
 50
0.0
 44
0.0
 45
0.0
 49
-1.25
 74
     4
 75
     0
340
0
 46
1.0
 50
0.0
 44
0.0
 45
0.0
 49
0.0
 74
     4
 75
     0
340
0
 46
1.0
 50
0.0
 44
0.0
 45
0.0
 49
-1.25
 74
     4
 75
     0
340
0
 46
1.0
 50
0.0
 44
0.0
 45
0.0
  0
ENDTAB
  0
TABLE
  2
LAYER
  5
2
330
0
100
AcDbSymbolTable
 70
    16
  0
LAYER
  5
10
330
2
100
AcDbSymbolTableRecord
100
AcDbLayerTableRecord
  2
0
 70
     0
 62
     7
  6
Continuous
370
    -3
390
F
  0
LAYER
  5
2B
330
2
100
AcDbSymbolTableRecord
100
AcDbLayerTableRecord
  2
LC-INFO-1-10-mm-A4H-0
 70
     1
 62
     7
  6
ByBlock
370
    -3
390
F
  0
LAYER
  5
2C
330
2
100
AcDbSymbolTableRecord
100
AcDbLayerTableRecord
  2
LC-CUT-HIDDEN
 70
     0
 62
     7
  6
DASHED
370
    -3
390
F
  0
LAYER
  5
2D
330
2
100
AcDbSymbolTableRecord
100
AcDbLayerTableRecord
  2
LC-VIEWPORT
 70
     0
 62
     7
  6
ByBlock
370
    -3
390
F
  0
LAYER
  5
2E
330
2
100
AcDbSymbolTableRecord
100
AcDbLayerTableRecord
  2
LC-3D-HIDDEN
 70
     0
 62
     9
  6
DASHED
370
    -3
390
F
  0
LAYER
  5
33
330
2
100
AcDbSymbolTableRecord
100
AcDbLayerTableRecord
  2
LC-001-111-----0
 70
     0
 62
   253
  6
ByBlock
370
    -3
390
F
  0
LAYER
  5
A1
330
2
100
AcDbSymbolTableRecord
100
AcDbLayerTableRecord
  2
LC-002-002-----0
 70
     0
 62
     1
  6
ByBlock
370
    -3
390
F
  0
LAYER
  5
103
330
2
100
AcDbSymbolTableRecord
100
AcDbLayerTableRecord
  2
LC-003-230-ZVN-0
 70
     0
 62
     1
  6
ByBlock
370
    -3
390
F
  0
LAYER
  5
112
330
2
100
AcDbSymbolTableRecord
100
AcDbLayerTableRecord
  2
LC-004-002-RND-0
 70
     0
 62
     1
  6
ByBlock
370
    -3
390
F
  0
LAYER
  5
115
330
2
100
AcDbSymbolTableRecord
100
AcDbLayerTableRecord
  2
LC-005-006-MLN-0
 70
     0
 62
     2
  6
CENTER
370
    -3
390
F
  0
LAYER
  5
14D
330
2
100
AcDbSymbolTableRecord
100
AcDbLayerTableRecord
  2
LC-006-100-D00-0
 70
     0
 62
    40
  6
ByBlock
370
    -3
390
F
  0
LAYER
  5
1F4
330
2
100
AcDbSymbolTableRecord
100
AcDbLayerTableRecord
  2
LC-007-003-MTH-0
 70
     0
 62
     2
  6
ByBlock
370
    -3
390
F
  0
LAYER
  5
1F7
330
2
100
AcDbSymbolTableRecord
100
AcDbLayerTableRecord
  2
LC-008-003-MTG-0
 70
     0
 62
     2
  6
ByBlock
370
    -3
390
F
  0
LAYER
  5
1F9
330
2
100
AcDbSymbolTableRecord
100
AcDbLayerTableRecord
  2
LC-009-003-----0
 70
     0
 62
     2
  6
ByBlock
370
    -3
390
F
  0
LAYER
  5
24A
330
2
100
AcDbSymbolTableRecord
100
AcDbLayerTableRecord
  2
LC-010-005-----0
 70
     0
 62
     2
  6
ByBlock
370
    -3
390
F
  0
LAYER
  5
5A9
330
2
100
AcDbSymbolTableRecord
100
AcDbLayerTableRecord
  2
LC-011-004-----0
 70
     0
 62
     7
  6
ByBlock
370
    -3
390
F
  0
ENDTAB
  0
TABLE
  2
STYLE
  5
3
330
0
100
AcDbSymbolTable
 70
     2
  0
STYLE
  5
11
330
3
100
AcDbSymbolTableRecord
100
AcDbTextStyleTableRecord
  2
Standard
 70
     0
 40
0.0
 41
1.0
 50
0.0
 71
     0
 42
2.5
  3
txt
  4

  0
STYLE
  5
2F
330
3
100
AcDbSymbolTableRecord
100
AcDbTextStyleTableRecord
  2
LCTX0-400-0-0pDIN-Schrift
 70
     0
 40
0.0
 41
0.7
 50
0.0
 71
     0
 42
3.5
  3
TXT
  4

  0
ENDTAB
  0
TABLE
  2
VIEW
  5
6
330
0
100
AcDbSymbolTable
 70
     0
  0
ENDTAB
  0
TABLE
  2
UCS
  5
7
330
0
100
AcDbSymbolTable
 70
     0
  0
ENDTAB
  0
TABLE
  2
APPID
  5
9
330
0
100
AcDbSymbolTable
 70
     1
  0
APPID
  5
12
330
9
100
AcDbSymbolTableRecord
100
AcDbRegAppTableRecord
  2
ACAD
 70
     0
  0
ENDTAB
  0
TABLE
  2
DIMSTYLE
  5
A
330
0
100
AcDbSymbolTable
 70
     1
100
AcDbDimStyleTable
  0
DIMSTYLE
105
27
330
A
100
AcDbSymbolTableRecord
100
AcDbDimStyleTableRecord
  2
ISO-25
 70
     0
 41
2.5
 42
0.625
 43
3.75
 44
1.25
 73
     0
 74
     0
 77
     1
 78
     8
140
2.5
141
2.5
143
0.03937
147
0.625
171
     3
172
     1
271
     2
272
     2
274
     3
278
    44
283
     0
284
     8
340
11
  0
ENDTAB
  0
TABLE
  2
BLOCK_RECORD
  5
1
330
0
100
AcDbSymbolTable
 70
    31
  0
BLOCK_RECORD
  5
1F
330
1
100
AcDbSymbolTableRecord
100
AcDbBlockTableRecord
  2
*Model_Space
340
22
  0
BLOCK_RECORD
  5
1B
330
1
100
AcDbSymbolTableRecord
100
AcDbBlockTableRecord
  2
*Paper_Space
340
1E
  0
BLOCK_RECORD
  5
23
330
1
100
AcDbSymbolTableRecord
100
AcDbBlockTableRecord
  2
*Paper_Space0
340
26
  0
BLOCK_RECORD
  5
30
330
1
100
AcDbSymbolTableRecord
100
AcDbBlockTableRecord
  2
SYM1
340
0
102
{BLKREFS
331
104
102
}
  0
BLOCK_RECORD
  5
1D0
330
1
100
AcDbSymbolTableRecord
100
AcDbBlockTableRecord
  2
KLON1
340
0
102
{BLKREFS
331
1D6
102
}
  0
BLOCK_RECORD
  5
1F1
330
1
100
AcDbSymbolTableRecord
100
AcDbBlockTableRecord
  2
LCDIM1
340
0
102
{BLKREFS
331
20D
102
}
  0
BLOCK_RECORD
  5
20E
330
1
100
AcDbSymbolTableRecord
100
AcDbBlockTableRecord
  2
LCDIM2
340
0
102
{BLKREFS
331
227
102
}
  0
BLOCK_RECORD
  5
228
330
1
100
AcDbSymbolTableRecord
100
AcDbBlockTableRecord
  2
LCDIM3
340
0
102
{BLKREFS
331
241
102
}
  0
BLOCK_RECORD
  5
247
330
1
100
AcDbSymbolTableRecord
100
AcDbBlockTableRecord
  2
*X16
340
0
102
{BLKREFS
331
251
102
}
  0
BLOCK_RECORD
  5
257
330
1
100
AcDbSymbolTableRecord
100
AcDbBlockTableRecord
  2
LCDIM4
340
0
102
{BLKREFS
331
270
102
}
  0
BLOCK_RECORD
  5
271
330
1
100
AcDbSymbolTableRecord
100
AcDbBlockTableRecord
  2
LCDIM5
340
0
102
{BLKREFS
331
28A
102
}
  0
BLOCK_RECORD
  5
28B
330
1
100
AcDbSymbolTableRecord
100
AcDbBlockTableRecord
  2
LCDIM6
340
0
102
{BLKREFS
331
2A4
102
}
  0
BLOCK_RECORD
  5
2A5
330
1
100
AcDbSymbolTableRecord
100
AcDbBlockTableRecord
  2
LCDIM7
340
0
102
{BLKREFS
331
2BE
102
}
  0
BLOCK_RECORD
  5
2BF
330
1
100
AcDbSymbolTableRecord
100
AcDbBlockTableRecord
  2
LCDIM8
340
0
102
{BLKREFS
331
2D8
102
}
  0
BLOCK_RECORD
  5
2D9
330
1
100
AcDbSymbolTableRecord
100
AcDbBlockTableRecord
  2
LCDIM9
340
0
102
{BLKREFS
331
2F2
102
}
  0
BLOCK_RECORD
  5
2F3
330
1
100
AcDbSymbolTableRecord
100
AcDbBlockTableRecord
  2
LCDIM10
340
0
102
{BLKREFS
331
30C
102
}
  0
BLOCK_RECORD
  5
30D
330
1
100
AcDbSymbolTableRecord
100
AcDbBlockTableRecord
  2
LCDIM11
340
0
102
{BLKREFS
331
326
102
}
  0
BLOCK_RECORD
  5
327
330
1
100
AcDbSymbolTableRecord
100
AcDbBlockTableRecord
  2
LCDIM12
340
0
102
{BLKREFS
331
340
102
}
  0
BLOCK_RECORD
  5
345
330
1
100
AcDbSymbolTableRecord
100
AcDbBlockTableRecord
  2
POLY1
340
0
102
{BLKREFS
331
34E
102
}
  0
BLOCK_RECORD
  5
385
330
1
100
AcDbSymbolTableRecord
100
AcDbBlockTableRecord
  2
POLY2
340
0
102
{BLKREFS
331
394
102
}
  0
BLOCK_RECORD
  5
395
330
1
100
AcDbSymbolTableRecord
100
AcDbBlockTableRecord
  2
POLY3
340
0
102
{BLKREFS
331
3A4
102
}
  0
BLOCK_RECORD
  5
3A6
330
1
100
AcDbSymbolTableRecord
100
AcDbBlockTableRecord
  2
POLY4
340
0
102
{BLKREFS
331
3B5
102
}
  0
BLOCK_RECORD
  5
459
330
1
100
AcDbSymbolTableRecord
100
AcDbBlockTableRecord
  2
POLY5
340
0
102
{BLKREFS
331
468
102
}
  0
BLOCK_RECORD
  5
46A
330
1
100
AcDbSymbolTableRecord
100
AcDbBlockTableRecord
  2
POLY6
340
0
102
{BLKREFS
331
479
102
}
  0
BLOCK_RECORD
  5
47B
330
1
100
AcDbSymbolTableRecord
100
AcDbBlockTableRecord
  2
POLY7
340
0
102
{BLKREFS
331
48A
102
}
  0
BLOCK_RECORD
  5
49E
330
1
100
AcDbSymbolTableRecord
100
AcDbBlockTableRecord
  2
POLY8
340
0
102
{BLKREFS
331
4AD
102
}
  0
BLOCK_RECORD
  5
4AF
330
1
100
AcDbSymbolTableRecord
100
AcDbBlockTableRecord
  2
POLY9
340
0
102
{BLKREFS
331
4BE
102
}
  0
BLOCK_RECORD
  5
4C0
330
1
100
AcDbSymbolTableRecord
100
AcDbBlockTableRecord
  2
POLY10
340
0
102
{BLKREFS
331
4CF
102
}
  0
BLOCK_RECORD
  5
4FC
330
1
100
AcDbSymbolTableRecord
100
AcDbBlockTableRecord
  2
LCDIM13
340
0
102
{BLKREFS
331
515
102
}
  0
BLOCK_RECORD
  5
548
330
1
100
AcDbSymbolTableRecord
100
AcDbBlockTableRecord
  2
LCDIM14
340
0
102
{BLKREFS
331
561
102
}
  0
BLOCK_RECORD
  5
566
330
1
100
AcDbSymbolTableRecord
100
AcDbBlockTableRecord
  2
LCDIM15
340
0
102
{BLKREFS
331
57F
102
}
  0
BLOCK_RECORD
  5
580
330
1
100
AcDbSymbolTableRecord
100
AcDbBlockTableRecord
  2
LCDIM16
340
0
102
{BLKREFS
331
599
102
}
  0
BLOCK_RECORD
  5
59A
330
1
100
AcDbSymbolTableRecord
100
AcDbBlockTableRecord
  2
LCDIM17
340
0
102
{BLKREFS
331
5A8
102
}
  0
ENDTAB
  0
ENDSEC
  0
SECTION
  2
BLOCKS
  0
BLOCK
  5
20
330
1F
100
AcDbEntity
  8
0
100
AcDbBlockBegin
  2
*Model_Space
 70
     0
 71
     0
 10
0.0
 20
0.0
 30
0.0
  3
*Model_Space
  1

  0
ENDBLK
  5
21
330
1F
100
AcDbEntity
  8
0
100
AcDbBlockEnd
  0
BLOCK
  5
1C
330
1B
100
AcDbEntity
 67
     1
  8
0
100
AcDbBlockBegin
  2
*Paper_Space
 70
     0
 71
     0
 10
0.0
 20
0.0
 30
0.0
  3
*Paper_Space
  1

  0
ENDBLK
  5
1D
330
1B
100
AcDbEntity
 67
     1
  8
0
100
AcDbBlockEnd
  0
BLOCK
  5
24
330
23
100
AcDbEntity
  8
0
100
AcDbBlockBegin
  2
*Paper_Space0
 70
     0
 71
     0
 10
0.0
 20
0.0
 30
0.0
  3
*Paper_Space0
  1

  0
ENDBLK
  5
25
330
23
100
AcDbEntity
  8
0
100
AcDbBlockEnd
  0
BLOCK
  5
31
330
30
100
AcDbEntity
  8
0
100
AcDbBlockBegin
  2
SYM1
 70
     0
 71
     0
 10
0.0
 20
0.0
 30
0.0
  3
SYM1
  1

  4
SYM1
  0
LINE
  5
34
330
30
100
AcDbEntity
  8
LC-001-111-----0
 62
   253
370
    50
100
AcDbLine
 10
2050.0
 20
50.0
 30
0.0
 11
2050.0
 21
2920.0
 31
0.0
  0
LINE
  5
35
330
30
100
AcDbEntity
  8
LC-001-111-----0
 62
   253
370
    25
100
AcDbLine
 10
178.0
 20
220.0
 30
0.0
 11
724.0
 21
220.0
 31
0.0
  0
LINE
  5
36
330
30
100
AcDbEntity
  8
LC-001-111-----0
 62
   253
370
    35
100
AcDbLine
 10
724.0
 20
220.0
 30
0.0
 11
2050.0
 21
220.0
 31
0.0
  0
LINE
  5
37
330
30
100
AcDbEntity
  8
LC-001-111-----0
 62
   253
370
    50
100
AcDbLine
 10
178.0
 20
602.5
 30
0.0
 11
2050.0
 21
602.5
 31
0.0
  0
LINE
  5
38
330
30
100
AcDbEntity
  8
LC-001-111-----0
 62
   253
370
    25
100
AcDbLine
 10
178.0
 20
92.5
 30
0.0
 11
2050.0
 21
92.5
 31
0.0
  0
LINE
  5
39
330
30
100
AcDbEntity
  8
LC-001-111-----0
 62
   253
370
    25
100
AcDbLine
 10
178.0
 20
135.0
 30
0.0
 11
724.0
 21
135.0
 31
0.0
  0
LINE
  5
3A
330
30
100
AcDbEntity
  8
LC-001-111-----0
 62
   253
370
    25
100
AcDbLine
 10
178.0
 20
177.5
 30
0.0
 11
724.0
 21
177.5
 31
0.0
  0
LINE
  5
3B
330
30
100
AcDbEntity
  8
LC-001-111-----0
 62
   253
370
    25
100
AcDbLine
 10
178.0
 20
262.5
 30
0.0
 11
1166.0
 21
262.5
 31
0.0
  0
LINE
  5
3C
330
30
100
AcDbEntity
  8
LC-001-111-----0
 62
   253
370
    25
100
AcDbLine
 10
178.0
 20
305.0
 30
0.0
 11
1166.0
 21
305.0
 31
0.0
  0
LINE
  5
3D
330
30
100
AcDbEntity
  8
LC-001-111-----0
 62
   253
370
    25
100
AcDbLine
 10
178.0
 20
347.5
 30
0.0
 11
1166.0
 21
347.5
 31
0.0
  0
LINE
  5
3E
330
30
100
AcDbEntity
  8
LC-001-111-----0
 62
   253
370
    25
100
AcDbLine
 10
178.0
 20
390.0
 30
0.0
 11
1166.0
 21
390.0
 31
0.0
  0
LINE
  5
3F
330
30
100
AcDbEntity
  8
LC-001-111-----0
 62
   253
370
    35
100
AcDbLine
 10
178.0
 20
432.5
 30
0.0
 11
2050.0
 21
432.5
 31
0.0
  0
LINE
  5
40
330
30
100
AcDbEntity
  8
LC-001-111-----0
 62
   253
370
    25
100
AcDbLine
 10
828.0
 20
262.5
 30
0.0
 11
828.0
 21
432.5
 31
0.0
  0
LINE
  5
41
330
30
100
AcDbEntity
  8
LC-001-111-----0
 62
   253
370
    35
100
AcDbLine
 10
1920.0
 20
92.5
 30
0.0
 11
1920.0
 21
220.0
 31
0.0
  0
LINE
  5
42
330
30
100
AcDbEntity
  8
LC-001-111-----0
 62
   253
370
    25
100
AcDbLine
 10
1166.0
 20
538.75
 30
0.0
 11
2050.0
 21
538.75
 31
0.0
  0
LINE
  5
43
330
30
100
AcDbEntity
  8
LC-001-111-----0
 62
   253
370
    25
100
AcDbLine
 10
256.0
 20
50.0
 30
0.0
 11
256.0
 21
432.5
 31
0.0
  0
LINE
  5
44
330
30
100
AcDbEntity
  8
LC-001-111-----0
 62
   253
370
    25
100
AcDbLine
 10
516.0
 20
50.0
 30
0.0
 11
516.0
 21
432.5
 31
0.0
  0
LINE
  5
45
330
30
100
AcDbEntity
  8
LC-001-111-----0
 62
   253
370
    25
100
AcDbLine
 10
646.0
 20
50.0
 30
0.0
 11
646.0
 21
432.5
 31
0.0
  0
LINE
  5
46
330
30
100
AcDbEntity
  8
LC-001-111-----0
 62
   253
370
    35
100
AcDbLine
 10
724.0
 20
50.0
 30
0.0
 11
724.0
 21
602.5
 31
0.0
  0
LINE
  5
47
330
30
100
AcDbEntity
  8
LC-001-111-----0
 62
   253
370
    35
100
AcDbLine
 10
1166.0
 20
50.0
 30
0.0
 11
1166.0
 21
602.5
 31
0.0
  0
LINE
  5
48
330
30
100
AcDbEntity
  8
LC-001-111-----0
 62
   253
370
    25
100
AcDbLine
 10
1920.0
 20
135.0
 30
0.0
 11
2050.0
 21
135.0
 31
0.0
  0
LINE
  5
49
330
30
100
AcDbEntity
  8
LC-001-111-----0
 62
   253
370
    25
100
AcDbLine
 10
984.0
 20
220.0
 30
0.0
 11
984.0
 21
602.5
 31
0.0
  0
LINE
  5
4A
330
30
100
AcDbEntity
  8
LC-001-111-----0
 62
   253
370
    25
100
AcDbLine
 10
1686.0
 20
538.75
 30
0.0
 11
1686.0
 21
602.5
 31
0.0
  0
LINE
  5
4B
330
30
100
AcDbEntity
  8
LC-001-111-----0
 62
   253
370
    25
100
AcDbLine
 10
1608.0
 20
50.0
 30
0.0
 11
1608.0
 21
92.5
 31
0.0
  0
LINE
  5
4C
330
30
100
AcDbEntity
  8
LC-001-111-----0
 62
   253
370
    50
100
AcDbLine
 10
178.0
 20
50.0
 30
0.0
 11
178.0
 21
2920.0
 31
0.0
  0
LINE
  5
4D
330
30
100
AcDbEntity
  8
LC-001-111-----0
 62
   253
370
    50
100
AcDbLine
 10
178.0
 20
2920.0
 30
0.0
 11
2050.0
 21
2920.0
 31
0.0
  0
TEXT
  5
4E
330
30
100
AcDbEntity
  8
LC-001-111-----0
 62
     7
370
    25
100
AcDbText
 10
1471.410714
 20
558.125
 30
0.0
 40
25.0
  1
1:10
 41
0.75
  7
LCTX0-400-0-0pDIN-Schrift
 72
     1
 11
1504.0
 21
558.125
 31
0.0
100
AcDbText
  0
TEXT
  5
4F
330
30
100
AcDbEntity
  8
LC-001-111-----0
 62
     7
370
    25
100
AcDbText
 10
1947.410714
 20
101.25
 30
0.0
 40
25.0
  1
1
 41
0.75
  7
LCTX0-400-0-0pDIN-Schrift
 72
     1
 11
1955.0
 21
101.25
 31
0.0
100
AcDbText
  0
TEXT
  5
50
330
30
100
AcDbEntity
  8
LC-001-111-----0
 62
     7
370
    25
100
AcDbText
 10
740.285714
 20
398.75
 30
0.0
 40
25.0
  1
2008
 41
0.75
  7
LCTX0-400-0-0pDIN-Schrift
 72
     1
 11
776.0
 21
398.75
 31
0.0
100
AcDbText
  0
TEXT
  5
51
330
30
100
AcDbEntity
  8
LC-001-111-----0
 62
     7
370
    25
100
AcDbText
 10
861.803571
 20
356.25
 30
0.0
 40
25.0
  1
03.11.
 41
0.75
  7
LCTX0-400-0-0pDIN-Schrift
 72
     1
 11
906.0
 21
356.25
 31
0.0
100
AcDbText
  0
TEXT
  5
52
330
30
100
AcDbEntity
  8
LC-001-111-----0
 62
     7
370
    25
100
AcDbText
 10
1056.696429
 20
356.25
 30
0.0
 40
25.0
  1
HÄ
 41
0.75
  7
LCTX0-400-0-0pDIN-Schrift
 72
     1
 11
1075.0
 21
356.25
 31
0.0
100
AcDbText
  0
TEXT
  5
53
330
30
100
AcDbEntity
  8
LC-001-111-----0
 62
   253
370
    20
100
AcDbText
 10
1183.923077
 20
560.625
 30
0.0
 40
20.0
  1
Maßstab
 41
0.75
  7
LCTX0-400-0-0pDIN-Schrift
100
AcDbText
  0
TEXT
  5
54
330
30
100
AcDbEntity
  8
LC-001-111-----0
 62
   253
370
    20
100
AcDbText
 10
869.928571
 20
401.25
 30
0.0
 40
20.0
  1
Datum
 41
0.75
  7
LCTX0-400-0-0pDIN-Schrift
 72
     1
 11
906.0
 21
401.25
 31
0.0
100
AcDbText
  0
TEXT
  5
55
330
30
100
AcDbEntity
  8
LC-001-111-----0
 62
   253
370
    20
100
AcDbText
 10
1042.857143
 20
401.25
 30
0.0
 40
20.0
  1
Name
 41
0.75
  7
LCTX0-400-0-0pDIN-Schrift
 72
     1
 11
1075.0
 21
401.25
 31
0.0
100
AcDbText
  0
TEXT
  5
56
330
30
100
AcDbEntity
  8
LC-001-111-----0
 62
   253
370
    20
100
AcDbText
 10
741.923077
 20
358.75
 30
0.0
 40
20.0
  1
Bearb.
 41
0.75
  7
LCTX0-400-0-0pDIN-Schrift
100
AcDbText
  0
TEXT
  5
57
330
30
100
AcDbEntity
  8
LC-001-111-----0
 62
   253
370
    20
100
AcDbText
 10
741.923077
 20
316.25
 30
0.0
 40
20.0
  1
Gepr.
 41
0.75
  7
LCTX0-400-0-0pDIN-Schrift
100
AcDbText
  0
TEXT
  5
58
330
30
100
AcDbEntity
  8
LC-001-111-----0
 62
   253
370
    20
100
AcDbText
 10
741.923077
 20
273.75
 30
0.0
 40
20.0
  1
Norm
 41
0.75
  7
LCTX0-400-0-0pDIN-Schrift
100
AcDbText
  0
TEXT
  5
59
330
30
100
AcDbEntity
  8
LC-001-111-----0
 62
   253
370
    20
100
AcDbText
 10
1937.923077
 20
188.75
 30
0.0
 40
20.0
  1
Blatt
 41
0.75
  7
LCTX0-400-0-0pDIN-Schrift
100
AcDbText
  0
TEXT
  5
5A
330
30
100
AcDbEntity
  8
LC-001-111-----0
 62
   253
370
    20
100
AcDbText
 10
2012.076923
 20
103.75
 30
0.0
 40
20.0
  1
Bl.
 41
0.75
  7
LCTX0-400-0-0pDIN-Schrift
 72
     2
 11
2037.076923
 21
103.75
 31
0.0
100
AcDbText
  0
TEXT
  5
5B
330
30
100
AcDbEntity
  8
LC-001-111-----0
 62
   253
370
    20
100
AcDbText
 10
200.0
 20
61.25
 30
0.0
 40
20.0
  1
Zust.
 41
0.6
  7
LCTX0-400-0-0pDIN-Schrift
 72
     1
 11
222.0
 21
61.25
 31
0.0
100
AcDbText
  0
TEXT
  5
5C
330
30
100
AcDbEntity
  8
LC-001-111-----0
 62
   253
370
    20
100
AcDbText
 10
334.928571
 20
61.25
 30
0.0
 40
20.0
  1
Änderung
 41
0.75
  7
LCTX0-400-0-0pDIN-Schrift
 72
     1
 11
386.0
 21
61.25
 31
0.0
100
AcDbText
  0
TEXT
  5
5D
330
30
100
AcDbEntity
  8
LC-001-111-----0
 62
   253
370
    20
100
AcDbText
 10
544.928571
 20
61.25
 30
0.0
 40
20.0
  1
Datum
 41
0.75
  7
LCTX0-400-0-0pDIN-Schrift
 72
     1
 11
581.0
 21
61.25
 31
0.0
100
AcDbText
  0
TEXT
  5
5E
330
30
100
AcDbEntity
  8
LC-001-111-----0
 62
   253
370
    20
100
AcDbText
 10
652.857143
 20
61.25
 30
0.0
 40
20.0
  1
Name
 41
0.75
  7
LCTX0-400-0-0pDIN-Schrift
 72
     1
 11
685.0
 21
61.25
 31
0.0
100
AcDbText
  0
TEXT
  5
5F
330
30
100
AcDbEntity
  8
LC-001-111-----0
 62
     7
370
    50
100
AcDbText
 10
1380.321429
 20
343.75
 30
0.0
 40
50.0
  1
Madison N-175
 41
0.75
  7
LCTX0-400-0-0pDIN-Schrift
 72
     1
 11
1608.0
 21
343.75
 31
0.0
100
AcDbText
  0
TEXT
  5
60
330
30
100
AcDbEntity
  8
LC-001-111-----0
 62
     7
370
    50
100
AcDbText
 10
1328.714286
 20
131.25
 30
0.0
 40
50.0
  1
4.08.742.04.00
 41
0.75
  7
LCTX0-400-0-0pDIN-Schrift
 72
     1
 11
1543.0
 21
131.25
 31
0.0
100
AcDbText
  0
ARC
  5
61
330
30
100
AcDbEntity
  8
LC-001-111-----0
 62
   253
370
    25
100
AcDbCircle
 10
758.903191
 20
174.567744
 30
0.0
 40
20.81533311668208
100
AcDbArc
 50
62.408264
 51
94.48185
  0
LINE
  5
62
330
30
100
AcDbEntity
  8
LC-001-111-----0
 62
   253
370
    50
100
AcDbLine
 10
178.0
 20
50.0
 30
0.0
 11
2050.0
 21
50.0
 31
0.0
  0
LINE
  5
63
330
30
100
AcDbEntity
  8
LC-001-111-----0
 62
   253
370
    25
100
AcDbLine
 10
50.0
 20
1485.0
 30
0.0
 11
0.0
 21
1485.0
 31
0.0
  0
LINE
  5
64
330
30
100
AcDbEntity
  8
LC-001-111-----0
 62
   253
370
    25
100
AcDbLine
 10
1063.835603
 20
195.169147
 30
0.0
 11
1063.835603
 21
157.149147
 31
0.0
  0
LINE
  5
65
330
30
100
AcDbEntity
  8
LC-001-111-----0
 62
   253
370
    25
100
AcDbLine
 10
2100.0
 20
2970.0
 30
0.0
 11
2100.0
 21
0.0
 31
0.0
  0
LINE
  5
66
330
30
100
AcDbEntity
  8
LC-001-111-----0
 62
   253
370
    25
100
AcDbLine
 10
2100.0
 20
0.0
 30
0.0
 11
0.0
 21
0.0
 31
0.0
  0
LINE
  5
67
330
30
100
AcDbEntity
  8
LC-001-111-----0
 62
   253
370
    25
100
AcDbLine
 10
0.0
 20
0.0
 30
0.0
 11
0.0
 21
2970.0
 31
0.0
  0
LINE
  5
68
330
30
100
AcDbEntity
  8
LC-001-111-----0
 62
   253
370
    25
100
AcDbLine
 10
2100.0
 20
2970.0
 30
0.0
 11
0.0
 21
2970.0
 31
0.0
  0
TEXT
  5
69
330
30
100
AcDbEntity
  8
LC-001-111-----0
 62
   253
370
    20
100
AcDbText
 10
763.0
 20
111.159147
 30
0.0
 40
20.0
  1
Hofbauerstraße1 · D-94209 REGEN
 41
0.65
  7
LCTX0-400-0-0pDIN-Schrift
 72
     1
 11
945.0
 21
111.159147
 31
0.0
100
AcDbText
  0
ARC
  5
6A
330
30
100
AcDbEntity
  8
LC-001-111-----0
 62
   253
370
    25
100
AcDbCircle
 10
758.032826
 20
185.671748
 30
0.0
 40
9.677270814709853
100
AcDbArc
 50
94.48185
 51
252.731329
  0
ARC
  5
6B
330
30
100
AcDbEntity
  8
LC-001-111-----0
 62
   253
370
    25
100
AcDbCircle
 10
823.845603
 20
176.159147
 30
0.0
 40
19.01000000000008
100
AcDbArc
 50
74.719456
 51
285.280544
  0
LINE
  5
6C
330
30
100
AcDbEntity
  8
LC-001-111-----0
 62
   253
370
    25
100
AcDbLine
 10
828.855603
 20
157.821208
 30
0.0
 11
828.855603
 21
163.204148
 31
0.0
  0
ARC
  5
6D
330
30
100
AcDbEntity
  8
LC-001-111-----0
 62
   253
370
    25
100
AcDbCircle
 10
823.845603
 20
176.159147
 30
0.0
 40
13.88999999999995
100
AcDbArc
 50
68.857352
 51
291.142648
  0
ARC
  5
6E
330
30
100
AcDbEntity
  8
LC-001-111-----0
 62
   253
370
    25
100
AcDbCircle
 10
823.845603
 20
176.159147
 30
0.0
 40
12.39000000000002
100
AcDbArc
 50
58.303227
 51
301.696773
  0
ARC
  5
6F
330
30
100
AcDbEntity
  8
LC-001-111-----0
 62
   253
370
    25
100
AcDbCircle
 10
1019.845603
 20
176.159147
 30
0.0
 40
19.01000000000008
100
AcDbArc
 50
74.719456
 51
285.280544
  0
LINE
  5
70
330
30
100
AcDbEntity
  8
LC-001-111-----0
 62
   253
370
    25
100
AcDbLine
 10
830.355603
 20
165.617231
 30
0.0
 11
830.355603
 21
156.709726
 31
0.0
  0
LINE
  5
71
330
30
100
AcDbEntity
  8
LC-001-111-----0
 62
   253
370
    25
100
AcDbLine
 10
755.160101
 20
176.430697
 30
0.0
 11
762.683613
 21
174.091896
 31
0.0
  0
ARC
  5
72
330
30
100
AcDbEntity
  8
LC-001-111-----0
 62
   253
370
    25
100
AcDbCircle
 10
823.845603
 20
176.159147
 30
0.0
 40
20.51000000000012
100
AcDbArc
 50
71.493868
 51
288.506132
  0
LINE
  5
73
330
30
100
AcDbEntity
  8
LC-001-111-----0
 62
   253
370
    25
100
AcDbLine
 10
1024.855603
 20
157.821208
 30
0.0
 11
1024.855603
 21
163.204148
 31
0.0
  0
LINE
  5
74
330
30
100
AcDbEntity
  8
LC-001-111-----0
 62
   253
370
    25
100
AcDbLine
 10
830.355603
 20
195.608569
 30
0.0
 11
830.355603
 21
186.701063
 31
0.0
  0
ARC
  5
75
330
30
100
AcDbEntity
  8
LC-001-111-----0
 62
   253
370
    25
100
AcDbCircle
 10
1019.845603
 20
176.159147
 30
0.0
 40
13.88999999999995
100
AcDbArc
 50
68.857352
 51
291.142648
  0
LINE
  5
76
330
30
100
AcDbEntity
  8
LC-001-111-----0
 62
   253
370
    25
100
AcDbLine
 10
862.835603
 20
155.649147
 30
0.0
 11
862.835603
 21
196.669147
 31
0.0
  0
LINE
  5
77
330
30
100
AcDbEntity
  8
LC-001-111-----0
 62
   253
370
    25
100
AcDbLine
 10
862.835603
 20
196.669147
 30
0.0
 11
872.355603
 21
196.669147
 31
0.0
  0
LINE
  5
78
330
30
100
AcDbEntity
  8
LC-001-111-----0
 62
   253
370
    25
100
AcDbLine
 10
872.355603
 20
196.669147
 30
0.0
 11
872.355603
 21
179.519147
 31
0.0
  0
LINE
  5
79
330
30
100
AcDbEntity
  8
LC-001-111-----0
 62
   253
370
    25
100
AcDbLine
 10
872.355603
 20
179.519147
 30
0.0
 11
887.335603
 21
179.519147
 31
0.0
  0
LINE
  5
7A
330
30
100
AcDbEntity
  8
LC-001-111-----0
 62
   253
370
    25
100
AcDbLine
 10
887.335603
 20
179.519147
 30
0.0
 11
887.335603
 21
196.669147
 31
0.0
  0
LINE
  5
7B
330
30
100
AcDbEntity
  8
LC-001-111-----0
 62
   253
370
    25
100
AcDbLine
 10
887.335603
 20
196.669147
 30
0.0
 11
896.855603
 21
196.669147
 31
0.0
  0
LINE
  5
7C
330
30
100
AcDbEntity
  8
LC-001-111-----0
 62
   253
370
    25
100
AcDbLine
 10
896.855603
 20
196.669147
 30
0.0
 11
896.855603
 21
155.649147
 31
0.0
  0
LINE
  5
7D
330
30
100
AcDbEntity
  8
LC-001-111-----0
 62
   253
370
    25
100
AcDbLine
 10
896.855603
 20
155.649147
 30
0.0
 11
887.335603
 21
155.649147
 31
0.0
  0
LINE
  5
7E
330
30
100
AcDbEntity
  8
LC-001-111-----0
 62
   253
370
    25
100
AcDbLine
 10
887.335603
 20
155.649147
 30
0.0
 11
887.335603
 21
172.799147
 31
0.0
  0
LINE
  5
7F
330
30
100
AcDbEntity
  8
LC-001-111-----0
 62
   253
370
    25
100
AcDbLine
 10
887.335603
 20
172.799147
 30
0.0
 11
872.355603
 21
172.799147
 31
0.0
  0
LINE
  5
80
330
30
100
AcDbEntity
  8
LC-001-111-----0
 62
   253
370
    25
100
AcDbLine
 10
872.355603
 20
172.799147
 30
0.0
 11
872.355603
 21
155.649147
 31
0.0
  0
LINE
  5
81
330
30
100
AcDbEntity
  8
LC-001-111-----0
 62
   253
370
    25
100
AcDbLine
 10
872.355603
 20
155.649147
 30
0.0
 11
862.835603
 21
155.649147
 31
0.0
  0
CIRCLE
  5
82
330
30
100
AcDbEntity
  8
LC-001-111-----0
 62
   253
370
    25
100
AcDbCircle
 10
946.345603
 20
176.159147
 30
0.0
 40
12.39000000000044
  0
CIRCLE
  5
83
330
30
100
AcDbEntity
  8
LC-001-111-----0
 62
   253
370
    25
100
AcDbCircle
 10
946.345603
 20
176.159147
 30
0.0
 40
20.51000000000049
  0
ARC
  5
84
330
30
100
AcDbEntity
  8
LC-001-111-----0
 62
   253
370
    25
100
AcDbCircle
 10
1019.845603
 20
176.159147
 30
0.0
 40
12.39000000000002
100
AcDbArc
 50
58.303227
 51
301.696773
  0
LINE
  5
85
330
30
100
AcDbEntity
  8
LC-001-111-----0
 62
   253
370
    25
100
AcDbLine
 10
864.335603
 20
195.169147
 30
0.0
 11
864.335603
 21
157.149147
 31
0.0
  0
LINE
  5
86
330
30
100
AcDbEntity
  8
LC-001-111-----0
 62
   253
370
    25
100
AcDbLine
 10
1026.355603
 20
165.617231
 30
0.0
 11
1026.355603
 21
156.709726
 31
0.0
  0
LINE
  5
87
330
30
100
AcDbEntity
  8
LC-001-111-----0
 62
   253
370
    25
100
AcDbLine
 10
864.335603
 20
157.149147
 30
0.0
 11
870.855603
 21
157.149147
 31
0.0
  0
LINE
  5
88
330
30
100
AcDbEntity
  8
LC-001-111-----0
 62
   253
370
    25
100
AcDbLine
 10
870.855603
 20
157.149147
 30
0.0
 11
870.855603
 21
174.299147
 31
0.0
  0
LINE
  5
89
330
30
100
AcDbEntity
  8
LC-001-111-----0
 62
   253
370
    25
100
AcDbLine
 10
870.855603
 20
174.299147
 30
0.0
 11
888.835603
 21
174.299147
 31
0.0
  0
LINE
  5
8A
330
30
100
AcDbEntity
  8
LC-001-111-----0
 62
   253
370
    25
100
AcDbLine
 10
888.835603
 20
174.299147
 30
0.0
 11
888.835603
 21
157.149147
 31
0.0
  0
LINE
  5
8B
330
30
100
AcDbEntity
  8
LC-001-111-----0
 62
   253
370
    25
100
AcDbLine
 10
888.835603
 20
157.149147
 30
0.0
 11
895.355603
 21
157.149147
 31
0.0
  0
LINE
  5
8C
330
30
100
AcDbEntity
  8
LC-001-111-----0
 62
   253
370
    25
100
AcDbLine
 10
895.355603
 20
157.149147
 30
0.0
 11
895.355603
 21
195.169147
 31
0.0
  0
LINE
  5
8D
330
30
100
AcDbEntity
  8
LC-001-111-----0
 62
   253
370
    25
100
AcDbLine
 10
895.355603
 20
195.169147
 30
0.0
 11
888.835603
 21
195.169147
 31
0.0
  0
LINE
  5
8E
330
30
100
AcDbEntity
  8
LC-001-111-----0
 62
   253
370
    25
100
AcDbLine
 10
888.835603
 20
195.169147
 30
0.0
 11
888.835603
 21
178.019147
 31
0.0
  0
LINE
  5
8F
330
30
100
AcDbEntity
  8
LC-001-111-----0
 62
   253
370
    25
100
AcDbLine
 10
888.835603
 20
178.019147
 30
0.0
 11
870.855603
 21
178.019147
 31
0.0
  0
LINE
  5
90
330
30
100
AcDbEntity
  8
LC-001-111-----0
 62
   253
370
    25
100
AcDbLine
 10
870.855603
 20
178.019147
 30
0.0
 11
870.855603
 21
195.169147
 31
0.0
  0
CIRCLE
  5
91
330
30
100
AcDbEntity
  8
LC-001-111-----0
 62
   253
370
    25
100
AcDbCircle
 10
946.345603
 20
176.159147
 30
0.0
 40
19.01000000000055
  0
ARC
  5
92
330
30
100
AcDbEntity
  8
LC-001-111-----0
 62
   253
370
    25
100
AcDbCircle
 10
760.836588
 20
168.15034
 30
0.0
 40
6.222024781007809
100
AcDbArc
 50
268.246912
 51
72.731329
  0
ARC
  5
93
330
30
100
AcDbEntity
  8
LC-001-111-----0
 62
   253
370
    25
100
AcDbCircle
 10
761.412387
 20
186.963179
 30
0.0
 40
25.04367341134793
100
AcDbArc
 50
239.19233
 51
268.246912
  0
LINE
  5
94
330
30
100
AcDbEntity
  8
LC-001-111-----0
 62
   253
370
    25
100
AcDbLine
 10
748.586073
 20
165.453385
 30
0.0
 11
748.586073
 21
160.350534
 31
0.0
  0
ARC
  5
95
330
30
100
AcDbEntity
  8
LC-001-111-----0
 62
   253
370
    25
100
AcDbCircle
 10
760.81067
 20
180.45076
 30
0.0
 40
23.52572762426598
100
AcDbArc
 50
238.692783
 51
274.343327
  0
ARC
  5
96
330
30
100
AcDbEntity
  8
LC-001-111-----0
 62
   253
370
    25
100
AcDbCircle
 10
1019.845603
 20
176.159147
 30
0.0
 40
20.51000000000012
100
AcDbArc
 50
71.493868
 51
288.506132
  0
ARC
  5
97
330
30
100
AcDbEntity
  8
LC-001-111-----0
 62
   253
370
    25
100
AcDbCircle
 10
761.779647
 20
167.692822
 30
0.0
 40
10.73104525444839
100
AcDbArc
 50
274.343327
 51
74.255463
  0
LINE
  5
98
330
30
100
AcDbEntity
  8
LC-001-111-----0
 62
   253
370
    25
100
AcDbLine
 10
1026.355603
 20
195.608569
 30
0.0
 11
1026.355603
 21
186.701063
 31
0.0
  0
LINE
  5
99
330
30
100
AcDbEntity
  8
LC-001-111-----0
 62
   253
370
    25
100
AcDbLine
 10
764.691502
 20
178.02125
 30
0.0
 11
757.135251
 21
180.151556
 31
0.0
  0
LINE
  5
9A
330
30
100
AcDbEntity
  8
LC-001-111-----0
 62
   253
370
    25
100
AcDbLine
 10
1024.855603
 20
189.114146
 30
0.0
 11
1024.855603
 21
194.497086
 31
0.0
  0
ARC
  5
9B
330
30
100
AcDbEntity
  8
LC-001-111-----0
 62
   253
370
    25
100
AcDbCircle
 10
758.632108
 20
185.460948
 30
0.0
 40
5.51636013010035
100
AcDbArc
 50
90.951212
 51
254.255463
  0
ARC
  5
9C
330
30
100
AcDbEntity
  8
LC-001-111-----0
 62
   253
370
    25
100
AcDbCircle
 10
758.906662
 20
168.924866
 30
0.0
 40
22.05472179307849
100
AcDbArc
 50
64.088485
 51
90.951212
  0
LINE
  5
9D
330
30
100
AcDbEntity
  8
LC-001-111-----0
 62
   253
370
    25
100
AcDbLine
 10
768.544191
 20
188.762426
 30
0.0
 11
768.544191
 21
193.015758
 31
0.0
  0
LINE
  5
9E
330
30
100
AcDbEntity
  8
LC-001-111-----0
 62
   253
370
    25
100
AcDbLine
 10
1071.855603
 20
177.513832
 30
0.0
 11
1087.818366
 21
196.669147
 31
0.0
  0
LINE
  5
9F
330
30
100
AcDbEntity
  8
LC-001-111-----0
 62
   253
370
    25
100
AcDbLine
 10
1087.818366
 20
196.669147
 30
0.0
 11
1099.299433
 21
196.669147
 31
0.0
  0
LINE
  5
A0
330
30
100
AcDbEntity
  8
LC-001-111-----0
 62
   253
370
    25
100
AcDbLine
 10
1099.299433
 20
196.669147
 30
0.0
 11
1082.207766
 21
176.159147
 31
0.0
  0
LINE
  5
A2
330
30
100
AcDbEntity
  8
LC-002-002-----0
 62
     1
370
    25
100
AcDbLine
 10
1143.855603
 20
159.963432
 30
0.0
 11
1143.855603
 21
192.354862
 31
0.0
  0
LINE
  5
A3
330
30
100
AcDbEntity
  8
LC-002-002-----0
 62
     1
370
    25
100
AcDbLine
 10
1143.855603
 20
192.354862
 30
0.0
 11
1127.659888
 21
176.159147
 31
0.0
  0
LINE
  5
A4
330
30
100
AcDbEntity
  8
LC-002-002-----0
 62
     1
370
    25
100
AcDbLine
 10
1127.659888
 20
176.159147
 30
0.0
 11
1143.855603
 21
159.963432
 31
0.0
  0
LINE
  5
A5
330
30
100
AcDbEntity
  8
LC-002-002-----0
 62
     1
370
    25
100
AcDbLine
 10
1142.355603
 20
163.584752
 30
0.0
 11
1142.355603
 21
188.733542
 31
0.0
  0
LINE
  5
A6
330
30
100
AcDbEntity
  8
LC-001-111-----0
 62
   253
370
    25
100
AcDbLine
 10
1082.207766
 20
176.159147
 30
0.0
 11
1099.299433
 21
155.649147
 31
0.0
  0
LINE
  5
A7
330
30
100
AcDbEntity
  8
LC-001-111-----0
 62
   253
370
    25
100
AcDbLine
 10
1099.299433
 20
155.649147
 30
0.0
 11
1087.818366
 21
155.649147
 31
0.0
  0
LINE
  5
A8
330
30
100
AcDbEntity
  8
LC-001-111-----0
 62
   253
370
    25
100
AcDbLine
 10
1087.818366
 20
155.649147
 30
0.0
 11
1071.855603
 21
174.804462
 31
0.0
  0
LINE
  5
A9
330
30
100
AcDbEntity
  8
LC-001-111-----0
 62
   253
370
    25
100
AcDbLine
 10
1062.335603
 20
155.649147
 30
0.0
 11
1062.335603
 21
196.669147
 31
0.0
  0
LINE
  5
AA
330
30
100
AcDbEntity
  8
LC-001-111-----0
 62
   253
370
    25
100
AcDbLine
 10
828.855603
 20
189.114146
 30
0.0
 11
828.855603
 21
194.497086
 31
0.0
  0
ARC
  5
AB
330
30
100
AcDbEntity
  8
LC-001-111-----0
 62
   253
370
    25
100
AcDbCircle
 10
758.903191
 20
174.567744
 30
0.0
 40
19.31533311668209
100
AcDbArc
 50
65.072024
 51
94.48185
  0
LINE
  5
AC
330
30
100
AcDbEntity
  8
LC-001-111-----0
 62
   253
370
    25
100
AcDbLine
 10
1063.835603
 20
157.149147
 30
0.0
 11
1070.355603
 21
157.149147
 31
0.0
  0
LINE
  5
AD
330
30
100
AcDbEntity
  8
LC-001-111-----0
 62
   253
370
    25
100
AcDbLine
 10
1070.355603
 20
157.149147
 30
0.0
 11
1070.355603
 21
195.169147
 31
0.0
  0
LINE
  5
AE
330
30
100
AcDbEntity
  8
LC-001-111-----0
 62
   253
370
    25
100
AcDbLine
 10
1070.355603
 20
195.169147
 30
0.0
 11
1063.835603
 21
195.169147
 31
0.0
  0
LINE
  5
AF
330
30
100
AcDbEntity
  8
LC-001-111-----0
 62
   253
370
    25
100
AcDbLine
 10
1065.335603
 20
193.669147
 30
0.0
 11
1065.335603
 21
158.649147
 31
0.0
  0
LINE
  5
B0
330
30
100
AcDbEntity
  8
LC-002-002-----0
 62
     1
370
    25
100
AcDbLine
 10
1142.355603
 20
188.733542
 30
0.0
 11
1129.781208
 21
176.159147
 31
0.0
  0
LINE
  5
B1
330
30
100
AcDbEntity
  8
LC-002-002-----0
 62
     1
370
    25
100
AcDbLine
 10
1129.781208
 20
176.159147
 30
0.0
 11
1142.355603
 21
163.584752
 31
0.0
  0
LINE
  5
B2
330
30
100
AcDbEntity
  8
LC-001-111-----0
 62
   253
370
    25
100
AcDbLine
 10
1062.335603
 20
196.669147
 30
0.0
 11
1071.855603
 21
196.669147
 31
0.0
  0
LINE
  5
B3
330
30
100
AcDbEntity
  8
LC-001-111-----0
 62
   253
370
    25
100
AcDbLine
 10
1071.855603
 20
196.669147
 30
0.0
 11
1071.855603
 21
155.649147
 31
0.0
  0
LINE
  5
B4
330
30
100
AcDbEntity
  8
LC-001-111-----0
 62
   253
370
    25
100
AcDbLine
 10
1071.855603
 20
155.649147
 30
0.0
 11
1062.335603
 21
155.649147
 31
0.0
  0
ARC
  5
B5
330
30
100
AcDbEntity
  8
LC-001-111-----0
 62
   253
370
    25
100
AcDbCircle
 10
758.032826
 20
185.671748
 30
0.0
 40
8.177270814709827
100
AcDbArc
 50
94.48185
 51
252.731329
  0
LINE
  5
B6
330
30
100
AcDbEntity
  8
LC-001-111-----0
 62
   253
370
    25
100
AcDbLine
 10
755.60538
 20
177.863082
 30
0.0
 11
763.128892
 21
175.524281
 31
0.0
  0
ARC
  5
B7
330
30
100
AcDbEntity
  8
LC-001-111-----0
 62
   253
370
    25
100
AcDbCircle
 10
760.836588
 20
168.15034
 30
0.0
 40
7.72202478100773
100
AcDbArc
 50
268.246912
 51
72.731329
  0
LINE
  5
B8
330
30
100
AcDbEntity
  8
LC-001-111-----0
 62
   253
370
    25
100
AcDbLine
 10
827.355603
 20
191.143539
 30
0.0
 11
827.355603
 21
193.313738
 31
0.0
  0
ARC
  5
B9
330
30
100
AcDbEntity
  8
LC-001-111-----0
 62
   253
370
    25
100
AcDbCircle
 10
823.845603
 20
176.159147
 30
0.0
 40
17.50999999999996
100
AcDbArc
 50
78.436322
 51
281.563678
  0
LINE
  5
BA
330
30
100
AcDbEntity
  8
LC-001-111-----0
 62
   253
370
    25
100
AcDbLine
 10
827.355603
 20
159.004556
 30
0.0
 11
827.355603
 21
161.174755
 31
0.0
  0
LINE
  5
BB
330
30
100
AcDbEntity
  8
LC-002-002-----0
 62
     1
370
    25
100
AcDbLine
 10
1145.355603
 20
195.976182
 30
0.0
 11
1145.355603
 21
156.342112
 31
0.0
  0
LINE
  5
BC
330
30
100
AcDbEntity
  8
LC-002-002-----0
 62
     1
370
    25
100
AcDbLine
 10
1145.355603
 20
156.342112
 30
0.0
 11
1125.538568
 21
176.159147
 31
0.0
  0
LINE
  5
BD
330
30
100
AcDbEntity
  8
LC-002-002-----0
 62
     1
370
    25
100
AcDbLine
 10
1125.538568
 20
176.159147
 30
0.0
 11
1145.355603
 21
195.976182
 31
0.0
  0
LINE
  5
BE
330
30
100
AcDbEntity
  8
LC-001-111-----0
 62
   253
370
    25
100
AcDbLine
 10
1065.335603
 20
158.649147
 30
0.0
 11
1068.855603
 21
158.649147
 31
0.0
  0
LINE
  5
BF
330
30
100
AcDbEntity
  8
LC-001-111-----0
 62
   253
370
    25
100
AcDbLine
 10
1068.855603
 20
158.649147
 30
0.0
 11
1068.855603
 21
193.669147
 31
0.0
  0
LINE
  5
C0
330
30
100
AcDbEntity
  8
LC-001-111-----0
 62
   253
370
    25
100
AcDbLine
 10
1068.855603
 20
193.669147
 30
0.0
 11
1065.335603
 21
193.669147
 31
0.0
  0
LINE
  5
C1
330
30
100
AcDbEntity
  8
LC-001-111-----0
 62
   253
370
    25
100
AcDbLine
 10
1067.095603
 20
192.169147
 30
0.0
 11
1067.095603
 21
160.149147
 31
0.0
  0
ARC
  5
C2
330
30
100
AcDbEntity
  8
LC-001-111-----0
 62
   253
370
    25
100
AcDbCircle
 10
823.845603
 20
176.159147
 30
0.0
 40
15.38999999999992
100
AcDbArc
 50
76.816519
 51
283.183481
  0
LINE
  5
C3
330
30
100
AcDbEntity
  8
LC-001-111-----0
 62
   253
370
    25
100
AcDbLine
 10
870.855603
 20
195.169147
 30
0.0
 11
864.335603
 21
195.169147
 31
0.0
  0
LINE
  5
C4
330
30
100
AcDbEntity
  8
LC-001-111-----0
 62
   253
370
    25
100
AcDbLine
 10
1096.09687
 20
195.169147
 30
0.0
 11
1088.520928
 21
195.169147
 31
0.0
  0
LINE
  5
C5
330
30
100
AcDbEntity
  8
LC-001-111-----0
 62
   253
370
    25
100
AcDbLine
 10
865.835603
 20
158.649147
 30
0.0
 11
869.355603
 21
158.649147
 31
0.0
  0
LINE
  5
C6
330
30
100
AcDbEntity
  8
LC-001-111-----0
 62
   253
370
    25
100
AcDbLine
 10
1023.355603
 20
191.143539
 30
0.0
 11
1023.355603
 21
193.313738
 31
0.0
  0
LINE
  5
C7
330
30
100
AcDbEntity
  8
LC-001-111-----0
 62
   253
370
    25
100
AcDbLine
 10
892.095603
 20
192.169147
 30
0.0
 11
892.095603
 21
160.149147
 31
0.0
  0
TEXT
  5
C8
330
30
100
AcDbEntity
  8
LC-001-111-----0
 62
     1
370
    15
100
AcDbText
 10
1895.321429
 20
21.25
 30
0.0
 40
15.0
  1
Madison-N175
 41
0.75
  7
LCTX0-400-0-0pDIN-Schrift
 72
     1
 11
1958.0
 21
21.25
 31
0.0
100
AcDbText
  0
CIRCLE
  5
C9
330
30
100
AcDbEntity
  8
LC-001-111-----0
 62
   253
370
    25
100
AcDbCircle
 10
946.345603
 20
176.159147
 30
0.0
 40
17.51000000000047
  0
LINE
  5
CA
330
30
100
AcDbEntity
  8
LC-001-111-----0
 62
   253
370
    25
100
AcDbLine
 10
1088.520928
 20
195.169147
 30
0.0
 11
1072.679261
 21
176.159147
 31
0.0
  0
ARC
  5
CB
330
30
100
AcDbEntity
  8
LC-001-111-----0
 62
   253
370
    25
100
AcDbCircle
 10
1019.845603
 20
176.159147
 30
0.0
 40
17.50999999999996
100
AcDbArc
 50
78.436322
 51
281.563678
  0
ARC
  5
CC
330
30
100
AcDbEntity
  8
LC-001-111-----0
 62
   253
370
    25
100
AcDbCircle
 10
761.412387
 20
186.963179
 30
0.0
 40
26.54367341134783
100
AcDbArc
 50
244.741378
 51
268.246912
  0
LINE
  5
CD
330
30
100
AcDbEntity
  8
LC-001-111-----0
 62
   253
370
    25
100
AcDbLine
 10
1023.355603
 20
159.004556
 30
0.0
 11
1023.355603
 21
161.174755
 31
0.0
  0
LINE
  5
CE
330
30
100
AcDbEntity
  8
LC-002-002-----0
 62
     1
370
    25
100
AcDbLine
 10
1140.855603
 20
167.206073
 30
0.0
 11
1140.855603
 21
185.112221
 31
0.0
  0
LINE
  5
CF
330
30
100
AcDbEntity
  8
LC-002-002-----0
 62
     1
370
    25
100
AcDbLine
 10
1140.855603
 20
185.112221
 30
0.0
 11
1131.902529
 21
176.159147
 31
0.0
  0
LINE
  5
D0
330
30
100
AcDbEntity
  8
LC-002-002-----0
 62
     1
370
    25
100
AcDbLine
 10
1131.902529
 20
176.159147
 30
0.0
 11
1140.855603
 21
167.206073
 31
0.0
  0
CIRCLE
  5
D1
330
30
100
AcDbEntity
  8
LC-001-111-----0
 62
   253
370
    25
100
AcDbCircle
 10
946.345603
 20
176.159147
 30
0.0
 40
13.89000000000002
  0
LINE
  5
D2
330
30
100
AcDbEntity
  8
LC-001-111-----0
 62
   253
370
    25
100
AcDbLine
 10
890.335603
 20
158.649147
 30
0.0
 11
893.855603
 21
158.649147
 31
0.0
  0
LINE
  5
D3
330
30
100
AcDbEntity
  8
LC-001-111-----0
 62
   253
370
    25
100
AcDbLine
 10
893.855603
 20
158.649147
 30
0.0
 11
893.855603
 21
193.669147
 31
0.0
  0
ARC
  5
D4
330
30
100
AcDbEntity
  8
LC-001-111-----0
 62
   253
370
    25
100
AcDbCircle
 10
758.906662
 20
168.924866
 30
0.0
 40
20.55472179307891
100
AcDbArc
 50
57.190491
 51
90.951212
  0
ARC
  5
D5
330
30
100
AcDbEntity
  8
LC-001-111-----0
 62
   253
370
    25
100
AcDbCircle
 10
761.779647
 20
167.692822
 30
0.0
 40
12.23104525444841
100
AcDbArc
 50
274.343327
 51
74.255463
  0
LINE
  5
D6
330
30
100
AcDbEntity
  8
LC-001-111-----0
 62
   253
370
    25
100
AcDbLine
 10
893.855603
 20
193.669147
 30
0.0
 11
890.335603
 21
193.669147
 31
0.0
  0
LINE
  5
D7
330
30
100
AcDbEntity
  8
LC-001-111-----0
 62
   253
370
    25
100
AcDbLine
 10
890.335603
 20
193.669147
 30
0.0
 11
890.335603
 21
158.649147
 31
0.0
  0
LINE
  5
D8
330
30
100
AcDbEntity
  8
LC-001-111-----0
 62
   253
370
    25
100
AcDbLine
 10
890.335603
 20
176.159147
 30
0.0
 11
869.355603
 21
176.159147
 31
0.0
  0
TEXT
  5
D9
330
30
100
AcDbEntity
  8
LC-001-111-----0
 62
     7
370
    25
100
AcDbText
 10
1977.410714
 20
143.75
 30
0.0
 40
25.0
  1
1
 41
0.75
  7
LCTX0-400-0-0pDIN-Schrift
 72
     1
 11
1985.0
 21
143.75
 31
0.0
100
AcDbText
  0
LINE
  5
DA
330
30
100
AcDbEntity
  8
LC-001-111-----0
 62
   253
370
    25
100
AcDbLine
 10
869.355603
 20
158.649147
 30
0.0
 11
869.355603
 21
193.669147
 31
0.0
  0
LINE
  5
DB
330
30
100
AcDbEntity
  8
LC-001-111-----0
 62
   253
370
    25
100
AcDbLine
 10
869.355603
 20
193.669147
 30
0.0
 11
865.835603
 21
193.669147
 31
0.0
  0
LINE
  5
DC
330
30
100
AcDbEntity
  8
LC-001-111-----0
 62
   253
370
    25
100
AcDbLine
 10
865.835603
 20
193.669147
 30
0.0
 11
865.835603
 21
158.649147
 31
0.0
  0
LINE
  5
DD
330
30
100
AcDbEntity
  8
LC-001-111-----0
 62
   253
370
    25
100
AcDbLine
 10
867.595603
 20
192.169147
 30
0.0
 11
867.595603
 21
160.149147
 31
0.0
  0
CIRCLE
  5
DE
330
30
100
AcDbEntity
  8
LC-001-111-----0
 62
   253
370
    25
100
AcDbCircle
 10
946.345603
 20
176.159147
 30
0.0
 40
15.38999999999984
  0
LINE
  5
DF
330
30
100
AcDbEntity
  8
LC-001-111-----0
 62
   253
370
    25
100
AcDbLine
 10
1072.679261
 20
176.159147
 30
0.0
 11
1088.520928
 21
157.149147
 31
0.0
  0
LINE
  5
E0
330
30
100
AcDbEntity
  8
LC-001-111-----0
 62
   253
370
    25
100
AcDbLine
 10
1088.520928
 20
157.149147
 30
0.0
 11
1096.09687
 21
157.149147
 31
0.0
  0
LINE
  5
E1
330
30
100
AcDbEntity
  8
LC-001-111-----0
 62
   253
370
    25
100
AcDbLine
 10
1096.09687
 20
157.149147
 30
0.0
 11
1080.255204
 21
176.159147
 31
0.0
  0
LINE
  5
E2
330
30
100
AcDbEntity
  8
LC-001-111-----0
 62
   253
370
    25
100
AcDbLine
 10
770.044191
 20
186.20063
 30
0.0
 11
770.044191
 21
193.903002
 31
0.0
  0
ARC
  5
E3
330
30
100
AcDbEntity
  8
LC-001-111-----0
 62
   253
370
    25
100
AcDbCircle
 10
761.412387
 20
186.963179
 30
0.0
 40
23.54367341134796
100
AcDbArc
 50
232.518913
 51
268.246912
  0
ARC
  5
E4
330
30
100
AcDbEntity
  8
LC-001-111-----0
 62
   253
370
    25
100
AcDbCircle
 10
760.836588
 20
168.15034
 30
0.0
 40
4.722024781007908
100
AcDbArc
 50
268.246912
 51
72.731329
  0
LINE
  5
E5
330
30
100
AcDbEntity
  8
LC-001-111-----0
 62
   253
370
    25
100
AcDbLine
 10
757.542274
 20
181.595277
 30
0.0
 11
765.098525
 21
179.464972
 31
0.0
  0
ARC
  5
E6
330
30
100
AcDbEntity
  8
LC-001-111-----0
 62
   253
370
    25
100
AcDbCircle
 10
758.632108
 20
185.460948
 30
0.0
 40
4.016360130100384
100
AcDbArc
 50
90.951212
 51
254.255463
  0
ARC
  5
E7
330
30
100
AcDbEntity
  8
LC-001-111-----0
 62
   253
370
    25
100
AcDbCircle
 10
758.032826
 20
185.671748
 30
0.0
 40
11.17727081470983
100
AcDbArc
 50
94.48185
 51
252.731329
  0
LINE
  5
E8
330
30
100
AcDbEntity
  8
LC-001-111-----0
 62
   253
370
    25
100
AcDbLine
 10
762.238334
 20
172.659511
 30
0.0
 11
754.714822
 21
174.998312
 31
0.0
  0
LINE
  5
E9
330
30
100
AcDbEntity
  8
LC-001-111-----0
 62
   253
370
    25
100
AcDbLine
 10
747.086073
 20
168.279997
 30
0.0
 11
747.086073
 21
159.524163
 31
0.0
  0
ARC
  5
EA
330
30
100
AcDbEntity
  8
LC-001-111-----0
 62
   253
370
    25
100
AcDbCircle
 10
758.903191
 20
174.567744
 30
0.0
 40
22.31533311668187
100
AcDbArc
 50
60.049399
 51
94.48185
  0
ARC
  5
EB
330
30
100
AcDbEntity
  8
LC-001-111-----0
 62
   253
370
    25
100
AcDbCircle
 10
760.81067
 20
180.45076
 30
0.0
 40
25.02572762426604
100
AcDbArc
 50
236.741348
 51
274.343327
  0
LINE
  5
EC
330
30
100
AcDbEntity
  8
LC-001-111-----0
 62
   253
370
    25
100
AcDbLine
 10
1080.255204
 20
176.159147
 30
0.0
 11
1096.09687
 21
195.169147
 31
0.0
  0
LINE
  5
ED
330
30
100
AcDbEntity
  8
LC-001-111-----0
 62
   253
370
    25
100
AcDbLine
 10
750.086073
 20
162.957321
 30
0.0
 11
750.086073
 21
161.212369
 31
0.0
  0
LINE
  5
EE
330
30
100
AcDbEntity
  8
LC-001-111-----0
 62
   253
370
    25
100
AcDbLine
 10
1078.302641
 20
176.159147
 30
0.0
 11
1092.894308
 21
193.669147
 31
0.0
  0
LINE
  5
EF
330
30
100
AcDbEntity
  8
LC-002-002-----0
 62
     1
370
    25
100
AcDbLine
 10
1139.355603
 20
170.827393
 30
0.0
 11
1139.355603
 21
181.490901
 31
0.0
  0
LINE
  5
F0
330
30
100
AcDbEntity
  8
LC-002-002-----0
 62
     1
370
    25
100
AcDbLine
 10
1139.355603
 20
181.490901
 30
0.0
 11
1134.023849
 21
176.159147
 31
0.0
  0
LINE
  5
F1
330
30
100
AcDbEntity
  8
LC-002-002-----0
 62
     1
370
    25
100
AcDbLine
 10
1134.023849
 20
176.159147
 30
0.0
 11
1139.355603
 21
170.827393
 31
0.0
  0
LINE
  5
F2
330
30
100
AcDbEntity
  8
LC-002-002-----0
 62
     1
370
    25
100
AcDbLine
 10
1137.855603
 20
174.448713
 30
0.0
 11
1137.855603
 21
177.869581
 31
0.0
  0
LINE
  5
F3
330
30
100
AcDbEntity
  8
LC-002-002-----0
 62
     1
370
    25
100
AcDbLine
 10
1137.855603
 20
177.869581
 30
0.0
 11
1136.145169
 21
176.159147
 31
0.0
  0
LINE
  5
F4
330
30
100
AcDbEntity
  8
LC-002-002-----0
 62
     1
370
    25
100
AcDbLine
 10
1136.145169
 20
176.159147
 30
0.0
 11
1137.855603
 21
174.448713
 31
0.0
  0
LINE
  5
F5
330
30
100
AcDbEntity
  8
LC-001-111-----0
 62
   253
370
    25
100
AcDbLine
 10
1092.894308
 20
193.669147
 30
0.0
 11
1089.22349
 21
193.669147
 31
0.0
  0
LINE
  5
F6
330
30
100
AcDbEntity
  8
LC-001-111-----0
 62
   253
370
    25
100
AcDbLine
 10
1089.22349
 20
193.669147
 30
0.0
 11
1074.631824
 21
176.159147
 31
0.0
  0
ARC
  5
F7
330
30
100
AcDbEntity
  8
LC-001-111-----0
 62
   253
370
    25
100
AcDbCircle
 10
1019.845603
 20
176.159147
 30
0.0
 40
15.38999999999992
100
AcDbArc
 50
76.816519
 51
283.183481
  0
LINE
  5
F8
330
30
100
AcDbEntity
  8
LC-001-111-----0
 62
   253
370
    25
100
AcDbLine
 10
1074.631824
 20
176.159147
 30
0.0
 11
1089.22349
 21
158.649147
 31
0.0
  0
LINE
  5
F9
330
30
100
AcDbEntity
  8
LC-001-111-----0
 62
   253
370
    25
100
AcDbLine
 10
1089.22349
 20
158.649147
 30
0.0
 11
1092.894308
 21
158.649147
 31
0.0
  0
LINE
  5
FA
330
30
100
AcDbEntity
  8
LC-001-111-----0
 62
   253
370
    25
100
AcDbLine
 10
1092.894308
 20
158.649147
 30
0.0
 11
1078.302641
 21
176.159147
 31
0.0
  0
LINE
  5
FB
330
30
100
AcDbEntity
  8
LC-001-111-----0
 62
   253
370
    25
100
AcDbLine
 10
1076.467232
 20
176.159147
 30
0.0
 11
1090.098623
 21
192.516815
 31
0.0
  0
LINE
  5
FC
330
30
100
AcDbEntity
  8
LC-001-111-----0
 62
   253
370
    25
100
AcDbLine
 10
1076.467232
 20
176.159147
 30
0.0
 11
1090.098623
 21
159.801479
 31
0.0
  0
ARC
  5
FD
330
30
100
AcDbEntity
  8
LC-001-111-----0
 62
   253
370
    25
100
AcDbCircle
 10
760.81067
 20
180.45076
 30
0.0
 40
22.02572762426587
100
AcDbArc
 50
240.862164
 51
274.343327
  0
ARC
  5
FE
330
30
100
AcDbEntity
  8
LC-001-111-----0
 62
   253
370
    25
100
AcDbCircle
 10
761.779647
 20
167.692822
 30
0.0
 40
9.231045254448425
100
AcDbArc
 50
274.343327
 51
74.255463
  0
LINE
  5
FF
330
30
100
AcDbEntity
  8
LC-001-111-----0
 62
   253
370
    25
100
AcDbLine
 10
764.284479
 20
176.577529
 30
0.0
 11
756.728228
 21
178.707834
 31
0.0
  0
ARC
  5
100
330
30
100
AcDbEntity
  8
LC-001-111-----0
 62
   253
370
    25
100
AcDbCircle
 10
758.632108
 20
185.460948
 30
0.0
 40
7.016360130100396
100
AcDbArc
 50
90.951212
 51
254.255463
  0
ARC
  5
101
330
30
100
AcDbEntity
  8
LC-001-111-----0
 62
   253
370
    25
100
AcDbCircle
 10
758.906662
 20
168.924866
 30
0.0
 40
23.55472179307856
100
AcDbArc
 50
69.789306
 51
90.951212
  0
LINE
  5
102
330
30
100
AcDbEntity
  8
LC-001-111-----0
 62
   253
370
    25
100
AcDbLine
 10
767.044191
 20
191.029289
 30
0.0
 11
767.044191
 21
192.083629
 31
0.0
  0
ENDBLK
  5
32
330
30
100
AcDbEntity
  8
0
100
AcDbBlockEnd
  0
BLOCK
  5
1D1
330
1D0
100
AcDbEntity
  8
0
100
AcDbBlockBegin
  2
KLON1
 70
     0
 71
     0
 10
0.0
 20
0.0
 30
0.0
  3
KLON1
  1

  4
KLON1
  0
LINE
  5
1D3
330
1D0
100
AcDbEntity
  8
LC-006-100-D00-0
 62
     7
370
    13
100
AcDbLine
 10
1839.805457
 20
1433.986733
 30
0.0
 11
1839.805457
 21
1433.986733
 31
0.0
  0
LINE
  5
1D4
330
1D0
100
AcDbEntity
  8
LC-006-100-D00-0
 62
     7
370
    13
100
AcDbLine
 10
1839.805462
 20
1433.986725
 30
0.0
 11
1839.808467
 21
1433.981813
 31
0.0
  0
LINE
  5
1D5
330
1D0
100
AcDbEntity
  8
LC-006-100-D00-0
 62
     7
370
    13
100
AcDbLine
 10
1839.808467
 20
1433.981813
 30
0.0
 11
1839.811004
 21
1433.97762
 31
0.0
  0
ENDBLK
  5
1D2
330
1D0
100
AcDbEntity
  8
0
100
AcDbBlockEnd
  0
BLOCK
  5
1F2
330
1F1
100
AcDbEntity
  8
0
100
AcDbBlockBegin
  2
LCDIM1
 70
     0
 71
     0
 10
0.0
 20
0.0
 30
0.0
  3
LCDIM1
  1

  4
LCDIM1
  0
LINE
  5
1F5
330
1F1
100
AcDbEntity
  8
LC-007-003-MTH-0
 62
     7
370
    25
100
AcDbLine
 10
430.37707
 20
2644.675779
 30
0.0
 11
430.37707
 21
2715.0
 31
0.0
  0
LINE
  5
1F6
330
1F1
100
AcDbEntity
  8
LC-007-003-MTH-0
 62
     7
370
    25
100
AcDbLine
 10
800.173638
 20
2626.675779
 30
0.0
 11
800.173638
 21
2715.0
 31
0.0
  0
LINE
  5
1F8
330
1F1
100
AcDbEntity
  8
LC-008-003-MTG-0
 62
     7
370
    25
100
AcDbLine
 10
430.37707
 20
2700.0
 30
0.0
 11
800.173638
 21
2700.0
 31
0.0
  0
LINE
  5
1FA
330
1F1
100
AcDbEntity
  8
LC-009-003-----0
 62
     7
370
    25
100
AcDbLine
 10
455.163191
 20
2703.263155
 30
0.0
 11
430.37707
 21
2700.0
 31
0.0
  0
LINE
  5
1FB
330
1F1
100
AcDbEntity
  8
LC-009-003-----0
 62
     7
370
    25
100
AcDbLine
 10
430.37707
 20
2700.0
 30
0.0
 11
455.163191
 21
2696.736845
 31
0.0
  0
LINE
  5
1FC
330
1F1
100
AcDbEntity
  8
LC-009-003-----0
 62
     7
370
    25
100
AcDbLine
 10
455.163191
 20
2696.736845
 30
0.0
 11
455.163191
 21
2703.263155
 31
0.0
  0
LINE
  5
1FD
330
1F1
100
AcDbEntity
  8
LC-009-003-----0
 62
     7
370
    25
100
AcDbLine
 10
455.2188
 20
2702.414735
 30
0.0
 11
436.87707
 21
2700.0
 31
0.0
  0
LINE
  5
1FE
330
1F1
100
AcDbEntity
  8
LC-009-003-----0
 62
     7
370
    25
100
AcDbLine
 10
436.87707
 20
2700.0
 30
0.0
 11
455.2188
 21
2697.585265
 31
0.0
  0
LINE
  5
1FF
330
1F1
100
AcDbEntity
  8
LC-009-003-----0
 62
     7
370
    25
100
AcDbLine
 10
455.274408
 20
2701.566314
 30
0.0
 11
443.37707
 21
2700.0
 31
0.0
  0
LINE
  5
200
330
1F1
100
AcDbEntity
  8
LC-009-003-----0
 62
     7
370
    25
100
AcDbLine
 10
443.37707
 20
2700.0
 30
0.0
 11
455.274408
 21
2698.433686
 31
0.0
  0
LINE
  5
201
330
1F1
100
AcDbEntity
  8
LC-009-003-----0
 62
     7
370
    25
100
AcDbLine
 10
455.330017
 20
2700.717894
 30
0.0
 11
449.87707
 21
2700.0
 31
0.0
  0
LINE
  5
202
330
1F1
100
AcDbEntity
  8
LC-009-003-----0
 62
     7
370
    25
100
AcDbLine
 10
449.87707
 20
2700.0
 30
0.0
 11
455.330017
 21
2699.282106
 31
0.0
  0
LINE
  5
203
330
1F1
100
AcDbEntity
  8
LC-009-003-----0
 62
     7
370
    25
100
AcDbLine
 10
775.387516
 20
2696.736845
 30
0.0
 11
800.173638
 21
2700.0
 31
0.0
  0
LINE
  5
204
330
1F1
100
AcDbEntity
  8
LC-009-003-----0
 62
     7
370
    25
100
AcDbLine
 10
800.173638
 20
2700.0
 30
0.0
 11
775.387516
 21
2703.263155
 31
0.0
  0
LINE
  5
205
330
1F1
100
AcDbEntity
  8
LC-009-003-----0
 62
     7
370
    25
100
AcDbLine
 10
775.387516
 20
2703.263155
 30
0.0
 11
775.387516
 21
2696.736845
 31
0.0
  0
LINE
  5
206
330
1F1
100
AcDbEntity
  8
LC-009-003-----0
 62
     7
370
    25
100
AcDbLine
 10
775.331908
 20
2697.585265
 30
0.0
 11
793.673638
 21
2700.0
 31
0.0
  0
LINE
  5
207
330
1F1
100
AcDbEntity
  8
LC-009-003-----0
 62
     7
370
    25
100
AcDbLine
 10
793.673638
 20
2700.0
 30
0.0
 11
775.331908
 21
2702.414735
 31
0.0
  0
LINE
  5
208
330
1F1
100
AcDbEntity
  8
LC-009-003-----0
 62
     7
370
    25
100
AcDbLine
 10
775.2763
 20
2698.433686
 30
0.0
 11
787.173638
 21
2700.0
 31
0.0
  0
LINE
  5
209
330
1F1
100
AcDbEntity
  8
LC-009-003-----0
 62
     7
370
    25
100
AcDbLine
 10
787.173638
 20
2700.0
 30
0.0
 11
775.2763
 21
2701.566314
 31
0.0
  0
LINE
  5
20A
330
1F1
100
AcDbEntity
  8
LC-009-003-----0
 62
     7
370
    25
100
AcDbLine
 10
775.220691
 20
2699.282106
 30
0.0
 11
780.673638
 21
2700.0
 31
0.0
  0
LINE
  5
20B
330
1F1
100
AcDbEntity
  8
LC-009-003-----0
 62
     7
370
    25
100
AcDbLine
 10
780.673638
 20
2700.0
 30
0.0
 11
775.220691
 21
2700.717894
 31
0.0
  0
TEXT
  5
20C
330
1F1
100
AcDbEntity
  8
LC-009-003-----0
 62
     7
370
    25
100
AcDbText
 10
584.88359
 20
2715.0
 30
0.0
 40
25.0
  1
370
 41
0.7
  7
LCTX0-400-0-0pDIN-Schrift
 72
     1
 11
609.88359
 21
2715.0
 31
0.0
100
AcDbText
  0
ENDBLK
  5
1F3
330
1F1
100
AcDbEntity
  8
0
100
AcDbBlockEnd
  0
BLOCK
  5
20F
330
20E
100
AcDbEntity
  8
0
100
AcDbBlockBegin
  2
LCDIM2
 70
     0
 71
     0
 10
0.0
 20
0.0
 30
0.0
  3
LCDIM2
  1

  4
LCDIM2
  0
LINE
  5
211
330
20E
100
AcDbEntity
  8
LC-007-003-MTH-0
 62
     7
370
    25
100
AcDbLine
 10
829.972274
 20
2626.675779
 30
0.0
 11
829.972274
 21
2715.0
 31
0.0
  0
LINE
  5
212
330
20E
100
AcDbEntity
  8
LC-007-003-MTH-0
 62
     7
370
    25
100
AcDbLine
 10
1199.778434
 20
2644.675779
 30
0.0
 11
1199.778434
 21
2715.0
 31
0.0
  0
LINE
  5
213
330
20E
100
AcDbEntity
  8
LC-008-003-MTG-0
 62
     7
370
    25
100
AcDbLine
 10
829.972274
 20
2700.0
 30
0.0
 11
1199.778434
 21
2700.0
 31
0.0
  0
LINE
  5
214
330
20E
100
AcDbEntity
  8
LC-009-003-----0
 62
     7
370
    25
100
AcDbLine
 10
854.758395
 20
2703.263155
 30
0.0
 11
829.972274
 21
2700.0
 31
0.0
  0
LINE
  5
215
330
20E
100
AcDbEntity
  8
LC-009-003-----0
 62
     7
370
    25
100
AcDbLine
 10
829.972274
 20
2700.0
 30
0.0
 11
854.758395
 21
2696.736845
 31
0.0
  0
LINE
  5
216
330
20E
100
AcDbEntity
  8
LC-009-003-----0
 62
     7
370
    25
100
AcDbLine
 10
854.758395
 20
2696.736845
 30
0.0
 11
854.758395
 21
2703.263155
 31
0.0
  0
LINE
  5
217
330
20E
100
AcDbEntity
  8
LC-009-003-----0
 62
     7
370
    25
100
AcDbLine
 10
854.814004
 20
2702.414735
 30
0.0
 11
836.472274
 21
2700.0
 31
0.0
  0
LINE
  5
218
330
20E
100
AcDbEntity
  8
LC-009-003-----0
 62
     7
370
    25
100
AcDbLine
 10
836.472274
 20
2700.0
 30
0.0
 11
854.814004
 21
2697.585265
 31
0.0
  0
LINE
  5
219
330
20E
100
AcDbEntity
  8
LC-009-003-----0
 62
     7
370
    25
100
AcDbLine
 10
854.869612
 20
2701.566314
 30
0.0
 11
842.972274
 21
2700.0
 31
0.0
  0
LINE
  5
21A
330
20E
100
AcDbEntity
  8
LC-009-003-----0
 62
     7
370
    25
100
AcDbLine
 10
842.972274
 20
2700.0
 30
0.0
 11
854.869612
 21
2698.433686
 31
0.0
  0
LINE
  5
21B
330
20E
100
AcDbEntity
  8
LC-009-003-----0
 62
     7
370
    25
100
AcDbLine
 10
854.925221
 20
2700.717894
 30
0.0
 11
849.472274
 21
2700.0
 31
0.0
  0
LINE
  5
21C
330
20E
100
AcDbEntity
  8
LC-009-003-----0
 62
     7
370
    25
100
AcDbLine
 10
849.472274
 20
2700.0
 30
0.0
 11
854.925221
 21
2699.282106
 31
0.0
  0
LINE
  5
21D
330
20E
100
AcDbEntity
  8
LC-009-003-----0
 62
     7
370
    25
100
AcDbLine
 10
1174.992312
 20
2696.736845
 30
0.0
 11
1199.778434
 21
2700.0
 31
0.0
  0
LINE
  5
21E
330
20E
100
AcDbEntity
  8
LC-009-003-----0
 62
     7
370
    25
100
AcDbLine
 10
1199.778434
 20
2700.0
 30
0.0
 11
1174.992312
 21
2703.263155
 31
0.0
  0
LINE
  5
21F
330
20E
100
AcDbEntity
  8
LC-009-003-----0
 62
     7
370
    25
100
AcDbLine
 10
1174.992312
 20
2703.263155
 30
0.0
 11
1174.992312
 21
2696.736845
 31
0.0
  0
LINE
  5
220
330
20E
100
AcDbEntity
  8
LC-009-003-----0
 62
     7
370
    25
100
AcDbLine
 10
1174.936704
 20
2697.585265
 30
0.0
 11
1193.278434
 21
2700.0
 31
0.0
  0
LINE
  5
221
330
20E
100
AcDbEntity
  8
LC-009-003-----0
 62
     7
370
    25
100
AcDbLine
 10
1193.278434
 20
2700.0
 30
0.0
 11
1174.936704
 21
2702.414735
 31
0.0
  0
LINE
  5
222
330
20E
100
AcDbEntity
  8
LC-009-003-----0
 62
     7
370
    25
100
AcDbLine
 10
1174.881096
 20
2698.433686
 30
0.0
 11
1186.778434
 21
2700.0
 31
0.0
  0
LINE
  5
223
330
20E
100
AcDbEntity
  8
LC-009-003-----0
 62
     7
370
    25
100
AcDbLine
 10
1186.778434
 20
2700.0
 30
0.0
 11
1174.881096
 21
2701.566314
 31
0.0
  0
LINE
  5
224
330
20E
100
AcDbEntity
  8
LC-009-003-----0
 62
     7
370
    25
100
AcDbLine
 10
1174.825487
 20
2699.282106
 30
0.0
 11
1180.278434
 21
2700.0
 31
0.0
  0
LINE
  5
225
330
20E
100
AcDbEntity
  8
LC-009-003-----0
 62
     7
370
    25
100
AcDbLine
 10
1180.278434
 20
2700.0
 30
0.0
 11
1174.825487
 21
2700.717894
 31
0.0
  0
TEXT
  5
226
330
20E
100
AcDbEntity
  8
LC-009-003-----0
 62
     7
370
    25
100
AcDbText
 10
974.960548
 20
2715.0
 30
0.0
 40
25.0
  1
370
 41
0.7
  7
LCTX0-400-0-0pDIN-Schrift
 72
     1
 11
999.960548
 21
2715.0
 31
0.0
100
AcDbText
  0
ENDBLK
  5
210
330
20E
100
AcDbEntity
  8
0
100
AcDbBlockEnd
  0
BLOCK
  5
229
330
228
100
AcDbEntity
  8
0
100
AcDbBlockBegin
  2
LCDIM3
 70
     0
 71
     0
 10
0.0
 20
0.0
 30
0.0
  3
LCDIM3
  1

  4
LCDIM3
  0
LINE
  5
22B
330
228
100
AcDbEntity
  8
LC-007-003-MTH-0
 62
     7
370
    25
100
AcDbLine
 10
1013.970711
 20
2408.306446
 30
0.0
 11
1065.0
 21
2408.306446
 31
0.0
  0
LINE
  5
22C
330
228
100
AcDbEntity
  8
LC-007-003-MTH-0
 62
     7
370
    25
100
AcDbLine
 10
1013.970711
 20
2649.24
 30
0.0
 11
1065.0
 21
2649.24
 31
0.0
  0
LINE
  5
22D
330
228
100
AcDbEntity
  8
LC-008-003-MTG-0
 62
     7
370
    25
100
AcDbLine
 10
1050.0
 20
2408.306446
 30
0.0
 11
1050.0
 21
2649.24
 31
0.0
  0
LINE
  5
22E
330
228
100
AcDbEntity
  8
LC-009-003-----0
 62
     7
370
    25
100
AcDbLine
 10
1046.736845
 20
2433.092568
 30
0.0
 11
1050.0
 21
2408.306446
 31
0.0
  0
LINE
  5
22F
330
228
100
AcDbEntity
  8
LC-009-003-----0
 62
     7
370
    25
100
AcDbLine
 10
1050.0
 20
2408.306446
 30
0.0
 11
1053.263155
 21
2433.092568
 31
0.0
  0
LINE
  5
230
330
228
100
AcDbEntity
  8
LC-009-003-----0
 62
     7
370
    25
100
AcDbLine
 10
1053.263155
 20
2433.092568
 30
0.0
 11
1046.736845
 21
2433.092568
 31
0.0
  0
LINE
  5
231
330
228
100
AcDbEntity
  8
LC-009-003-----0
 62
     7
370
    25
100
AcDbLine
 10
1047.585265
 20
2433.148177
 30
0.0
 11
1050.0
 21
2414.806447
 31
0.0
  0
LINE
  5
232
330
228
100
AcDbEntity
  8
LC-009-003-----0
 62
     7
370
    25
100
AcDbLine
 10
1050.0
 20
2414.806447
 30
0.0
 11
1052.414735
 21
2433.148177
 31
0.0
  0
LINE
  5
233
330
228
100
AcDbEntity
  8
LC-009-003-----0
 62
     7
370
    25
100
AcDbLine
 10
1048.433686
 20
2433.203785
 30
0.0
 11
1050.0
 21
2421.306447
 31
0.0
  0
LINE
  5
234
330
228
100
AcDbEntity
  8
LC-009-003-----0
 62
     7
370
    25
100
AcDbLine
 10
1050.0
 20
2421.306447
 30
0.0
 11
1051.566314
 21
2433.203785
 31
0.0
  0
LINE
  5
235
330
228
100
AcDbEntity
  8
LC-009-003-----0
 62
     7
370
    25
100
AcDbLine
 10
1049.282106
 20
2433.259394
 30
0.0
 11
1050.0
 21
2427.806447
 31
0.0
  0
LINE
  5
236
330
228
100
AcDbEntity
  8
LC-009-003-----0
 62
     7
370
    25
100
AcDbLine
 10
1050.0
 20
2427.806447
 30
0.0
 11
1050.717894
 21
2433.259394
 31
0.0
  0
LINE
  5
237
330
228
100
AcDbEntity
  8
LC-009-003-----0
 62
     7
370
    25
100
AcDbLine
 10
1053.263155
 20
2624.453878
 30
0.0
 11
1050.0
 21
2649.24
 31
0.0
  0
LINE
  5
238
330
228
100
AcDbEntity
  8
LC-009-003-----0
 62
     7
370
    25
100
AcDbLine
 10
1050.0
 20
2649.24
 30
0.0
 11
1046.736845
 21
2624.453878
 31
0.0
  0
LINE
  5
239
330
228
100
AcDbEntity
  8
LC-009-003-----0
 62
     7
370
    25
100
AcDbLine
 10
1046.736845
 20
2624.453878
 30
0.0
 11
1053.263155
 21
2624.453878
 31
0.0
  0
LINE
  5
23A
330
228
100
AcDbEntity
  8
LC-009-003-----0
 62
     7
370
    25
100
AcDbLine
 10
1052.414735
 20
2624.39827
 30
0.0
 11
1050.0
 21
2642.74
 31
0.0
  0
LINE
  5
23B
330
228
100
AcDbEntity
  8
LC-009-003-----0
 62
     7
370
    25
100
AcDbLine
 10
1050.0
 20
2642.74
 30
0.0
 11
1047.585265
 21
2624.39827
 31
0.0
  0
LINE
  5
23C
330
228
100
AcDbEntity
  8
LC-009-003-----0
 62
     7
370
    25
100
AcDbLine
 10
1051.566314
 20
2624.342661
 30
0.0
 11
1050.0
 21
2636.24
 31
0.0
  0
LINE
  5
23D
330
228
100
AcDbEntity
  8
LC-009-003-----0
 62
     7
370
    25
100
AcDbLine
 10
1050.0
 20
2636.24
 30
0.0
 11
1048.433686
 21
2624.342661
 31
0.0
  0
LINE
  5
23E
330
228
100
AcDbEntity
  8
LC-009-003-----0
 62
     7
370
    25
100
AcDbLine
 10
1050.717894
 20
2624.287053
 30
0.0
 11
1050.0
 21
2629.74
 31
0.0
  0
LINE
  5
23F
330
228
100
AcDbEntity
  8
LC-009-003-----0
 62
     7
370
    25
100
AcDbLine
 10
1050.0
 20
2629.74
 30
0.0
 11
1049.282106
 21
2624.287053
 31
0.0
  0
TEXT
  5
240
330
228
100
AcDbEntity
  8
LC-009-003-----0
 62
     7
370
    25
100
AcDbText
 10
1035.0
 20
2512.49493
 30
0.0
 40
25.0
  1
241
 50
90.0
 41
0.7
  7
LCTX0-400-0-0pDIN-Schrift
 72
     1
 11
1035.0
 21
2534.99493
 31
0.0
100
AcDbText
  0
ENDBLK
  5
22A
330
228
100
AcDbEntity
  8
0
100
AcDbBlockEnd
  0
BLOCK
  5
248
330
247
100
AcDbEntity
  8
0
100
AcDbBlockBegin
  2
*X16
 70
     1
 71
     0
 10
0.0
 20
0.0
 30
0.0
  3
*X16
  1

  4
*X1
  0
LINE
  5
24B
330
247
100
AcDbEntity
  8
LC-010-005-----0
 62
     7
370
    25
100
AcDbLine
 10
1288.021387
 20
2603.24
 30
0.0
 11
1296.657189
 21
2611.875802
 31
0.0
  0
LINE
  5
24C
330
247
100
AcDbEntity
  8
LC-010-005-----0
 62
     7
370
    25
100
AcDbLine
 10
1245.59498
 20
2603.24
 30
0.0
 11
1283.59498
 21
2641.24
 31
0.0
  0
LINE
  5
24D
330
247
100
AcDbEntity
  8
LC-010-005-----0
 62
     7
370
    25
100
AcDbLine
 10
1224.177752
 20
2624.249179
 30
0.0
 11
1241.168573
 21
2641.24
 31
0.0
  0
LINE
  5
24E
330
247
100
AcDbEntity
  8
LC-010-005-----0
 62
     7
370
    25
100
AcDbLine
 10
397.066843
 20
2603.24
 30
0.0
 11
405.977752
 21
2612.150909
 31
0.0
  0
LINE
  5
24F
330
247
100
AcDbEntity
  8
LC-010-005-----0
 62
     7
370
    25
100
AcDbLine
 10
354.640436
 20
2603.24
 30
0.0
 11
392.640436
 21
2641.24
 31
0.0
  0
LINE
  5
250
330
247
100
AcDbEntity
  8
LC-010-005-----0
 62
     7
370
    25
100
AcDbLine
 10
331.681233
 20
2622.707204
 30
0.0
 11
350.214029
 21
2641.24
 31
0.0
  0
ENDBLK
  5
249
330
247
100
AcDbEntity
  8
0
100
AcDbBlockEnd
  0
BLOCK
  5
258
330
257
100
AcDbEntity
  8
0
100
AcDbBlockBegin
  2
LCDIM4
 70
     0
 71
     0
 10
0.0
 20
0.0
 30
0.0
  3
LCDIM4
  1

  4
LCDIM4
  0
LINE
  5
25A
330
257
100
AcDbEntity
  8
LC-007-003-MTH-0
 62
     7
370
    25
100
AcDbLine
 10
395.977752
 20
2473.615673
 30
0.0
 11
395.977752
 21
2185.0
 31
0.0
  0
LINE
  5
25B
330
257
100
AcDbEntity
  8
LC-007-003-MTH-0
 62
     7
370
    25
100
AcDbLine
 10
1234.177752
 20
2473.615673
 30
0.0
 11
1234.177752
 21
2185.0
 31
0.0
  0
LINE
  5
25C
330
257
100
AcDbEntity
  8
LC-008-003-MTG-0
 62
     7
370
    25
100
AcDbLine
 10
395.977752
 20
2200.0
 30
0.0
 11
1234.177752
 21
2200.0
 31
0.0
  0
LINE
  5
25D
330
257
100
AcDbEntity
  8
LC-009-003-----0
 62
     7
370
    25
100
AcDbLine
 10
420.763874
 20
2203.263155
 30
0.0
 11
395.977752
 21
2200.0
 31
0.0
  0
LINE
  5
25E
330
257
100
AcDbEntity
  8
LC-009-003-----0
 62
     7
370
    25
100
AcDbLine
 10
395.977752
 20
2200.0
 30
0.0
 11
420.763874
 21
2196.736845
 31
0.0
  0
LINE
  5
25F
330
257
100
AcDbEntity
  8
LC-009-003-----0
 62
     7
370
    25
100
AcDbLine
 10
420.763874
 20
2196.736845
 30
0.0
 11
420.763874
 21
2203.263155
 31
0.0
  0
LINE
  5
260
330
257
100
AcDbEntity
  8
LC-009-003-----0
 62
     7
370
    25
100
AcDbLine
 10
420.819482
 20
2202.414735
 30
0.0
 11
402.477752
 21
2200.0
 31
0.0
  0
LINE
  5
261
330
257
100
AcDbEntity
  8
LC-009-003-----0
 62
     7
370
    25
100
AcDbLine
 10
402.477752
 20
2200.0
 30
0.0
 11
420.819482
 21
2197.585265
 31
0.0
  0
LINE
  5
262
330
257
100
AcDbEntity
  8
LC-009-003-----0
 62
     7
370
    25
100
AcDbLine
 10
420.875091
 20
2201.566314
 30
0.0
 11
408.977752
 21
2200.0
 31
0.0
  0
LINE
  5
263
330
257
100
AcDbEntity
  8
LC-009-003-----0
 62
     7
370
    25
100
AcDbLine
 10
408.977752
 20
2200.0
 30
0.0
 11
420.875091
 21
2198.433686
 31
0.0
  0
LINE
  5
264
330
257
100
AcDbEntity
  8
LC-009-003-----0
 62
     7
370
    25
100
AcDbLine
 10
420.930699
 20
2200.717894
 30
0.0
 11
415.477752
 21
2200.0
 31
0.0
  0
LINE
  5
265
330
257
100
AcDbEntity
  8
LC-009-003-----0
 62
     7
370
    25
100
AcDbLine
 10
415.477752
 20
2200.0
 30
0.0
 11
420.930699
 21
2199.282106
 31
0.0
  0
LINE
  5
266
330
257
100
AcDbEntity
  8
LC-009-003-----0
 62
     7
370
    25
100
AcDbLine
 10
1209.39163
 20
2196.736845
 30
0.0
 11
1234.177752
 21
2200.0
 31
0.0
  0
LINE
  5
267
330
257
100
AcDbEntity
  8
LC-009-003-----0
 62
     7
370
    25
100
AcDbLine
 10
1234.177752
 20
2200.0
 30
0.0
 11
1209.39163
 21
2203.263155
 31
0.0
  0
LINE
  5
268
330
257
100
AcDbEntity
  8
LC-009-003-----0
 62
     7
370
    25
100
AcDbLine
 10
1209.39163
 20
2203.263155
 30
0.0
 11
1209.39163
 21
2196.736845
 31
0.0
  0
LINE
  5
269
330
257
100
AcDbEntity
  8
LC-009-003-----0
 62
     7
370
    25
100
AcDbLine
 10
1209.336022
 20
2197.585265
 30
0.0
 11
1227.677752
 21
2200.0
 31
0.0
  0
LINE
  5
26A
330
257
100
AcDbEntity
  8
LC-009-003-----0
 62
     7
370
    25
100
AcDbLine
 10
1227.677752
 20
2200.0
 30
0.0
 11
1209.336022
 21
2202.414735
 31
0.0
  0
LINE
  5
26B
330
257
100
AcDbEntity
  8
LC-009-003-----0
 62
     7
370
    25
100
AcDbLine
 10
1209.280413
 20
2198.433686
 30
0.0
 11
1221.177752
 21
2200.0
 31
0.0
  0
LINE
  5
26C
330
257
100
AcDbEntity
  8
LC-009-003-----0
 62
     7
370
    25
100
AcDbLine
 10
1221.177752
 20
2200.0
 30
0.0
 11
1209.280413
 21
2201.566314
 31
0.0
  0
LINE
  5
26D
330
257
100
AcDbEntity
  8
LC-009-003-----0
 62
     7
370
    25
100
AcDbLine
 10
1209.224805
 20
2199.282106
 30
0.0
 11
1214.677752
 21
2200.0
 31
0.0
  0
LINE
  5
26E
330
257
100
AcDbEntity
  8
LC-009-003-----0
 62
     7
370
    25
100
AcDbLine
 10
1214.677752
 20
2200.0
 30
0.0
 11
1209.224805
 21
2200.717894
 31
0.0
  0
TEXT
  5
26F
330
257
100
AcDbEntity
  8
LC-009-003-----0
 62
     7
370
    25
100
AcDbText
 10
780.84541
 20
2215.0
 30
0.0
 40
25.0
  1
838,2
 41
0.7
  7
LCTX0-400-0-0pDIN-Schrift
 72
     1
 11
818.34541
 21
2215.0
 31
0.0
100
AcDbText
  0
ENDBLK
  5
259
330
257
100
AcDbEntity
  8
0
100
AcDbBlockEnd
  0
BLOCK
  5
272
330
271
100
AcDbEntity
  8
0
100
AcDbBlockBegin
  2
LCDIM5
 70
     0
 71
     0
 10
0.0
 20
0.0
 30
0.0
  3
LCDIM5
  1

  4
LCDIM5
  0
LINE
  5
274
330
271
100
AcDbEntity
  8
LC-007-003-MTH-0
 62
     7
370
    25
100
AcDbLine
 10
395.977752
 20
1432.74
 30
0.0
 11
395.977752
 21
1285.0
 31
0.0
  0
LINE
  5
275
330
271
100
AcDbEntity
  8
LC-007-003-MTH-0
 62
     7
370
    25
100
AcDbLine
 10
1234.177752
 20
1432.74
 30
0.0
 11
1234.177752
 21
1285.0
 31
0.0
  0
LINE
  5
276
330
271
100
AcDbEntity
  8
LC-008-003-MTG-0
 62
     7
370
    25
100
AcDbLine
 10
395.977752
 20
1300.0
 30
0.0
 11
1234.177752
 21
1300.0
 31
0.0
  0
LINE
  5
277
330
271
100
AcDbEntity
  8
LC-009-003-----0
 62
     7
370
    25
100
AcDbLine
 10
420.763874
 20
1303.263155
 30
0.0
 11
395.977752
 21
1300.0
 31
0.0
  0
LINE
  5
278
330
271
100
AcDbEntity
  8
LC-009-003-----0
 62
     7
370
    25
100
AcDbLine
 10
395.977752
 20
1300.0
 30
0.0
 11
420.763874
 21
1296.736845
 31
0.0
  0
LINE
  5
279
330
271
100
AcDbEntity
  8
LC-009-003-----0
 62
     7
370
    25
100
AcDbLine
 10
420.763874
 20
1296.736845
 30
0.0
 11
420.763874
 21
1303.263155
 31
0.0
  0
LINE
  5
27A
330
271
100
AcDbEntity
  8
LC-009-003-----0
 62
     7
370
    25
100
AcDbLine
 10
420.819482
 20
1302.414735
 30
0.0
 11
402.477752
 21
1300.0
 31
0.0
  0
LINE
  5
27B
330
271
100
AcDbEntity
  8
LC-009-003-----0
 62
     7
370
    25
100
AcDbLine
 10
402.477752
 20
1300.0
 30
0.0
 11
420.819482
 21
1297.585265
 31
0.0
  0
LINE
  5
27C
330
271
100
AcDbEntity
  8
LC-009-003-----0
 62
     7
370
    25
100
AcDbLine
 10
420.875091
 20
1301.566314
 30
0.0
 11
408.977752
 21
1300.0
 31
0.0
  0
LINE
  5
27D
330
271
100
AcDbEntity
  8
LC-009-003-----0
 62
     7
370
    25
100
AcDbLine
 10
408.977752
 20
1300.0
 30
0.0
 11
420.875091
 21
1298.433686
 31
0.0
  0
LINE
  5
27E
330
271
100
AcDbEntity
  8
LC-009-003-----0
 62
     7
370
    25
100
AcDbLine
 10
420.930699
 20
1300.717894
 30
0.0
 11
415.477752
 21
1300.0
 31
0.0
  0
LINE
  5
27F
330
271
100
AcDbEntity
  8
LC-009-003-----0
 62
     7
370
    25
100
AcDbLine
 10
415.477752
 20
1300.0
 30
0.0
 11
420.930699
 21
1299.282106
 31
0.0
  0
LINE
  5
280
330
271
100
AcDbEntity
  8
LC-009-003-----0
 62
     7
370
    25
100
AcDbLine
 10
1209.39163
 20
1296.736845
 30
0.0
 11
1234.177752
 21
1300.0
 31
0.0
  0
LINE
  5
281
330
271
100
AcDbEntity
  8
LC-009-003-----0
 62
     7
370
    25
100
AcDbLine
 10
1234.177752
 20
1300.0
 30
0.0
 11
1209.39163
 21
1303.263155
 31
0.0
  0
LINE
  5
282
330
271
100
AcDbEntity
  8
LC-009-003-----0
 62
     7
370
    25
100
AcDbLine
 10
1209.39163
 20
1303.263155
 30
0.0
 11
1209.39163
 21
1296.736845
 31
0.0
  0
LINE
  5
283
330
271
100
AcDbEntity
  8
LC-009-003-----0
 62
     7
370
    25
100
AcDbLine
 10
1209.336022
 20
1297.585265
 30
0.0
 11
1227.677752
 21
1300.0
 31
0.0
  0
LINE
  5
284
330
271
100
AcDbEntity
  8
LC-009-003-----0
 62
     7
370
    25
100
AcDbLine
 10
1227.677752
 20
1300.0
 30
0.0
 11
1209.336022
 21
1302.414735
 31
0.0
  0
LINE
  5
285
330
271
100
AcDbEntity
  8
LC-009-003-----0
 62
     7
370
    25
100
AcDbLine
 10
1209.280413
 20
1298.433686
 30
0.0
 11
1221.177752
 21
1300.0
 31
0.0
  0
LINE
  5
286
330
271
100
AcDbEntity
  8
LC-009-003-----0
 62
     7
370
    25
100
AcDbLine
 10
1221.177752
 20
1300.0
 30
0.0
 11
1209.280413
 21
1301.566314
 31
0.0
  0
LINE
  5
287
330
271
100
AcDbEntity
  8
LC-009-003-----0
 62
     7
370
    25
100
AcDbLine
 10
1209.224805
 20
1299.282106
 30
0.0
 11
1214.677752
 21
1300.0
 31
0.0
  0
LINE
  5
288
330
271
100
AcDbEntity
  8
LC-009-003-----0
 62
     7
370
    25
100
AcDbLine
 10
1214.677752
 20
1300.0
 30
0.0
 11
1209.224805
 21
1300.717894
 31
0.0
  0
TEXT
  5
289
330
271
100
AcDbEntity
  8
LC-009-003-----0
 62
     7
370
    25
100
AcDbText
 10
785.317929
 20
1315.0
 30
0.0
 40
25.0
  1
838,2
 41
0.7
  7
LCTX0-400-0-0pDIN-Schrift
 72
     1
 11
822.817929
 21
1315.0
 31
0.0
100
AcDbText
  0
ENDBLK
  5
273
330
271
100
AcDbEntity
  8
0
100
AcDbBlockEnd
  0
BLOCK
  5
28C
330
28B
100
AcDbEntity
  8
0
100
AcDbBlockBegin
  2
LCDIM6
 70
     0
 71
     0
 10
0.0
 20
0.0
 30
0.0
  3
LCDIM6
  1

  4
LCDIM6
  0
LINE
  5
28E
330
28B
100
AcDbEntity
  8
LC-007-003-MTH-0
 62
     7
370
    25
100
AcDbLine
 10
1208.777752
 20
1407.34
 30
0.0
 11
1365.0
 21
1407.34
 31
0.0
  0
LINE
  5
28F
330
28B
100
AcDbEntity
  8
LC-007-003-MTH-0
 62
     7
370
    25
100
AcDbLine
 10
1208.777752
 20
1966.14
 30
0.0
 11
1365.0
 21
1966.14
 31
0.0
  0
LINE
  5
290
330
28B
100
AcDbEntity
  8
LC-008-003-MTG-0
 62
     7
370
    25
100
AcDbLine
 10
1350.0
 20
1407.34
 30
0.0
 11
1350.0
 21
1966.14
 31
0.0
  0
LINE
  5
291
330
28B
100
AcDbEntity
  8
LC-009-003-----0
 62
     7
370
    25
100
AcDbLine
 10
1346.736845
 20
1432.126122
 30
0.0
 11
1350.0
 21
1407.34
 31
0.0
  0
LINE
  5
292
330
28B
100
AcDbEntity
  8
LC-009-003-----0
 62
     7
370
    25
100
AcDbLine
 10
1350.0
 20
1407.34
 30
0.0
 11
1353.263155
 21
1432.126122
 31
0.0
  0
LINE
  5
293
330
28B
100
AcDbEntity
  8
LC-009-003-----0
 62
     7
370
    25
100
AcDbLine
 10
1353.263155
 20
1432.126122
 30
0.0
 11
1346.736845
 21
1432.126122
 31
0.0
  0
LINE
  5
294
330
28B
100
AcDbEntity
  8
LC-009-003-----0
 62
     7
370
    25
100
AcDbLine
 10
1347.585265
 20
1432.18173
 30
0.0
 11
1350.0
 21
1413.84
 31
0.0
  0
LINE
  5
295
330
28B
100
AcDbEntity
  8
LC-009-003-----0
 62
     7
370
    25
100
AcDbLine
 10
1350.0
 20
1413.84
 30
0.0
 11
1352.414735
 21
1432.18173
 31
0.0
  0
LINE
  5
296
330
28B
100
AcDbEntity
  8
LC-009-003-----0
 62
     7
370
    25
100
AcDbLine
 10
1348.433686
 20
1432.237339
 30
0.0
 11
1350.0
 21
1420.34
 31
0.0
  0
LINE
  5
297
330
28B
100
AcDbEntity
  8
LC-009-003-----0
 62
     7
370
    25
100
AcDbLine
 10
1350.0
 20
1420.34
 30
0.0
 11
1351.566314
 21
1432.237339
 31
0.0
  0
LINE
  5
298
330
28B
100
AcDbEntity
  8
LC-009-003-----0
 62
     7
370
    25
100
AcDbLine
 10
1349.282106
 20
1432.292947
 30
0.0
 11
1350.0
 21
1426.84
 31
0.0
  0
LINE
  5
299
330
28B
100
AcDbEntity
  8
LC-009-003-----0
 62
     7
370
    25
100
AcDbLine
 10
1350.0
 20
1426.84
 30
0.0
 11
1350.717894
 21
1432.292947
 31
0.0
  0
LINE
  5
29A
330
28B
100
AcDbEntity
  8
LC-009-003-----0
 62
     7
370
    25
100
AcDbLine
 10
1353.263155
 20
1941.353878
 30
0.0
 11
1350.0
 21
1966.14
 31
0.0
  0
LINE
  5
29B
330
28B
100
AcDbEntity
  8
LC-009-003-----0
 62
     7
370
    25
100
AcDbLine
 10
1350.0
 20
1966.14
 30
0.0
 11
1346.736845
 21
1941.353878
 31
0.0
  0
LINE
  5
29C
330
28B
100
AcDbEntity
  8
LC-009-003-----0
 62
     7
370
    25
100
AcDbLine
 10
1346.736845
 20
1941.353878
 30
0.0
 11
1353.263155
 21
1941.353878
 31
0.0
  0
LINE
  5
29D
330
28B
100
AcDbEntity
  8
LC-009-003-----0
 62
     7
370
    25
100
AcDbLine
 10
1352.414735
 20
1941.29827
 30
0.0
 11
1350.0
 21
1959.64
 31
0.0
  0
LINE
  5
29E
330
28B
100
AcDbEntity
  8
LC-009-003-----0
 62
     7
370
    25
100
AcDbLine
 10
1350.0
 20
1959.64
 30
0.0
 11
1347.585265
 21
1941.29827
 31
0.0
  0
LINE
  5
29F
330
28B
100
AcDbEntity
  8
LC-009-003-----0
 62
     7
370
    25
100
AcDbLine
 10
1351.566314
 20
1941.242661
 30
0.0
 11
1350.0
 21
1953.14
 31
0.0
  0
LINE
  5
2A0
330
28B
100
AcDbEntity
  8
LC-009-003-----0
 62
     7
370
    25
100
AcDbLine
 10
1350.0
 20
1953.14
 30
0.0
 11
1348.433686
 21
1941.242661
 31
0.0
  0
LINE
  5
2A1
330
28B
100
AcDbEntity
  8
LC-009-003-----0
 62
     7
370
    25
100
AcDbLine
 10
1350.717894
 20
1941.187053
 30
0.0
 11
1350.0
 21
1946.64
 31
0.0
  0
LINE
  5
2A2
330
28B
100
AcDbEntity
  8
LC-009-003-----0
 62
     7
370
    25
100
AcDbLine
 10
1350.0
 20
1946.64
 30
0.0
 11
1349.282106
 21
1941.187053
 31
0.0
  0
TEXT
  5
2A3
330
28B
100
AcDbEntity
  8
LC-009-003-----0
 62
     7
370
    25
100
AcDbText
 10
1335.0
 20
1631.31776
 30
0.0
 40
25.0
  1
558,8
 50
90.0
 41
0.7
  7
LCTX0-400-0-0pDIN-Schrift
 72
     1
 11
1335.0
 21
1668.81776
 31
0.0
100
AcDbText
  0
ENDBLK
  5
28D
330
28B
100
AcDbEntity
  8
0
100
AcDbBlockEnd
  0
BLOCK
  5
2A6
330
2A5
100
AcDbEntity
  8
0
100
AcDbBlockBegin
  2
LCDIM7
 70
     0
 71
     0
 10
0.0
 20
0.0
 30
0.0
  3
LCDIM7
  1

  4
LCDIM7
  0
LINE
  5
2A8
330
2A5
100
AcDbEntity
  8
LC-007-003-MTH-0
 62
     7
370
    25
100
AcDbLine
 10
836.027752
 20
1910.64
 30
0.0
 11
735.0
 21
1910.64
 31
0.0
  0
LINE
  5
2A9
330
2A5
100
AcDbEntity
  8
LC-007-003-MTH-0
 62
     7
370
    25
100
AcDbLine
 10
815.077752
 20
1966.14
 30
0.0
 11
735.0
 21
1966.14
 31
0.0
  0
LINE
  5
2AA
330
2A5
100
AcDbEntity
  8
LC-009-003-----0
 62
     7
370
    25
100
AcDbLine
 10
753.263155
 20
1885.853878
 30
0.0
 11
750.0
 21
1910.64
 31
0.0
  0
LINE
  5
2AB
330
2A5
100
AcDbEntity
  8
LC-009-003-----0
 62
     7
370
    25
100
AcDbLine
 10
750.0
 20
1910.64
 30
0.0
 11
746.736845
 21
1885.853878
 31
0.0
  0
LINE
  5
2AC
330
2A5
100
AcDbEntity
  8
LC-009-003-----0
 62
     7
370
    25
100
AcDbLine
 10
746.736845
 20
1885.853878
 30
0.0
 11
753.263155
 21
1885.853878
 31
0.0
  0
LINE
  5
2AD
330
2A5
100
AcDbEntity
  8
LC-009-003-----0
 62
     7
370
    25
100
AcDbLine
 10
752.414735
 20
1885.79827
 30
0.0
 11
750.0
 21
1904.14
 31
0.0
  0
LINE
  5
2AE
330
2A5
100
AcDbEntity
  8
LC-009-003-----0
 62
     7
370
    25
100
AcDbLine
 10
750.0
 20
1904.14
 30
0.0
 11
747.585265
 21
1885.79827
 31
0.0
  0
LINE
  5
2AF
330
2A5
100
AcDbEntity
  8
LC-009-003-----0
 62
     7
370
    25
100
AcDbLine
 10
751.566314
 20
1885.742661
 30
0.0
 11
750.0
 21
1897.64
 31
0.0
  0
LINE
  5
2B0
330
2A5
100
AcDbEntity
  8
LC-009-003-----0
 62
     7
370
    25
100
AcDbLine
 10
750.0
 20
1897.64
 30
0.0
 11
748.433686
 21
1885.742661
 31
0.0
  0
LINE
  5
2B1
330
2A5
100
AcDbEntity
  8
LC-009-003-----0
 62
     7
370
    25
100
AcDbLine
 10
750.717894
 20
1885.687053
 30
0.0
 11
750.0
 21
1891.14
 31
0.0
  0
LINE
  5
2B2
330
2A5
100
AcDbEntity
  8
LC-009-003-----0
 62
     7
370
    25
100
AcDbLine
 10
750.0
 20
1891.14
 30
0.0
 11
749.282106
 21
1885.687053
 31
0.0
  0
LINE
  5
2B3
330
2A5
100
AcDbEntity
  8
LC-009-003-----0
 62
     7
370
    25
100
AcDbLine
 10
746.736845
 20
1990.926122
 30
0.0
 11
750.0
 21
1966.14
 31
0.0
  0
LINE
  5
2B4
330
2A5
100
AcDbEntity
  8
LC-009-003-----0
 62
     7
370
    25
100
AcDbLine
 10
750.0
 20
1966.14
 30
0.0
 11
753.263155
 21
1990.926122
 31
0.0
  0
LINE
  5
2B5
330
2A5
100
AcDbEntity
  8
LC-009-003-----0
 62
     7
370
    25
100
AcDbLine
 10
753.263155
 20
1990.926122
 30
0.0
 11
746.736845
 21
1990.926122
 31
0.0
  0
LINE
  5
2B6
330
2A5
100
AcDbEntity
  8
LC-009-003-----0
 62
     7
370
    25
100
AcDbLine
 10
747.585265
 20
1990.98173
 30
0.0
 11
750.0
 21
1972.64
 31
0.0
  0
LINE
  5
2B7
330
2A5
100
AcDbEntity
  8
LC-009-003-----0
 62
     7
370
    25
100
AcDbLine
 10
750.0
 20
1972.64
 30
0.0
 11
752.414735
 21
1990.98173
 31
0.0
  0
LINE
  5
2B8
330
2A5
100
AcDbEntity
  8
LC-009-003-----0
 62
     7
370
    25
100
AcDbLine
 10
748.433686
 20
1991.037339
 30
0.0
 11
750.0
 21
1979.14
 31
0.0
  0
LINE
  5
2B9
330
2A5
100
AcDbEntity
  8
LC-009-003-----0
 62
     7
370
    25
100
AcDbLine
 10
750.0
 20
1979.14
 30
0.0
 11
751.566314
 21
1991.037339
 31
0.0
  0
LINE
  5
2BA
330
2A5
100
AcDbEntity
  8
LC-009-003-----0
 62
     7
370
    25
100
AcDbLine
 10
749.282106
 20
1991.092947
 30
0.0
 11
750.0
 21
1985.64
 31
0.0
  0
LINE
  5
2BB
330
2A5
100
AcDbEntity
  8
LC-009-003-----0
 62
     7
370
    25
100
AcDbLine
 10
750.0
 20
1985.64
 30
0.0
 11
750.717894
 21
1991.092947
 31
0.0
  0
LINE
  5
2BC
330
2A5
100
AcDbEntity
  8
LC-008-003-MTG-0
 62
     7
370
    25
100
AcDbLine
 10
750.0
 20
1875.639999
 30
0.0
 11
750.0
 21
2073.804797
 31
0.0
  0
TEXT
  5
2BD
330
2A5
100
AcDbEntity
  8
LC-009-003-----0
 62
     7
370
    25
100
AcDbText
 10
735.0
 20
2034.313579
 30
0.0
 40
25.0
  1
55,5
 50
90.0
 41
0.7
  7
LCTX0-400-0-0pDIN-Schrift
100
AcDbText
  0
ENDBLK
  5
2A7
330
2A5
100
AcDbEntity
  8
0
100
AcDbBlockEnd
  0
BLOCK
  5
2C0
330
2BF
100
AcDbEntity
  8
0
100
AcDbBlockBegin
  2
LCDIM8
 70
     0
 71
     0
 10
0.0
 20
0.0
 30
0.0
  3
LCDIM8
  1

  4
LCDIM8
  0
LINE
  5
2C2
330
2BF
100
AcDbEntity
  8
LC-007-003-MTH-0
 62
     7
370
    25
100
AcDbLine
 10
1159.877752
 20
1929.69
 30
0.0
 11
1159.877752
 21
2015.0
 31
0.0
  0
LINE
  5
2C3
330
2BF
100
AcDbEntity
  8
LC-007-003-MTH-0
 62
     7
370
    25
100
AcDbLine
 10
1234.177752
 20
1940.74
 30
0.0
 11
1234.177752
 21
2015.0
 31
0.0
  0
LINE
  5
2C4
330
2BF
100
AcDbEntity
  8
LC-008-003-MTG-0
 62
     7
370
    25
100
AcDbLine
 10
1159.877752
 20
2000.0
 30
0.0
 11
1234.177752
 21
2000.0
 31
0.0
  0
LINE
  5
2C5
330
2BF
100
AcDbEntity
  8
LC-009-003-----0
 62
     7
370
    25
100
AcDbLine
 10
1184.663874
 20
2003.263155
 30
0.0
 11
1159.877752
 21
2000.0
 31
0.0
  0
LINE
  5
2C6
330
2BF
100
AcDbEntity
  8
LC-009-003-----0
 62
     7
370
    25
100
AcDbLine
 10
1159.877752
 20
2000.0
 30
0.0
 11
1184.663874
 21
1996.736845
 31
0.0
  0
LINE
  5
2C7
330
2BF
100
AcDbEntity
  8
LC-009-003-----0
 62
     7
370
    25
100
AcDbLine
 10
1184.663874
 20
1996.736845
 30
0.0
 11
1184.663874
 21
2003.263155
 31
0.0
  0
LINE
  5
2C8
330
2BF
100
AcDbEntity
  8
LC-009-003-----0
 62
     7
370
    25
100
AcDbLine
 10
1184.719482
 20
2002.414735
 30
0.0
 11
1166.377752
 21
2000.0
 31
0.0
  0
LINE
  5
2C9
330
2BF
100
AcDbEntity
  8
LC-009-003-----0
 62
     7
370
    25
100
AcDbLine
 10
1166.377752
 20
2000.0
 30
0.0
 11
1184.719482
 21
1997.585265
 31
0.0
  0
LINE
  5
2CA
330
2BF
100
AcDbEntity
  8
LC-009-003-----0
 62
     7
370
    25
100
AcDbLine
 10
1184.775091
 20
2001.566314
 30
0.0
 11
1172.877752
 21
2000.0
 31
0.0
  0
LINE
  5
2CB
330
2BF
100
AcDbEntity
  8
LC-009-003-----0
 62
     7
370
    25
100
AcDbLine
 10
1172.877752
 20
2000.0
 30
0.0
 11
1184.775091
 21
1998.433686
 31
0.0
  0
LINE
  5
2CC
330
2BF
100
AcDbEntity
  8
LC-009-003-----0
 62
     7
370
    25
100
AcDbLine
 10
1184.830699
 20
2000.717894
 30
0.0
 11
1179.377752
 21
2000.0
 31
0.0
  0
LINE
  5
2CD
330
2BF
100
AcDbEntity
  8
LC-009-003-----0
 62
     7
370
    25
100
AcDbLine
 10
1179.377752
 20
2000.0
 30
0.0
 11
1184.830699
 21
1999.282106
 31
0.0
  0
LINE
  5
2CE
330
2BF
100
AcDbEntity
  8
LC-009-003-----0
 62
     7
370
    25
100
AcDbLine
 10
1209.39163
 20
1996.736845
 30
0.0
 11
1234.177752
 21
2000.0
 31
0.0
  0
LINE
  5
2CF
330
2BF
100
AcDbEntity
  8
LC-009-003-----0
 62
     7
370
    25
100
AcDbLine
 10
1234.177752
 20
2000.0
 30
0.0
 11
1209.39163
 21
2003.263155
 31
0.0
  0
LINE
  5
2D0
330
2BF
100
AcDbEntity
  8
LC-009-003-----0
 62
     7
370
    25
100
AcDbLine
 10
1209.39163
 20
2003.263155
 30
0.0
 11
1209.39163
 21
1996.736845
 31
0.0
  0
LINE
  5
2D1
330
2BF
100
AcDbEntity
  8
LC-009-003-----0
 62
     7
370
    25
100
AcDbLine
 10
1209.336022
 20
1997.585265
 30
0.0
 11
1227.677752
 21
2000.0
 31
0.0
  0
LINE
  5
2D2
330
2BF
100
AcDbEntity
  8
LC-009-003-----0
 62
     7
370
    25
100
AcDbLine
 10
1227.677752
 20
2000.0
 30
0.0
 11
1209.336022
 21
2002.414735
 31
0.0
  0
LINE
  5
2D3
330
2BF
100
AcDbEntity
  8
LC-009-003-----0
 62
     7
370
    25
100
AcDbLine
 10
1209.280413
 20
1998.433686
 30
0.0
 11
1221.177752
 21
2000.0
 31
0.0
  0
LINE
  5
2D4
330
2BF
100
AcDbEntity
  8
LC-009-003-----0
 62
     7
370
    25
100
AcDbLine
 10
1221.177752
 20
2000.0
 30
0.0
 11
1209.280413
 21
2001.566314
 31
0.0
  0
LINE
  5
2D5
330
2BF
100
AcDbEntity
  8
LC-009-003-----0
 62
     7
370
    25
100
AcDbLine
 10
1209.224805
 20
1999.282106
 30
0.0
 11
1214.677752
 21
2000.0
 31
0.0
  0
LINE
  5
2D6
330
2BF
100
AcDbEntity
  8
LC-009-003-----0
 62
     7
370
    25
100
AcDbLine
 10
1214.677752
 20
2000.0
 30
0.0
 11
1209.224805
 21
2000.717894
 31
0.0
  0
TEXT
  5
2D7
330
2BF
100
AcDbEntity
  8
LC-009-003-----0
 62
     7
370
    25
100
AcDbText
 10
1164.893334
 20
2015.0
 30
0.0
 40
25.0
  1
74,3
 41
0.7
  7
LCTX0-400-0-0pDIN-Schrift
 72
     1
 11
1194.060001
 21
2015.0
 31
0.0
100
AcDbText
  0
ENDBLK
  5
2C1
330
2BF
100
AcDbEntity
  8
0
100
AcDbBlockEnd
  0
BLOCK
  5
2DA
330
2D9
100
AcDbEntity
  8
0
100
AcDbBlockBegin
  2
LCDIM9
 70
     0
 71
     0
 10
0.0
 20
0.0
 30
0.0
  3
LCDIM9
  1

  4
LCDIM9
  0
LINE
  5
2DC
330
2D9
100
AcDbEntity
  8
LC-007-003-MTH-0
 62
     7
370
    25
100
AcDbLine
 10
1058.277752
 20
1929.69
 30
0.0
 11
1058.277752
 21
2015.0
 31
0.0
  0
LINE
  5
2DD
330
2D9
100
AcDbEntity
  8
LC-007-003-MTH-0
 62
     7
370
    25
100
AcDbLine
 10
1159.877752
 20
1929.69
 30
0.0
 11
1159.877752
 21
2015.0
 31
0.0
  0
LINE
  5
2DE
330
2D9
100
AcDbEntity
  8
LC-008-003-MTG-0
 62
     7
370
    25
100
AcDbLine
 10
1058.277752
 20
2000.0
 30
0.0
 11
1159.877752
 21
2000.0
 31
0.0
  0
LINE
  5
2DF
330
2D9
100
AcDbEntity
  8
LC-009-003-----0
 62
     7
370
    25
100
AcDbLine
 10
1083.063874
 20
2003.263155
 30
0.0
 11
1058.277752
 21
2000.0
 31
0.0
  0
LINE
  5
2E0
330
2D9
100
AcDbEntity
  8
LC-009-003-----0
 62
     7
370
    25
100
AcDbLine
 10
1058.277752
 20
2000.0
 30
0.0
 11
1083.063874
 21
1996.736845
 31
0.0
  0
LINE
  5
2E1
330
2D9
100
AcDbEntity
  8
LC-009-003-----0
 62
     7
370
    25
100
AcDbLine
 10
1083.063874
 20
1996.736845
 30
0.0
 11
1083.063874
 21
2003.263155
 31
0.0
  0
LINE
  5
2E2
330
2D9
100
AcDbEntity
  8
LC-009-003-----0
 62
     7
370
    25
100
AcDbLine
 10
1083.119482
 20
2002.414735
 30
0.0
 11
1064.777752
 21
2000.0
 31
0.0
  0
LINE
  5
2E3
330
2D9
100
AcDbEntity
  8
LC-009-003-----0
 62
     7
370
    25
100
AcDbLine
 10
1064.777752
 20
2000.0
 30
0.0
 11
1083.119482
 21
1997.585265
 31
0.0
  0
LINE
  5
2E4
330
2D9
100
AcDbEntity
  8
LC-009-003-----0
 62
     7
370
    25
100
AcDbLine
 10
1083.175091
 20
2001.566314
 30
0.0
 11
1071.277752
 21
2000.0
 31
0.0
  0
LINE
  5
2E5
330
2D9
100
AcDbEntity
  8
LC-009-003-----0
 62
     7
370
    25
100
AcDbLine
 10
1071.277752
 20
2000.0
 30
0.0
 11
1083.175091
 21
1998.433686
 31
0.0
  0
LINE
  5
2E6
330
2D9
100
AcDbEntity
  8
LC-009-003-----0
 62
     7
370
    25
100
AcDbLine
 10
1083.230699
 20
2000.717894
 30
0.0
 11
1077.777752
 21
2000.0
 31
0.0
  0
LINE
  5
2E7
330
2D9
100
AcDbEntity
  8
LC-009-003-----0
 62
     7
370
    25
100
AcDbLine
 10
1077.777752
 20
2000.0
 30
0.0
 11
1083.230699
 21
1999.282106
 31
0.0
  0
LINE
  5
2E8
330
2D9
100
AcDbEntity
  8
LC-009-003-----0
 62
     7
370
    25
100
AcDbLine
 10
1135.09163
 20
1996.736845
 30
0.0
 11
1159.877752
 21
2000.0
 31
0.0
  0
LINE
  5
2E9
330
2D9
100
AcDbEntity
  8
LC-009-003-----0
 62
     7
370
    25
100
AcDbLine
 10
1159.877752
 20
2000.0
 30
0.0
 11
1135.09163
 21
2003.263155
 31
0.0
  0
LINE
  5
2EA
330
2D9
100
AcDbEntity
  8
LC-009-003-----0
 62
     7
370
    25
100
AcDbLine
 10
1135.09163
 20
2003.263155
 30
0.0
 11
1135.09163
 21
1996.736845
 31
0.0
  0
LINE
  5
2EB
330
2D9
100
AcDbEntity
  8
LC-009-003-----0
 62
     7
370
    25
100
AcDbLine
 10
1135.036022
 20
1997.585265
 30
0.0
 11
1153.377752
 21
2000.0
 31
0.0
  0
LINE
  5
2EC
330
2D9
100
AcDbEntity
  8
LC-009-003-----0
 62
     7
370
    25
100
AcDbLine
 10
1153.377752
 20
2000.0
 30
0.0
 11
1135.036022
 21
2002.414735
 31
0.0
  0
LINE
  5
2ED
330
2D9
100
AcDbEntity
  8
LC-009-003-----0
 62
     7
370
    25
100
AcDbLine
 10
1134.980413
 20
1998.433686
 30
0.0
 11
1146.877752
 21
2000.0
 31
0.0
  0
LINE
  5
2EE
330
2D9
100
AcDbEntity
  8
LC-009-003-----0
 62
     7
370
    25
100
AcDbLine
 10
1146.877752
 20
2000.0
 30
0.0
 11
1134.980413
 21
2001.566314
 31
0.0
  0
LINE
  5
2EF
330
2D9
100
AcDbEntity
  8
LC-009-003-----0
 62
     7
370
    25
100
AcDbLine
 10
1134.924805
 20
1999.282106
 30
0.0
 11
1140.377752
 21
2000.0
 31
0.0
  0
LINE
  5
2F0
330
2D9
100
AcDbEntity
  8
LC-009-003-----0
 62
     7
370
    25
100
AcDbLine
 10
1140.377752
 20
2000.0
 30
0.0
 11
1134.924805
 21
2000.717894
 31
0.0
  0
TEXT
  5
2F1
330
2D9
100
AcDbEntity
  8
LC-009-003-----0
 62
     7
370
    25
100
AcDbText
 10
1066.012601
 20
2015.0
 30
0.0
 40
25.0
  1
101,6
 41
0.7
  7
LCTX0-400-0-0pDIN-Schrift
 72
     1
 11
1104.762601
 21
2015.0
 31
0.0
100
AcDbText
  0
ENDBLK
  5
2DB
330
2D9
100
AcDbEntity
  8
0
100
AcDbBlockEnd
  0
BLOCK
  5
2F4
330
2F3
100
AcDbEntity
  8
0
100
AcDbBlockBegin
  2
LCDIM10
 70
     0
 71
     0
 10
0.0
 20
0.0
 30
0.0
  3
LCDIM10
  1

  4
LCDIM10
  0
LINE
  5
2F6
330
2F3
100
AcDbEntity
  8
LC-007-003-MTH-0
 62
     7
370
    25
100
AcDbLine
 10
956.677752
 20
1929.69
 30
0.0
 11
956.677752
 21
2015.0
 31
0.0
  0
LINE
  5
2F7
330
2F3
100
AcDbEntity
  8
LC-007-003-MTH-0
 62
     7
370
    25
100
AcDbLine
 10
1058.277752
 20
1929.69
 30
0.0
 11
1058.277752
 21
2015.0
 31
0.0
  0
LINE
  5
2F8
330
2F3
100
AcDbEntity
  8
LC-008-003-MTG-0
 62
     7
370
    25
100
AcDbLine
 10
956.677752
 20
2000.0
 30
0.0
 11
1058.277752
 21
2000.0
 31
0.0
  0
LINE
  5
2F9
330
2F3
100
AcDbEntity
  8
LC-009-003-----0
 62
     7
370
    25
100
AcDbLine
 10
981.463874
 20
2003.263155
 30
0.0
 11
956.677752
 21
2000.0
 31
0.0
  0
LINE
  5
2FA
330
2F3
100
AcDbEntity
  8
LC-009-003-----0
 62
     7
370
    25
100
AcDbLine
 10
956.677752
 20
2000.0
 30
0.0
 11
981.463874
 21
1996.736845
 31
0.0
  0
LINE
  5
2FB
330
2F3
100
AcDbEntity
  8
LC-009-003-----0
 62
     7
370
    25
100
AcDbLine
 10
981.463874
 20
1996.736845
 30
0.0
 11
981.463874
 21
2003.263155
 31
0.0
  0
LINE
  5
2FC
330
2F3
100
AcDbEntity
  8
LC-009-003-----0
 62
     7
370
    25
100
AcDbLine
 10
981.519482
 20
2002.414735
 30
0.0
 11
963.177752
 21
2000.0
 31
0.0
  0
LINE
  5
2FD
330
2F3
100
AcDbEntity
  8
LC-009-003-----0
 62
     7
370
    25
100
AcDbLine
 10
963.177752
 20
2000.0
 30
0.0
 11
981.519482
 21
1997.585265
 31
0.0
  0
LINE
  5
2FE
330
2F3
100
AcDbEntity
  8
LC-009-003-----0
 62
     7
370
    25
100
AcDbLine
 10
981.575091
 20
2001.566314
 30
0.0
 11
969.677752
 21
2000.0
 31
0.0
  0
LINE
  5
2FF
330
2F3
100
AcDbEntity
  8
LC-009-003-----0
 62
     7
370
    25
100
AcDbLine
 10
969.677752
 20
2000.0
 30
0.0
 11
981.575091
 21
1998.433686
 31
0.0
  0
LINE
  5
300
330
2F3
100
AcDbEntity
  8
LC-009-003-----0
 62
     7
370
    25
100
AcDbLine
 10
981.630699
 20
2000.717894
 30
0.0
 11
976.177752
 21
2000.0
 31
0.0
  0
LINE
  5
301
330
2F3
100
AcDbEntity
  8
LC-009-003-----0
 62
     7
370
    25
100
AcDbLine
 10
976.177752
 20
2000.0
 30
0.0
 11
981.630699
 21
1999.282106
 31
0.0
  0
LINE
  5
302
330
2F3
100
AcDbEntity
  8
LC-009-003-----0
 62
     7
370
    25
100
AcDbLine
 10
1033.49163
 20
1996.736845
 30
0.0
 11
1058.277752
 21
2000.0
 31
0.0
  0
LINE
  5
303
330
2F3
100
AcDbEntity
  8
LC-009-003-----0
 62
     7
370
    25
100
AcDbLine
 10
1058.277752
 20
2000.0
 30
0.0
 11
1033.49163
 21
2003.263155
 31
0.0
  0
LINE
  5
304
330
2F3
100
AcDbEntity
  8
LC-009-003-----0
 62
     7
370
    25
100
AcDbLine
 10
1033.49163
 20
2003.263155
 30
0.0
 11
1033.49163
 21
1996.736845
 31
0.0
  0
LINE
  5
305
330
2F3
100
AcDbEntity
  8
LC-009-003-----0
 62
     7
370
    25
100
AcDbLine
 10
1033.436022
 20
1997.585265
 30
0.0
 11
1051.777752
 21
2000.0
 31
0.0
  0
LINE
  5
306
330
2F3
100
AcDbEntity
  8
LC-009-003-----0
 62
     7
370
    25
100
AcDbLine
 10
1051.777752
 20
2000.0
 30
0.0
 11
1033.436022
 21
2002.414735
 31
0.0
  0
LINE
  5
307
330
2F3
100
AcDbEntity
  8
LC-009-003-----0
 62
     7
370
    25
100
AcDbLine
 10
1033.380413
 20
1998.433686
 30
0.0
 11
1045.277752
 21
2000.0
 31
0.0
  0
LINE
  5
308
330
2F3
100
AcDbEntity
  8
LC-009-003-----0
 62
     7
370
    25
100
AcDbLine
 10
1045.277752
 20
2000.0
 30
0.0
 11
1033.380413
 21
2001.566314
 31
0.0
  0
LINE
  5
309
330
2F3
100
AcDbEntity
  8
LC-009-003-----0
 62
     7
370
    25
100
AcDbLine
 10
1033.324805
 20
1999.282106
 30
0.0
 11
1038.777752
 21
2000.0
 31
0.0
  0
LINE
  5
30A
330
2F3
100
AcDbEntity
  8
LC-009-003-----0
 62
     7
370
    25
100
AcDbLine
 10
1038.777752
 20
2000.0
 30
0.0
 11
1033.324805
 21
2000.717894
 31
0.0
  0
TEXT
  5
30B
330
2F3
100
AcDbEntity
  8
LC-009-003-----0
 62
     7
370
    25
100
AcDbText
 10
964.10851
 20
2015.0
 30
0.0
 40
25.0
  1
101,6
 41
0.7
  7
LCTX0-400-0-0pDIN-Schrift
 72
     1
 11
1002.85851
 21
2015.0
 31
0.0
100
AcDbText
  0
ENDBLK
  5
2F5
330
2F3
100
AcDbEntity
  8
0
100
AcDbBlockEnd
  0
BLOCK
  5
30E
330
30D
100
AcDbEntity
  8
0
100
AcDbBlockBegin
  2
LCDIM11
 70
     0
 71
     0
 10
0.0
 20
0.0
 30
0.0
  3
LCDIM11
  1

  4
LCDIM11
  0
LINE
  5
310
330
30D
100
AcDbEntity
  8
LC-007-003-MTH-0
 62
     7
370
    25
100
AcDbLine
 10
855.077752
 20
1929.69
 30
0.0
 11
855.077752
 21
2015.0
 31
0.0
  0
LINE
  5
311
330
30D
100
AcDbEntity
  8
LC-007-003-MTH-0
 62
     7
370
    25
100
AcDbLine
 10
956.677752
 20
1929.69
 30
0.0
 11
956.677752
 21
2015.0
 31
0.0
  0
LINE
  5
312
330
30D
100
AcDbEntity
  8
LC-008-003-MTG-0
 62
     7
370
    25
100
AcDbLine
 10
855.077752
 20
2000.0
 30
0.0
 11
956.677752
 21
2000.0
 31
0.0
  0
LINE
  5
313
330
30D
100
AcDbEntity
  8
LC-009-003-----0
 62
     7
370
    25
100
AcDbLine
 10
879.863874
 20
2003.263155
 30
0.0
 11
855.077752
 21
2000.0
 31
0.0
  0
LINE
  5
314
330
30D
100
AcDbEntity
  8
LC-009-003-----0
 62
     7
370
    25
100
AcDbLine
 10
855.077752
 20
2000.0
 30
0.0
 11
879.863874
 21
1996.736845
 31
0.0
  0
LINE
  5
315
330
30D
100
AcDbEntity
  8
LC-009-003-----0
 62
     7
370
    25
100
AcDbLine
 10
879.863874
 20
1996.736845
 30
0.0
 11
879.863874
 21
2003.263155
 31
0.0
  0
LINE
  5
316
330
30D
100
AcDbEntity
  8
LC-009-003-----0
 62
     7
370
    25
100
AcDbLine
 10
879.919482
 20
2002.414735
 30
0.0
 11
861.577752
 21
2000.0
 31
0.0
  0
LINE
  5
317
330
30D
100
AcDbEntity
  8
LC-009-003-----0
 62
     7
370
    25
100
AcDbLine
 10
861.577752
 20
2000.0
 30
0.0
 11
879.919482
 21
1997.585265
 31
0.0
  0
LINE
  5
318
330
30D
100
AcDbEntity
  8
LC-009-003-----0
 62
     7
370
    25
100
AcDbLine
 10
879.975091
 20
2001.566314
 30
0.0
 11
868.077752
 21
2000.0
 31
0.0
  0
LINE
  5
319
330
30D
100
AcDbEntity
  8
LC-009-003-----0
 62
     7
370
    25
100
AcDbLine
 10
868.077752
 20
2000.0
 30
0.0
 11
879.975091
 21
1998.433686
 31
0.0
  0
LINE
  5
31A
330
30D
100
AcDbEntity
  8
LC-009-003-----0
 62
     7
370
    25
100
AcDbLine
 10
880.030699
 20
2000.717894
 30
0.0
 11
874.577752
 21
2000.0
 31
0.0
  0
LINE
  5
31B
330
30D
100
AcDbEntity
  8
LC-009-003-----0
 62
     7
370
    25
100
AcDbLine
 10
874.577752
 20
2000.0
 30
0.0
 11
880.030699
 21
1999.282106
 31
0.0
  0
LINE
  5
31C
330
30D
100
AcDbEntity
  8
LC-009-003-----0
 62
     7
370
    25
100
AcDbLine
 10
931.89163
 20
1996.736845
 30
0.0
 11
956.677752
 21
2000.0
 31
0.0
  0
LINE
  5
31D
330
30D
100
AcDbEntity
  8
LC-009-003-----0
 62
     7
370
    25
100
AcDbLine
 10
956.677752
 20
2000.0
 30
0.0
 11
931.89163
 21
2003.263155
 31
0.0
  0
LINE
  5
31E
330
30D
100
AcDbEntity
  8
LC-009-003-----0
 62
     7
370
    25
100
AcDbLine
 10
931.89163
 20
2003.263155
 30
0.0
 11
931.89163
 21
1996.736845
 31
0.0
  0
LINE
  5
31F
330
30D
100
AcDbEntity
  8
LC-009-003-----0
 62
     7
370
    25
100
AcDbLine
 10
931.836022
 20
1997.585265
 30
0.0
 11
950.177752
 21
2000.0
 31
0.0
  0
LINE
  5
320
330
30D
100
AcDbEntity
  8
LC-009-003-----0
 62
     7
370
    25
100
AcDbLine
 10
950.177752
 20
2000.0
 30
0.0
 11
931.836022
 21
2002.414735
 31
0.0
  0
LINE
  5
321
330
30D
100
AcDbEntity
  8
LC-009-003-----0
 62
     7
370
    25
100
AcDbLine
 10
931.780413
 20
1998.433686
 30
0.0
 11
943.677752
 21
2000.0
 31
0.0
  0
LINE
  5
322
330
30D
100
AcDbEntity
  8
LC-009-003-----0
 62
     7
370
    25
100
AcDbLine
 10
943.677752
 20
2000.0
 30
0.0
 11
931.780413
 21
2001.566314
 31
0.0
  0
LINE
  5
323
330
30D
100
AcDbEntity
  8
LC-009-003-----0
 62
     7
370
    25
100
AcDbLine
 10
931.724805
 20
1999.282106
 30
0.0
 11
937.177752
 21
2000.0
 31
0.0
  0
LINE
  5
324
330
30D
100
AcDbEntity
  8
LC-009-003-----0
 62
     7
370
    25
100
AcDbLine
 10
937.177752
 20
2000.0
 30
0.0
 11
931.724805
 21
2000.717894
 31
0.0
  0
TEXT
  5
325
330
30D
100
AcDbEntity
  8
LC-009-003-----0
 62
     7
370
    25
100
AcDbText
 10
861.153862
 20
2015.0
 30
0.0
 40
25.0
  1
101,6
 41
0.7
  7
LCTX0-400-0-0pDIN-Schrift
 72
     1
 11
899.903862
 21
2015.0
 31
0.0
100
AcDbText
  0
ENDBLK
  5
30F
330
30D
100
AcDbEntity
  8
0
100
AcDbBlockEnd
  0
BLOCK
  5
328
330
327
100
AcDbEntity
  8
0
100
AcDbBlockBegin
  2
LCDIM12
 70
     0
 71
     0
 10
0.0
 20
0.0
 30
0.0
  3
LCDIM12
  1

  4
LCDIM12
  0
LINE
  5
32A
330
327
100
AcDbEntity
  8
LC-007-003-MTH-0
 62
     7
370
    25
100
AcDbLine
 10
1852.347988
 20
1441.739318
 30
0.0
 11
1965.0
 21
1441.739318
 31
0.0
  0
LINE
  5
32B
330
327
100
AcDbEntity
  8
LC-007-003-MTH-0
 62
     7
370
    25
100
AcDbLine
 10
1852.347988
 20
1851.740682
 30
0.0
 11
1965.0
 21
1851.740682
 31
0.0
  0
LINE
  5
32C
330
327
100
AcDbEntity
  8
LC-008-003-MTG-0
 62
     7
370
    25
100
AcDbLine
 10
1950.0
 20
1441.739318
 30
0.0
 11
1950.0
 21
1851.740682
 31
0.0
  0
LINE
  5
32D
330
327
100
AcDbEntity
  8
LC-009-003-----0
 62
     7
370
    25
100
AcDbLine
 10
1946.736845
 20
1466.52544
 30
0.0
 11
1950.0
 21
1441.739318
 31
0.0
  0
LINE
  5
32E
330
327
100
AcDbEntity
  8
LC-009-003-----0
 62
     7
370
    25
100
AcDbLine
 10
1950.0
 20
1441.739318
 30
0.0
 11
1953.263155
 21
1466.52544
 31
0.0
  0
LINE
  5
32F
330
327
100
AcDbEntity
  8
LC-009-003-----0
 62
     7
370
    25
100
AcDbLine
 10
1953.263155
 20
1466.52544
 30
0.0
 11
1946.736845
 21
1466.52544
 31
0.0
  0
LINE
  5
330
330
327
100
AcDbEntity
  8
LC-009-003-----0
 62
     7
370
    25
100
AcDbLine
 10
1947.585265
 20
1466.581048
 30
0.0
 11
1950.0
 21
1448.239318
 31
0.0
  0
LINE
  5
331
330
327
100
AcDbEntity
  8
LC-009-003-----0
 62
     7
370
    25
100
AcDbLine
 10
1950.0
 20
1448.239318
 30
0.0
 11
1952.414735
 21
1466.581048
 31
0.0
  0
LINE
  5
332
330
327
100
AcDbEntity
  8
LC-009-003-----0
 62
     7
370
    25
100
AcDbLine
 10
1948.433686
 20
1466.636656
 30
0.0
 11
1950.0
 21
1454.739318
 31
0.0
  0
LINE
  5
333
330
327
100
AcDbEntity
  8
LC-009-003-----0
 62
     7
370
    25
100
AcDbLine
 10
1950.0
 20
1454.739318
 30
0.0
 11
1951.566314
 21
1466.636656
 31
0.0
  0
LINE
  5
334
330
327
100
AcDbEntity
  8
LC-009-003-----0
 62
     7
370
    25
100
AcDbLine
 10
1949.282106
 20
1466.692265
 30
0.0
 11
1950.0
 21
1461.239318
 31
0.0
  0
LINE
  5
335
330
327
100
AcDbEntity
  8
LC-009-003-----0
 62
     7
370
    25
100
AcDbLine
 10
1950.0
 20
1461.239318
 30
0.0
 11
1950.717894
 21
1466.692265
 31
0.0
  0
LINE
  5
336
330
327
100
AcDbEntity
  8
LC-009-003-----0
 62
     7
370
    25
100
AcDbLine
 10
1953.263155
 20
1826.95456
 30
0.0
 11
1950.0
 21
1851.740682
 31
0.0
  0
LINE
  5
337
330
327
100
AcDbEntity
  8
LC-009-003-----0
 62
     7
370
    25
100
AcDbLine
 10
1950.0
 20
1851.740682
 30
0.0
 11
1946.736845
 21
1826.95456
 31
0.0
  0
LINE
  5
338
330
327
100
AcDbEntity
  8
LC-009-003-----0
 62
     7
370
    25
100
AcDbLine
 10
1946.736845
 20
1826.95456
 30
0.0
 11
1953.263155
 21
1826.95456
 31
0.0
  0
LINE
  5
339
330
327
100
AcDbEntity
  8
LC-009-003-----0
 62
     7
370
    25
100
AcDbLine
 10
1952.414735
 20
1826.898952
 30
0.0
 11
1950.0
 21
1845.240682
 31
0.0
  0
LINE
  5
33A
330
327
100
AcDbEntity
  8
LC-009-003-----0
 62
     7
370
    25
100
AcDbLine
 10
1950.0
 20
1845.240682
 30
0.0
 11
1947.585265
 21
1826.898952
 31
0.0
  0
LINE
  5
33B
330
327
100
AcDbEntity
  8
LC-009-003-----0
 62
     7
370
    25
100
AcDbLine
 10
1951.566314
 20
1826.843344
 30
0.0
 11
1950.0
 21
1838.740682
 31
0.0
  0
LINE
  5
33C
330
327
100
AcDbEntity
  8
LC-009-003-----0
 62
     7
370
    25
100
AcDbLine
 10
1950.0
 20
1838.740682
 30
0.0
 11
1948.433686
 21
1826.843344
 31
0.0
  0
LINE
  5
33D
330
327
100
AcDbEntity
  8
LC-009-003-----0
 62
     7
370
    25
100
AcDbLine
 10
1950.717894
 20
1826.787735
 30
0.0
 11
1950.0
 21
1832.240682
 31
0.0
  0
LINE
  5
33E
330
327
100
AcDbEntity
  8
LC-009-003-----0
 62
     7
370
    25
100
AcDbLine
 10
1950.0
 20
1832.240682
 30
0.0
 11
1949.282106
 21
1826.787735
 31
0.0
  0
TEXT
  5
33F
330
327
100
AcDbEntity
  8
LC-009-003-----0
 62
     7
370
    25
100
AcDbText
 10
1935.0
 20
1627.468514
 30
0.0
 40
25.0
  1
410
 50
90.0
 41
0.7
  7
LCTX0-400-0-0pDIN-Schrift
 72
     1
 11
1935.0
 21
1652.468514
 31
0.0
100
AcDbText
  0
ENDBLK
  5
329
330
327
100
AcDbEntity
  8
0
100
AcDbBlockEnd
  0
BLOCK
  5
346
330
345
100
AcDbEntity
  8
0
100
AcDbBlockBegin
  2
POLY1
 70
     0
 71
     0
 10
0.0
 20
0.0
 30
0.0
  3
POLY1
  1

  4
POLY1
  0
LINE
  5
348
330
345
100
AcDbEntity
  8
LC-006-100-D00-0
 62
     6
370
    25
100
AcDbLine
 10
994.262962
 20
2316.176165
 30
0.0
 11
994.262962
 21
2316.176165
 31
0.0
  0
LINE
  5
349
330
345
100
AcDbEntity
  8
LC-006-100-D00-0
 62
     6
370
    25
100
AcDbLine
 10
994.262962
 20
2316.176165
 30
0.0
 11
994.264924
 21
2316.156415
 31
0.0
  0
LINE
  5
34A
330
345
100
AcDbEntity
  8
LC-006-100-D00-0
 62
     6
370
    25
100
AcDbLine
 10
994.264924
 20
2316.156415
 30
0.0
 11
994.264924
 21
2316.156415
 31
0.0
  0
LINE
  5
34B
330
345
100
AcDbEntity
  8
LC-006-100-D00-0
 62
     6
370
    25
100
AcDbLine
 10
994.264924
 20
2316.156415
 30
0.0
 11
994.264925
 21
2316.126919
 31
0.0
  0
LINE
  5
34C
330
345
100
AcDbEntity
  8
LC-006-100-D00-0
 62
     6
370
    25
100
AcDbLine
 10
994.264925
 20
2316.126919
 30
0.0
 11
994.264925
 21
2316.126919
 31
0.0
  0
LINE
  5
34D
330
345
100
AcDbEntity
  8
LC-006-100-D00-0
 62
     6
370
    25
100
AcDbLine
 10
994.264925
 20
2316.126919
 30
0.0
 11
994.262962
 21
2316.091012
 31
0.0
  0
ENDBLK
  5
347
330
345
100
AcDbEntity
  8
0
100
AcDbBlockEnd
  0
BLOCK
  5
386
330
385
100
AcDbEntity
  8
0
100
AcDbBlockBegin
  2
POLY2
 70
     0
 71
     0
 10
0.0
 20
0.0
 30
0.0
  3
POLY2
  1

  4
POLY2
  0
LINE
  5
388
330
385
100
AcDbEntity
  8
LC-002-002-----0
 62
     7
370
    25
100
AcDbLine
 10
947.066989
 20
2342.795384
 30
0.0
 11
947.066989
 21
2342.795384
 31
0.0
  0
LINE
  5
389
330
385
100
AcDbEntity
  8
LC-002-002-----0
 62
     7
370
    25
100
AcDbLine
 10
947.066989
 20
2342.795384
 30
0.0
 11
946.552216
 21
2342.736445
 31
0.0
  0
LINE
  5
38A
330
385
100
AcDbEntity
  8
LC-002-002-----0
 62
     7
370
    25
100
AcDbLine
 10
946.552216
 20
2342.736445
 30
0.0
 11
946.552216
 21
2342.736445
 31
0.0
  0
LINE
  5
38B
330
385
100
AcDbEntity
  8
LC-002-002-----0
 62
     7
370
    25
100
AcDbLine
 10
946.552216
 20
2342.736445
 30
0.0
 11
946.070858
 21
2342.5629
 31
0.0
  0
LINE
  5
38C
330
385
100
AcDbEntity
  8
LC-002-002-----0
 62
     7
370
    25
100
AcDbLine
 10
946.070858
 20
2342.5629
 30
0.0
 11
946.070858
 21
2342.5629
 31
0.0
  0
LINE
  5
38D
330
385
100
AcDbEntity
  8
LC-002-002-----0
 62
     7
370
    25
100
AcDbLine
 10
946.070858
 20
2342.5629
 30
0.0
 11
945.657291
 21
2342.286765
 31
0.0
  0
LINE
  5
38E
330
385
100
AcDbEntity
  8
LC-002-002-----0
 62
     7
370
    25
100
AcDbLine
 10
945.657291
 20
2342.286765
 30
0.0
 11
945.657291
 21
2342.286765
 31
0.0
  0
LINE
  5
38F
330
385
100
AcDbEntity
  8
LC-002-002-----0
 62
     7
370
    25
100
AcDbLine
 10
945.657291
 20
2342.286765
 30
0.0
 11
945.338346
 21
2341.925419
 31
0.0
  0
LINE
  5
390
330
385
100
AcDbEntity
  8
LC-002-002-----0
 62
     7
370
    25
100
AcDbLine
 10
945.338346
 20
2341.925419
 30
0.0
 11
945.338346
 21
2341.925419
 31
0.0
  0
LINE
  5
391
330
385
100
AcDbEntity
  8
LC-002-002-----0
 62
     7
370
    25
100
AcDbLine
 10
945.338346
 20
2341.925419
 30
0.0
 11
945.136383
 21
2341.502032
 31
0.0
  0
LINE
  5
392
330
385
100
AcDbEntity
  8
LC-002-002-----0
 62
     7
370
    25
100
AcDbLine
 10
945.136383
 20
2341.502032
 30
0.0
 11
945.136383
 21
2341.502032
 31
0.0
  0
LINE
  5
393
330
385
100
AcDbEntity
  8
LC-002-002-----0
 62
     7
370
    25
100
AcDbLine
 10
945.136383
 20
2341.502032
 30
0.0
 11
945.066989
 21
2341.04455
 31
0.0
  0
ENDBLK
  5
387
330
385
100
AcDbEntity
  8
0
100
AcDbBlockEnd
  0
BLOCK
  5
396
330
395
100
AcDbEntity
  8
0
100
AcDbBlockBegin
  2
POLY3
 70
     0
 71
     0
 10
0.0
 20
0.0
 30
0.0
  3
POLY3
  1

  4
POLY3
  0
LINE
  5
398
330
395
100
AcDbEntity
  8
LC-002-002-----0
 62
     7
370
    25
100
AcDbLine
 10
947.066989
 20
2296.370422
 30
0.0
 11
947.066989
 21
2296.370422
 31
0.0
  0
LINE
  5
399
330
395
100
AcDbEntity
  8
LC-002-002-----0
 62
     7
370
    25
100
AcDbLine
 10
947.066989
 20
2296.370422
 30
0.0
 11
946.552216
 21
2296.42936
 31
0.0
  0
LINE
  5
39A
330
395
100
AcDbEntity
  8
LC-002-002-----0
 62
     7
370
    25
100
AcDbLine
 10
946.552216
 20
2296.42936
 30
0.0
 11
946.552216
 21
2296.42936
 31
0.0
  0
LINE
  5
39B
330
395
100
AcDbEntity
  8
LC-002-002-----0
 62
     7
370
    25
100
AcDbLine
 10
946.552216
 20
2296.42936
 30
0.0
 11
946.070858
 21
2296.602905
 31
0.0
  0
LINE
  5
39C
330
395
100
AcDbEntity
  8
LC-002-002-----0
 62
     7
370
    25
100
AcDbLine
 10
946.070858
 20
2296.602905
 30
0.0
 11
946.070858
 21
2296.602905
 31
0.0
  0
LINE
  5
39D
330
395
100
AcDbEntity
  8
LC-002-002-----0
 62
     7
370
    25
100
AcDbLine
 10
946.070858
 20
2296.602905
 30
0.0
 11
945.657291
 21
2296.879041
 31
0.0
  0
LINE
  5
39E
330
395
100
AcDbEntity
  8
LC-002-002-----0
 62
     7
370
    25
100
AcDbLine
 10
945.657291
 20
2296.879041
 30
0.0
 11
945.657291
 21
2296.879041
 31
0.0
  0
LINE
  5
39F
330
395
100
AcDbEntity
  8
LC-002-002-----0
 62
     7
370
    25
100
AcDbLine
 10
945.657291
 20
2296.879041
 30
0.0
 11
945.338346
 21
2297.240386
 31
0.0
  0
LINE
  5
3A0
330
395
100
AcDbEntity
  8
LC-002-002-----0
 62
     7
370
    25
100
AcDbLine
 10
945.338346
 20
2297.240386
 30
0.0
 11
945.338346
 21
2297.240386
 31
0.0
  0
LINE
  5
3A1
330
395
100
AcDbEntity
  8
LC-002-002-----0
 62
     7
370
    25
100
AcDbLine
 10
945.338346
 20
2297.240386
 30
0.0
 11
945.136383
 21
2297.663773
 31
0.0
  0
LINE
  5
3A2
330
395
100
AcDbEntity
  8
LC-002-002-----0
 62
     7
370
    25
100
AcDbLine
 10
945.136383
 20
2297.663773
 30
0.0
 11
945.136383
 21
2297.663773
 31
0.0
  0
LINE
  5
3A3
330
395
100
AcDbEntity
  8
LC-002-002-----0
 62
     7
370
    25
100
AcDbLine
 10
945.136383
 20
2297.663773
 30
0.0
 11
945.066989
 21
2298.121255
 31
0.0
  0
ENDBLK
  5
397
330
395
100
AcDbEntity
  8
0
100
AcDbBlockEnd
  0
BLOCK
  5
3A7
330
3A6
100
AcDbEntity
  8
0
100
AcDbBlockBegin
  2
POLY4
 70
     0
 71
     0
 10
0.0
 20
0.0
 30
0.0
  3
POLY4
  1

  4
POLY4
  0
LINE
  5
3A9
330
3A6
100
AcDbEntity
  8
LC-002-002-----0
 62
     7
370
    25
100
AcDbLine
 10
947.066989
 20
2319.582903
 30
0.0
 11
947.066989
 21
2319.582903
 31
0.0
  0
LINE
  5
3AA
330
3A6
100
AcDbEntity
  8
LC-002-002-----0
 62
     7
370
    25
100
AcDbLine
 10
947.066989
 20
2319.582903
 30
0.0
 11
946.552202
 21
2319.582936
 31
0.0
  0
LINE
  5
3AB
330
3A6
100
AcDbEntity
  8
LC-002-002-----0
 62
     7
370
    25
100
AcDbLine
 10
946.552202
 20
2319.582936
 30
0.0
 11
946.552202
 21
2319.582936
 31
0.0
  0
LINE
  5
3AC
330
3A6
100
AcDbEntity
  8
LC-002-002-----0
 62
     7
370
    25
100
AcDbLine
 10
946.552202
 20
2319.582936
 30
0.0
 11
946.070832
 21
2319.5829
 31
0.0
  0
LINE
  5
3AD
330
3A6
100
AcDbEntity
  8
LC-002-002-----0
 62
     7
370
    25
100
AcDbLine
 10
946.070832
 20
2319.5829
 30
0.0
 11
946.070832
 21
2319.5829
 31
0.0
  0
LINE
  5
3AE
330
3A6
100
AcDbEntity
  8
LC-002-002-----0
 62
     7
370
    25
100
AcDbLine
 10
946.070832
 20
2319.5829
 30
0.0
 11
945.657261
 21
2319.582906
 31
0.0
  0
LINE
  5
3AF
330
3A6
100
AcDbEntity
  8
LC-002-002-----0
 62
     7
370
    25
100
AcDbLine
 10
945.657261
 20
2319.582906
 30
0.0
 11
945.657261
 21
2319.582906
 31
0.0
  0
LINE
  5
3B0
330
3A6
100
AcDbEntity
  8
LC-002-002-----0
 62
     7
370
    25
100
AcDbLine
 10
945.657261
 20
2319.582906
 30
0.0
 11
945.338325
 21
2319.582881
 31
0.0
  0
LINE
  5
3B1
330
3A6
100
AcDbEntity
  8
LC-002-002-----0
 62
     7
370
    25
100
AcDbLine
 10
945.338325
 20
2319.582881
 30
0.0
 11
945.338325
 21
2319.582881
 31
0.0
  0
LINE
  5
3B2
330
3A6
100
AcDbEntity
  8
LC-002-002-----0
 62
     7
370
    25
100
AcDbLine
 10
945.338325
 20
2319.582881
 30
0.0
 11
945.136368
 21
2319.582929
 31
0.0
  0
LINE
  5
3B3
330
3A6
100
AcDbEntity
  8
LC-002-002-----0
 62
     7
370
    25
100
AcDbLine
 10
945.136368
 20
2319.582929
 30
0.0
 11
945.136368
 21
2319.582929
 31
0.0
  0
LINE
  5
3B4
330
3A6
100
AcDbEntity
  8
LC-002-002-----0
 62
     7
370
    25
100
AcDbLine
 10
945.136368
 20
2319.582929
 30
0.0
 11
945.066989
 21
2319.582911
 31
0.0
  0
ENDBLK
  5
3A8
330
3A6
100
AcDbEntity
  8
0
100
AcDbBlockEnd
  0
BLOCK
  5
45A
330
459
100
AcDbEntity
  8
0
100
AcDbBlockBegin
  2
POLY5
 70
     0
 71
     0
 10
0.0
 20
0.0
 30
0.0
  3
POLY5
  1

  4
POLY5
  0
LINE
  5
45C
330
459
100
AcDbEntity
  8
LC-002-002-----0
 62
     7
370
    25
100
AcDbLine
 10
1550.467593
 20
1989.74
 30
0.0
 11
1550.467593
 21
1989.74
 31
0.0
  0
LINE
  5
45D
330
459
100
AcDbEntity
  8
LC-002-002-----0
 62
     7
370
    25
100
AcDbLine
 10
1550.467593
 20
1989.74
 30
0.0
 11
1550.408655
 21
1989.225227
 31
0.0
  0
LINE
  5
45E
330
459
100
AcDbEntity
  8
LC-002-002-----0
 62
     7
370
    25
100
AcDbLine
 10
1550.408655
 20
1989.225227
 30
0.0
 11
1550.408655
 21
1989.225227
 31
0.0
  0
LINE
  5
45F
330
459
100
AcDbEntity
  8
LC-002-002-----0
 62
     7
370
    25
100
AcDbLine
 10
1550.408655
 20
1989.225227
 30
0.0
 11
1550.23511
 21
1988.743869
 31
0.0
  0
LINE
  5
460
330
459
100
AcDbEntity
  8
LC-002-002-----0
 62
     7
370
    25
100
AcDbLine
 10
1550.23511
 20
1988.743869
 30
0.0
 11
1550.23511
 21
1988.743869
 31
0.0
  0
LINE
  5
461
330
459
100
AcDbEntity
  8
LC-002-002-----0
 62
     7
370
    25
100
AcDbLine
 10
1550.23511
 20
1988.743869
 30
0.0
 11
1549.958974
 21
1988.330302
 31
0.0
  0
LINE
  5
462
330
459
100
AcDbEntity
  8
LC-002-002-----0
 62
     7
370
    25
100
AcDbLine
 10
1549.958974
 20
1988.330302
 30
0.0
 11
1549.958974
 21
1988.330302
 31
0.0
  0
LINE
  5
463
330
459
100
AcDbEntity
  8
LC-002-002-----0
 62
     7
370
    25
100
AcDbLine
 10
1549.958974
 20
1988.330302
 30
0.0
 11
1549.597629
 21
1988.011356
 31
0.0
  0
LINE
  5
464
330
459
100
AcDbEntity
  8
LC-002-002-----0
 62
     7
370
    25
100
AcDbLine
 10
1549.597629
 20
1988.011356
 30
0.0
 11
1549.597629
 21
1988.011356
 31
0.0
  0
LINE
  5
465
330
459
100
AcDbEntity
  8
LC-002-002-----0
 62
     7
370
    25
100
AcDbLine
 10
1549.597629
 20
1988.011356
 30
0.0
 11
1549.174242
 21
1987.809393
 31
0.0
  0
LINE
  5
466
330
459
100
AcDbEntity
  8
LC-002-002-----0
 62
     7
370
    25
100
AcDbLine
 10
1549.174242
 20
1987.809393
 30
0.0
 11
1549.174242
 21
1987.809393
 31
0.0
  0
LINE
  5
467
330
459
100
AcDbEntity
  8
LC-002-002-----0
 62
     7
370
    25
100
AcDbLine
 10
1549.174242
 20
1987.809393
 30
0.0
 11
1548.716759
 21
1987.74
 31
0.0
  0
ENDBLK
  5
45B
330
459
100
AcDbEntity
  8
0
100
AcDbBlockEnd
  0
BLOCK
  5
46B
330
46A
100
AcDbEntity
  8
0
100
AcDbBlockBegin
  2
POLY6
 70
     0
 71
     0
 10
0.0
 20
0.0
 30
0.0
  3
POLY6
  1

  4
POLY6
  0
LINE
  5
46D
330
46A
100
AcDbEntity
  8
LC-002-002-----0
 62
     7
370
    25
100
AcDbLine
 10
1527.255112
 20
1989.74
 30
0.0
 11
1527.255112
 21
1989.74
 31
0.0
  0
LINE
  5
46E
330
46A
100
AcDbEntity
  8
LC-002-002-----0
 62
     7
370
    25
100
AcDbLine
 10
1527.255112
 20
1989.74
 30
0.0
 11
1527.255146
 21
1989.225212
 31
0.0
  0
LINE
  5
46F
330
46A
100
AcDbEntity
  8
LC-002-002-----0
 62
     7
370
    25
100
AcDbLine
 10
1527.255146
 20
1989.225212
 30
0.0
 11
1527.255146
 21
1989.225212
 31
0.0
  0
LINE
  5
470
330
46A
100
AcDbEntity
  8
LC-002-002-----0
 62
     7
370
    25
100
AcDbLine
 10
1527.255146
 20
1989.225212
 30
0.0
 11
1527.255109
 21
1988.743842
 31
0.0
  0
LINE
  5
471
330
46A
100
AcDbEntity
  8
LC-002-002-----0
 62
     7
370
    25
100
AcDbLine
 10
1527.255109
 20
1988.743842
 30
0.0
 11
1527.255109
 21
1988.743842
 31
0.0
  0
LINE
  5
472
330
46A
100
AcDbEntity
  8
LC-002-002-----0
 62
     7
370
    25
100
AcDbLine
 10
1527.255109
 20
1988.743842
 30
0.0
 11
1527.255116
 21
1988.330272
 31
0.0
  0
LINE
  5
473
330
46A
100
AcDbEntity
  8
LC-002-002-----0
 62
     7
370
    25
100
AcDbLine
 10
1527.255116
 20
1988.330272
 30
0.0
 11
1527.255116
 21
1988.330272
 31
0.0
  0
LINE
  5
474
330
46A
100
AcDbEntity
  8
LC-002-002-----0
 62
     7
370
    25
100
AcDbLine
 10
1527.255116
 20
1988.330272
 30
0.0
 11
1527.25509
 21
1988.011335
 31
0.0
  0
LINE
  5
475
330
46A
100
AcDbEntity
  8
LC-002-002-----0
 62
     7
370
    25
100
AcDbLine
 10
1527.25509
 20
1988.011335
 30
0.0
 11
1527.25509
 21
1988.011335
 31
0.0
  0
LINE
  5
476
330
46A
100
AcDbEntity
  8
LC-002-002-----0
 62
     7
370
    25
100
AcDbLine
 10
1527.25509
 20
1988.011335
 30
0.0
 11
1527.255139
 21
1987.809379
 31
0.0
  0
LINE
  5
477
330
46A
100
AcDbEntity
  8
LC-002-002-----0
 62
     7
370
    25
100
AcDbLine
 10
1527.255139
 20
1987.809379
 30
0.0
 11
1527.255139
 21
1987.809379
 31
0.0
  0
LINE
  5
478
330
46A
100
AcDbEntity
  8
LC-002-002-----0
 62
     7
370
    25
100
AcDbLine
 10
1527.255139
 20
1987.809379
 30
0.0
 11
1527.255121
 21
1987.74
 31
0.0
  0
ENDBLK
  5
46C
330
46A
100
AcDbEntity
  8
0
100
AcDbBlockEnd
  0
BLOCK
  5
47C
330
47B
100
AcDbEntity
  8
0
100
AcDbBlockBegin
  2
POLY7
 70
     0
 71
     0
 10
0.0
 20
0.0
 30
0.0
  3
POLY7
  1

  4
POLY7
  0
LINE
  5
47E
330
47B
100
AcDbEntity
  8
LC-002-002-----0
 62
     7
370
    25
100
AcDbLine
 10
1504.042631
 20
1989.74
 30
0.0
 11
1504.042631
 21
1989.74
 31
0.0
  0
LINE
  5
47F
330
47B
100
AcDbEntity
  8
LC-002-002-----0
 62
     7
370
    25
100
AcDbLine
 10
1504.042631
 20
1989.74
 30
0.0
 11
1504.101569
 21
1989.225227
 31
0.0
  0
LINE
  5
480
330
47B
100
AcDbEntity
  8
LC-002-002-----0
 62
     7
370
    25
100
AcDbLine
 10
1504.101569
 20
1989.225227
 30
0.0
 11
1504.101569
 21
1989.225227
 31
0.0
  0
LINE
  5
481
330
47B
100
AcDbEntity
  8
LC-002-002-----0
 62
     7
370
    25
100
AcDbLine
 10
1504.101569
 20
1989.225227
 30
0.0
 11
1504.275115
 21
1988.743869
 31
0.0
  0
LINE
  5
482
330
47B
100
AcDbEntity
  8
LC-002-002-----0
 62
     7
370
    25
100
AcDbLine
 10
1504.275115
 20
1988.743869
 30
0.0
 11
1504.275115
 21
1988.743869
 31
0.0
  0
LINE
  5
483
330
47B
100
AcDbEntity
  8
LC-002-002-----0
 62
     7
370
    25
100
AcDbLine
 10
1504.275115
 20
1988.743869
 30
0.0
 11
1504.55125
 21
1988.330302
 31
0.0
  0
LINE
  5
484
330
47B
100
AcDbEntity
  8
LC-002-002-----0
 62
     7
370
    25
100
AcDbLine
 10
1504.55125
 20
1988.330302
 30
0.0
 11
1504.55125
 21
1988.330302
 31
0.0
  0
LINE
  5
485
330
47B
100
AcDbEntity
  8
LC-002-002-----0
 62
     7
370
    25
100
AcDbLine
 10
1504.55125
 20
1988.330302
 30
0.0
 11
1504.912596
 21
1988.011356
 31
0.0
  0
LINE
  5
486
330
47B
100
AcDbEntity
  8
LC-002-002-----0
 62
     7
370
    25
100
AcDbLine
 10
1504.912596
 20
1988.011356
 30
0.0
 11
1504.912596
 21
1988.011356
 31
0.0
  0
LINE
  5
487
330
47B
100
AcDbEntity
  8
LC-002-002-----0
 62
     7
370
    25
100
AcDbLine
 10
1504.912596
 20
1988.011356
 30
0.0
 11
1505.335983
 21
1987.809393
 31
0.0
  0
LINE
  5
488
330
47B
100
AcDbEntity
  8
LC-002-002-----0
 62
     7
370
    25
100
AcDbLine
 10
1505.335983
 20
1987.809393
 30
0.0
 11
1505.335983
 21
1987.809393
 31
0.0
  0
LINE
  5
489
330
47B
100
AcDbEntity
  8
LC-002-002-----0
 62
     7
370
    25
100
AcDbLine
 10
1505.335983
 20
1987.809393
 30
0.0
 11
1505.793465
 21
1987.74
 31
0.0
  0
ENDBLK
  5
47D
330
47B
100
AcDbEntity
  8
0
100
AcDbBlockEnd
  0
BLOCK
  5
49F
330
49E
100
AcDbEntity
  8
0
100
AcDbBlockBegin
  2
POLY8
 70
     0
 71
     0
 10
0.0
 20
0.0
 30
0.0
  3
POLY8
  1

  4
POLY8
  0
LINE
  5
4A1
330
49E
100
AcDbEntity
  8
LC-002-002-----0
 62
     7
370
    25
100
AcDbLine
 10
1550.467593
 20
1853.74
 30
0.0
 11
1550.467593
 21
1853.74
 31
0.0
  0
LINE
  5
4A2
330
49E
100
AcDbEntity
  8
LC-002-002-----0
 62
     7
370
    25
100
AcDbLine
 10
1550.467593
 20
1853.74
 30
0.0
 11
1550.408655
 21
1854.254773
 31
0.0
  0
LINE
  5
4A3
330
49E
100
AcDbEntity
  8
LC-002-002-----0
 62
     7
370
    25
100
AcDbLine
 10
1550.408655
 20
1854.254773
 30
0.0
 11
1550.408655
 21
1854.254773
 31
0.0
  0
LINE
  5
4A4
330
49E
100
AcDbEntity
  8
LC-002-002-----0
 62
     7
370
    25
100
AcDbLine
 10
1550.408655
 20
1854.254773
 30
0.0
 11
1550.23511
 21
1854.736131
 31
0.0
  0
LINE
  5
4A5
330
49E
100
AcDbEntity
  8
LC-002-002-----0
 62
     7
370
    25
100
AcDbLine
 10
1550.23511
 20
1854.736131
 30
0.0
 11
1550.23511
 21
1854.736131
 31
0.0
  0
LINE
  5
4A6
330
49E
100
AcDbEntity
  8
LC-002-002-----0
 62
     7
370
    25
100
AcDbLine
 10
1550.23511
 20
1854.736131
 30
0.0
 11
1549.958974
 21
1855.149698
 31
0.0
  0
LINE
  5
4A7
330
49E
100
AcDbEntity
  8
LC-002-002-----0
 62
     7
370
    25
100
AcDbLine
 10
1549.958974
 20
1855.149698
 30
0.0
 11
1549.958974
 21
1855.149698
 31
0.0
  0
LINE
  5
4A8
330
49E
100
AcDbEntity
  8
LC-002-002-----0
 62
     7
370
    25
100
AcDbLine
 10
1549.958974
 20
1855.149698
 30
0.0
 11
1549.597629
 21
1855.468644
 31
0.0
  0
LINE
  5
4A9
330
49E
100
AcDbEntity
  8
LC-002-002-----0
 62
     7
370
    25
100
AcDbLine
 10
1549.597629
 20
1855.468644
 30
0.0
 11
1549.597629
 21
1855.468644
 31
0.0
  0
LINE
  5
4AA
330
49E
100
AcDbEntity
  8
LC-002-002-----0
 62
     7
370
    25
100
AcDbLine
 10
1549.597629
 20
1855.468644
 30
0.0
 11
1549.174242
 21
1855.670607
 31
0.0
  0
LINE
  5
4AB
330
49E
100
AcDbEntity
  8
LC-002-002-----0
 62
     7
370
    25
100
AcDbLine
 10
1549.174242
 20
1855.670607
 30
0.0
 11
1549.174242
 21
1855.670607
 31
0.0
  0
LINE
  5
4AC
330
49E
100
AcDbEntity
  8
LC-002-002-----0
 62
     7
370
    25
100
AcDbLine
 10
1549.174242
 20
1855.670607
 30
0.0
 11
1548.716759
 21
1855.74
 31
0.0
  0
ENDBLK
  5
4A0
330
49E
100
AcDbEntity
  8
0
100
AcDbBlockEnd
  0
BLOCK
  5
4B0
330
4AF
100
AcDbEntity
  8
0
100
AcDbBlockBegin
  2
POLY9
 70
     0
 71
     0
 10
0.0
 20
0.0
 30
0.0
  3
POLY9
  1

  4
POLY9
  0
LINE
  5
4B2
330
4AF
100
AcDbEntity
  8
LC-002-002-----0
 62
     7
370
    25
100
AcDbLine
 10
1527.255112
 20
1853.74
 30
0.0
 11
1527.255112
 21
1853.74
 31
0.0
  0
LINE
  5
4B3
330
4AF
100
AcDbEntity
  8
LC-002-002-----0
 62
     7
370
    25
100
AcDbLine
 10
1527.255112
 20
1853.74
 30
0.0
 11
1527.255146
 21
1854.254788
 31
0.0
  0
LINE
  5
4B4
330
4AF
100
AcDbEntity
  8
LC-002-002-----0
 62
     7
370
    25
100
AcDbLine
 10
1527.255146
 20
1854.254788
 30
0.0
 11
1527.255146
 21
1854.254788
 31
0.0
  0
LINE
  5
4B5
330
4AF
100
AcDbEntity
  8
LC-002-002-----0
 62
     7
370
    25
100
AcDbLine
 10
1527.255146
 20
1854.254788
 30
0.0
 11
1527.255109
 21
1854.736158
 31
0.0
  0
LINE
  5
4B6
330
4AF
100
AcDbEntity
  8
LC-002-002-----0
 62
     7
370
    25
100
AcDbLine
 10
1527.255109
 20
1854.736158
 30
0.0
 11
1527.255109
 21
1854.736158
 31
0.0
  0
LINE
  5
4B7
330
4AF
100
AcDbEntity
  8
LC-002-002-----0
 62
     7
370
    25
100
AcDbLine
 10
1527.255109
 20
1854.736158
 30
0.0
 11
1527.255116
 21
1855.149728
 31
0.0
  0
LINE
  5
4B8
330
4AF
100
AcDbEntity
  8
LC-002-002-----0
 62
     7
370
    25
100
AcDbLine
 10
1527.255116
 20
1855.149728
 30
0.0
 11
1527.255116
 21
1855.149728
 31
0.0
  0
LINE
  5
4B9
330
4AF
100
AcDbEntity
  8
LC-002-002-----0
 62
     7
370
    25
100
AcDbLine
 10
1527.255116
 20
1855.149728
 30
0.0
 11
1527.25509
 21
1855.468665
 31
0.0
  0
LINE
  5
4BA
330
4AF
100
AcDbEntity
  8
LC-002-002-----0
 62
     7
370
    25
100
AcDbLine
 10
1527.25509
 20
1855.468665
 30
0.0
 11
1527.25509
 21
1855.468665
 31
0.0
  0
LINE
  5
4BB
330
4AF
100
AcDbEntity
  8
LC-002-002-----0
 62
     7
370
    25
100
AcDbLine
 10
1527.25509
 20
1855.468665
 30
0.0
 11
1527.255139
 21
1855.670621
 31
0.0
  0
LINE
  5
4BC
330
4AF
100
AcDbEntity
  8
LC-002-002-----0
 62
     7
370
    25
100
AcDbLine
 10
1527.255139
 20
1855.670621
 30
0.0
 11
1527.255139
 21
1855.670621
 31
0.0
  0
LINE
  5
4BD
330
4AF
100
AcDbEntity
  8
LC-002-002-----0
 62
     7
370
    25
100
AcDbLine
 10
1527.255139
 20
1855.670621
 30
0.0
 11
1527.255121
 21
1855.74
 31
0.0
  0
ENDBLK
  5
4B1
330
4AF
100
AcDbEntity
  8
0
100
AcDbBlockEnd
  0
BLOCK
  5
4C1
330
4C0
100
AcDbEntity
  8
0
100
AcDbBlockBegin
  2
POLY10
 70
     0
 71
     0
 10
0.0
 20
0.0
 30
0.0
  3
POLY10
  1

  4
POLY10
  0
LINE
  5
4C3
330
4C0
100
AcDbEntity
  8
LC-002-002-----0
 62
     7
370
    25
100
AcDbLine
 10
1504.042631
 20
1853.74
 30
0.0
 11
1504.042631
 21
1853.74
 31
0.0
  0
LINE
  5
4C4
330
4C0
100
AcDbEntity
  8
LC-002-002-----0
 62
     7
370
    25
100
AcDbLine
 10
1504.042631
 20
1853.74
 30
0.0
 11
1504.101569
 21
1854.254773
 31
0.0
  0
LINE
  5
4C5
330
4C0
100
AcDbEntity
  8
LC-002-002-----0
 62
     7
370
    25
100
AcDbLine
 10
1504.101569
 20
1854.254773
 30
0.0
 11
1504.101569
 21
1854.254773
 31
0.0
  0
LINE
  5
4C6
330
4C0
100
AcDbEntity
  8
LC-002-002-----0
 62
     7
370
    25
100
AcDbLine
 10
1504.101569
 20
1854.254773
 30
0.0
 11
1504.275115
 21
1854.736131
 31
0.0
  0
LINE
  5
4C7
330
4C0
100
AcDbEntity
  8
LC-002-002-----0
 62
     7
370
    25
100
AcDbLine
 10
1504.275115
 20
1854.736131
 30
0.0
 11
1504.275115
 21
1854.736131
 31
0.0
  0
LINE
  5
4C8
330
4C0
100
AcDbEntity
  8
LC-002-002-----0
 62
     7
370
    25
100
AcDbLine
 10
1504.275115
 20
1854.736131
 30
0.0
 11
1504.55125
 21
1855.149698
 31
0.0
  0
LINE
  5
4C9
330
4C0
100
AcDbEntity
  8
LC-002-002-----0
 62
     7
370
    25
100
AcDbLine
 10
1504.55125
 20
1855.149698
 30
0.0
 11
1504.55125
 21
1855.149698
 31
0.0
  0
LINE
  5
4CA
330
4C0
100
AcDbEntity
  8
LC-002-002-----0
 62
     7
370
    25
100
AcDbLine
 10
1504.55125
 20
1855.149698
 30
0.0
 11
1504.912596
 21
1855.468644
 31
0.0
  0
LINE
  5
4CB
330
4C0
100
AcDbEntity
  8
LC-002-002-----0
 62
     7
370
    25
100
AcDbLine
 10
1504.912596
 20
1855.468644
 30
0.0
 11
1504.912596
 21
1855.468644
 31
0.0
  0
LINE
  5
4CC
330
4C0
100
AcDbEntity
  8
LC-002-002-----0
 62
     7
370
    25
100
AcDbLine
 10
1504.912596
 20
1855.468644
 30
0.0
 11
1505.335983
 21
1855.670607
 31
0.0
  0
LINE
  5
4CD
330
4C0
100
AcDbEntity
  8
LC-002-002-----0
 62
     7
370
    25
100
AcDbLine
 10
1505.335983
 20
1855.670607
 30
0.0
 11
1505.335983
 21
1855.670607
 31
0.0
  0
LINE
  5
4CE
330
4C0
100
AcDbEntity
  8
LC-002-002-----0
 62
     7
370
    25
100
AcDbLine
 10
1505.335983
 20
1855.670607
 30
0.0
 11
1505.793465
 21
1855.74
 31
0.0
  0
ENDBLK
  5
4C2
330
4C0
100
AcDbEntity
  8
0
100
AcDbBlockEnd
  0
BLOCK
  5
4FD
330
4FC
100
AcDbEntity
  8
0
100
AcDbBlockBegin
  2
LCDIM13
 70
     0
 71
     0
 10
0.0
 20
0.0
 30
0.0
  3
LCDIM13
  1

  4
LCDIM13
  0
LINE
  5
4FF
330
4FC
100
AcDbEntity
  8
LC-007-003-MTH-0
 62
     7
370
    25
100
AcDbLine
 10
1499.550319
 20
1785.74
 30
0.0
 11
1499.550319
 21
1335.0
 31
0.0
  0
LINE
  5
500
330
4FC
100
AcDbEntity
  8
LC-007-003-MTH-0
 62
     7
370
    25
100
AcDbLine
 10
1848.91221
 20
1407.34
 30
0.0
 11
1848.91221
 21
1335.0
 31
0.0
  0
LINE
  5
501
330
4FC
100
AcDbEntity
  8
LC-008-003-MTG-0
 62
     7
370
    25
100
AcDbLine
 10
1499.550319
 20
1350.0
 30
0.0
 11
1848.91221
 21
1350.0
 31
0.0
  0
LINE
  5
502
330
4FC
100
AcDbEntity
  8
LC-009-003-----0
 62
     7
370
    25
100
AcDbLine
 10
1524.336441
 20
1353.263155
 30
0.0
 11
1499.550319
 21
1350.0
 31
0.0
  0
LINE
  5
503
330
4FC
100
AcDbEntity
  8
LC-009-003-----0
 62
     7
370
    25
100
AcDbLine
 10
1499.550319
 20
1350.0
 30
0.0
 11
1524.336441
 21
1346.736845
 31
0.0
  0
LINE
  5
504
330
4FC
100
AcDbEntity
  8
LC-009-003-----0
 62
     7
370
    25
100
AcDbLine
 10
1524.336441
 20
1346.736845
 30
0.0
 11
1524.336441
 21
1353.263155
 31
0.0
  0
LINE
  5
505
330
4FC
100
AcDbEntity
  8
LC-009-003-----0
 62
     7
370
    25
100
AcDbLine
 10
1524.392049
 20
1352.414735
 30
0.0
 11
1506.050319
 21
1350.0
 31
0.0
  0
LINE
  5
506
330
4FC
100
AcDbEntity
  8
LC-009-003-----0
 62
     7
370
    25
100
AcDbLine
 10
1506.050319
 20
1350.0
 30
0.0
 11
1524.392049
 21
1347.585265
 31
0.0
  0
LINE
  5
507
330
4FC
100
AcDbEntity
  8
LC-009-003-----0
 62
     7
370
    25
100
AcDbLine
 10
1524.447658
 20
1351.566314
 30
0.0
 11
1512.550319
 21
1350.0
 31
0.0
  0
LINE
  5
508
330
4FC
100
AcDbEntity
  8
LC-009-003-----0
 62
     7
370
    25
100
AcDbLine
 10
1512.550319
 20
1350.0
 30
0.0
 11
1524.447658
 21
1348.433686
 31
0.0
  0
LINE
  5
509
330
4FC
100
AcDbEntity
  8
LC-009-003-----0
 62
     7
370
    25
100
AcDbLine
 10
1524.503266
 20
1350.717894
 30
0.0
 11
1519.050319
 21
1350.0
 31
0.0
  0
LINE
  5
50A
330
4FC
100
AcDbEntity
  8
LC-009-003-----0
 62
     7
370
    25
100
AcDbLine
 10
1519.050319
 20
1350.0
 30
0.0
 11
1524.503266
 21
1349.282106
 31
0.0
  0
LINE
  5
50B
330
4FC
100
AcDbEntity
  8
LC-009-003-----0
 62
     7
370
    25
100
AcDbLine
 10
1824.126088
 20
1346.736845
 30
0.0
 11
1848.91221
 21
1350.0
 31
0.0
  0
LINE
  5
50C
330
4FC
100
AcDbEntity
  8
LC-009-003-----0
 62
     7
370
    25
100
AcDbLine
 10
1848.91221
 20
1350.0
 30
0.0
 11
1824.126088
 21
1353.263155
 31
0.0
  0
LINE
  5
50D
330
4FC
100
AcDbEntity
  8
LC-009-003-----0
 62
     7
370
    25
100
AcDbLine
 10
1824.126088
 20
1353.263155
 30
0.0
 11
1824.126088
 21
1346.736845
 31
0.0
  0
LINE
  5
50E
330
4FC
100
AcDbEntity
  8
LC-009-003-----0
 62
     7
370
    25
100
AcDbLine
 10
1824.070479
 20
1347.585265
 30
0.0
 11
1842.41221
 21
1350.0
 31
0.0
  0
LINE
  5
50F
330
4FC
100
AcDbEntity
  8
LC-009-003-----0
 62
     7
370
    25
100
AcDbLine
 10
1842.41221
 20
1350.0
 30
0.0
 11
1824.070479
 21
1352.414735
 31
0.0
  0
LINE
  5
510
330
4FC
100
AcDbEntity
  8
LC-009-003-----0
 62
     7
370
    25
100
AcDbLine
 10
1824.014871
 20
1348.433686
 30
0.0
 11
1835.91221
 21
1350.0
 31
0.0
  0
LINE
  5
511
330
4FC
100
AcDbEntity
  8
LC-009-003-----0
 62
     7
370
    25
100
AcDbLine
 10
1835.91221
 20
1350.0
 30
0.0
 11
1824.014871
 21
1351.566314
 31
0.0
  0
LINE
  5
512
330
4FC
100
AcDbEntity
  8
LC-009-003-----0
 62
     7
370
    25
100
AcDbLine
 10
1823.959263
 20
1349.282106
 30
0.0
 11
1829.412209
 21
1350.0
 31
0.0
  0
LINE
  5
513
330
4FC
100
AcDbEntity
  8
LC-009-003-----0
 62
     7
370
    25
100
AcDbLine
 10
1829.412209
 20
1350.0
 30
0.0
 11
1823.959263
 21
1350.717894
 31
0.0
  0
TEXT
  5
514
330
4FC
100
AcDbEntity
  8
LC-009-003-----0
 62
     7
370
    25
100
AcDbText
 10
1641.381097
 20
1365.0
 30
0.0
 40
25.0
  1
349
 41
0.7
  7
LCTX0-400-0-0pDIN-Schrift
 72
     1
 11
1665.96443
 21
1365.0
 31
0.0
100
AcDbText
  0
ENDBLK
  5
4FE
330
4FC
100
AcDbEntity
  8
0
100
AcDbBlockEnd
  0
BLOCK
  5
549
330
548
100
AcDbEntity
  8
0
100
AcDbBlockBegin
  2
LCDIM14
 70
     0
 71
     0
 10
0.0
 20
0.0
 30
0.0
  3
LCDIM14
  1

  4
LCDIM14
  0
LINE
  5
54B
330
548
100
AcDbEntity
  8
LC-007-003-MTH-0
 62
     7
370
    25
100
AcDbLine
 10
1852.347988
 20
1441.739318
 30
0.0
 11
2015.0
 21
1441.739318
 31
0.0
  0
LINE
  5
54C
330
548
100
AcDbEntity
  8
LC-007-003-MTH-0
 62
     7
370
    25
100
AcDbLine
 10
1852.347988
 20
1902.740682
 30
0.0
 11
2015.0
 21
1902.740682
 31
0.0
  0
LINE
  5
54D
330
548
100
AcDbEntity
  8
LC-008-003-MTG-0
 62
     7
370
    25
100
AcDbLine
 10
2000.0
 20
1441.739318
 30
0.0
 11
2000.0
 21
1902.740682
 31
0.0
  0
LINE
  5
54E
330
548
100
AcDbEntity
  8
LC-009-003-----0
 62
     7
370
    25
100
AcDbLine
 10
1996.736845
 20
1466.52544
 30
0.0
 11
2000.0
 21
1441.739318
 31
0.0
  0
LINE
  5
54F
330
548
100
AcDbEntity
  8
LC-009-003-----0
 62
     7
370
    25
100
AcDbLine
 10
2000.0
 20
1441.739318
 30
0.0
 11
2003.263155
 21
1466.52544
 31
0.0
  0
LINE
  5
550
330
548
100
AcDbEntity
  8
LC-009-003-----0
 62
     7
370
    25
100
AcDbLine
 10
2003.263155
 20
1466.52544
 30
0.0
 11
1996.736845
 21
1466.52544
 31
0.0
  0
LINE
  5
551
330
548
100
AcDbEntity
  8
LC-009-003-----0
 62
     7
370
    25
100
AcDbLine
 10
1997.585265
 20
1466.581048
 30
0.0
 11
2000.0
 21
1448.239318
 31
0.0
  0
LINE
  5
552
330
548
100
AcDbEntity
  8
LC-009-003-----0
 62
     7
370
    25
100
AcDbLine
 10
2000.0
 20
1448.239318
 30
0.0
 11
2002.414735
 21
1466.581048
 31
0.0
  0
LINE
  5
553
330
548
100
AcDbEntity
  8
LC-009-003-----0
 62
     7
370
    25
100
AcDbLine
 10
1998.433686
 20
1466.636656
 30
0.0
 11
2000.0
 21
1454.739318
 31
0.0
  0
LINE
  5
554
330
548
100
AcDbEntity
  8
LC-009-003-----0
 62
     7
370
    25
100
AcDbLine
 10
2000.0
 20
1454.739318
 30
0.0
 11
2001.566314
 21
1466.636656
 31
0.0
  0
LINE
  5
555
330
548
100
AcDbEntity
  8
LC-009-003-----0
 62
     7
370
    25
100
AcDbLine
 10
1999.282106
 20
1466.692265
 30
0.0
 11
2000.0
 21
1461.239318
 31
0.0
  0
LINE
  5
556
330
548
100
AcDbEntity
  8
LC-009-003-----0
 62
     7
370
    25
100
AcDbLine
 10
2000.0
 20
1461.239318
 30
0.0
 11
2000.717894
 21
1466.692265
 31
0.0
  0
LINE
  5
557
330
548
100
AcDbEntity
  8
LC-009-003-----0
 62
     7
370
    25
100
AcDbLine
 10
2003.263155
 20
1877.95456
 30
0.0
 11
2000.0
 21
1902.740682
 31
0.0
  0
LINE
  5
558
330
548
100
AcDbEntity
  8
LC-009-003-----0
 62
     7
370
    25
100
AcDbLine
 10
2000.0
 20
1902.740682
 30
0.0
 11
1996.736845
 21
1877.95456
 31
0.0
  0
LINE
  5
559
330
548
100
AcDbEntity
  8
LC-009-003-----0
 62
     7
370
    25
100
AcDbLine
 10
1996.736845
 20
1877.95456
 30
0.0
 11
2003.263155
 21
1877.95456
 31
0.0
  0
LINE
  5
55A
330
548
100
AcDbEntity
  8
LC-009-003-----0
 62
     7
370
    25
100
AcDbLine
 10
2002.414735
 20
1877.898952
 30
0.0
 11
2000.0
 21
1896.240682
 31
0.0
  0
LINE
  5
55B
330
548
100
AcDbEntity
  8
LC-009-003-----0
 62
     7
370
    25
100
AcDbLine
 10
2000.0
 20
1896.240682
 30
0.0
 11
1997.585265
 21
1877.898952
 31
0.0
  0
LINE
  5
55C
330
548
100
AcDbEntity
  8
LC-009-003-----0
 62
     7
370
    25
100
AcDbLine
 10
2001.566314
 20
1877.843344
 30
0.0
 11
2000.0
 21
1889.740682
 31
0.0
  0
LINE
  5
55D
330
548
100
AcDbEntity
  8
LC-009-003-----0
 62
     7
370
    25
100
AcDbLine
 10
2000.0
 20
1889.740682
 30
0.0
 11
1998.433686
 21
1877.843344
 31
0.0
  0
LINE
  5
55E
330
548
100
AcDbEntity
  8
LC-009-003-----0
 62
     7
370
    25
100
AcDbLine
 10
2000.717894
 20
1877.787735
 30
0.0
 11
2000.0
 21
1883.240682
 31
0.0
  0
LINE
  5
55F
330
548
100
AcDbEntity
  8
LC-009-003-----0
 62
     7
370
    25
100
AcDbLine
 10
2000.0
 20
1883.240682
 30
0.0
 11
1999.282106
 21
1877.787735
 31
0.0
  0
TEXT
  5
560
330
548
100
AcDbEntity
  8
LC-009-003-----0
 62
     7
370
    25
100
AcDbText
 10
1985.0
 20
1640.753699
 30
0.0
 40
25.0
  1
461
 50
90.0
 41
0.7
  7
LCTX0-400-0-0pDIN-Schrift
 72
     1
 11
1985.0
 21
1663.253699
 31
0.0
100
AcDbText
  0
ENDBLK
  5
54A
330
548
100
AcDbEntity
  8
0
100
AcDbBlockEnd
  0
BLOCK
  5
567
330
566
100
AcDbEntity
  8
0
100
AcDbBlockBegin
  2
LCDIM15
 70
     0
 71
     0
 10
0.0
 20
0.0
 30
0.0
  3
LCDIM15
  1

  4
LCDIM15
  0
LINE
  5
569
330
566
100
AcDbEntity
  8
LC-007-003-MTH-0
 62
     7
370
    25
100
AcDbLine
 10
401.768428
 20
726.957172
 30
0.0
 11
401.768428
 21
636.407171
 31
0.0
  0
LINE
  5
56A
330
566
100
AcDbEntity
  8
LC-007-003-MTH-0
 62
     7
370
    25
100
AcDbLine
 10
810.868428
 20
726.957172
 30
0.0
 11
810.868428
 21
636.407171
 31
0.0
  0
LINE
  5
56B
330
566
100
AcDbEntity
  8
LC-008-003-MTG-0
 62
     7
370
    25
100
AcDbLine
 10
401.768428
 20
651.407172
 30
0.0
 11
810.868428
 21
651.407172
 31
0.0
  0
LINE
  5
56C
330
566
100
AcDbEntity
  8
LC-009-003-----0
 62
     7
370
    25
100
AcDbLine
 10
426.55455
 20
654.670326
 30
0.0
 11
401.768428
 21
651.407172
 31
0.0
  0
LINE
  5
56D
330
566
100
AcDbEntity
  8
LC-009-003-----0
 62
     7
370
    25
100
AcDbLine
 10
401.768428
 20
651.407172
 30
0.0
 11
426.55455
 21
648.144017
 31
0.0
  0
LINE
  5
56E
330
566
100
AcDbEntity
  8
LC-009-003-----0
 62
     7
370
    25
100
AcDbLine
 10
426.55455
 20
648.144017
 30
0.0
 11
426.55455
 21
654.670326
 31
0.0
  0
LINE
  5
56F
330
566
100
AcDbEntity
  8
LC-009-003-----0
 62
     7
370
    25
100
AcDbLine
 10
426.610158
 20
653.821906
 30
0.0
 11
408.268428
 21
651.407172
 31
0.0
  0
LINE
  5
570
330
566
100
AcDbEntity
  8
LC-009-003-----0
 62
     7
370
    25
100
AcDbLine
 10
408.268428
 20
651.407172
 30
0.0
 11
426.610158
 21
648.992437
 31
0.0
  0
LINE
  5
571
330
566
100
AcDbEntity
  8
LC-009-003-----0
 62
     7
370
    25
100
AcDbLine
 10
426.665767
 20
652.973486
 30
0.0
 11
414.768428
 21
651.407172
 31
0.0
  0
LINE
  5
572
330
566
100
AcDbEntity
  8
LC-009-003-----0
 62
     7
370
    25
100
AcDbLine
 10
414.768428
 20
651.407172
 30
0.0
 11
426.665767
 21
649.840857
 31
0.0
  0
LINE
  5
573
330
566
100
AcDbEntity
  8
LC-009-003-----0
 62
     7
370
    25
100
AcDbLine
 10
426.721375
 20
652.125066
 30
0.0
 11
421.268428
 21
651.407172
 31
0.0
  0
LINE
  5
574
330
566
100
AcDbEntity
  8
LC-009-003-----0
 62
     7
370
    25
100
AcDbLine
 10
421.268428
 20
651.407172
 30
0.0
 11
426.721375
 21
650.689278
 31
0.0
  0
LINE
  5
575
330
566
100
AcDbEntity
  8
LC-009-003-----0
 62
     7
370
    25
100
AcDbLine
 10
786.082306
 20
648.144017
 30
0.0
 11
810.868428
 21
651.407172
 31
0.0
  0
LINE
  5
576
330
566
100
AcDbEntity
  8
LC-009-003-----0
 62
     7
370
    25
100
AcDbLine
 10
810.868428
 20
651.407172
 30
0.0
 11
786.082306
 21
654.670326
 31
0.0
  0
LINE
  5
577
330
566
100
AcDbEntity
  8
LC-009-003-----0
 62
     7
370
    25
100
AcDbLine
 10
786.082306
 20
654.670326
 30
0.0
 11
786.082306
 21
648.144017
 31
0.0
  0
LINE
  5
578
330
566
100
AcDbEntity
  8
LC-009-003-----0
 62
     7
370
    25
100
AcDbLine
 10
786.026697
 20
648.992437
 30
0.0
 11
804.368428
 21
651.407172
 31
0.0
  0
LINE
  5
579
330
566
100
AcDbEntity
  8
LC-009-003-----0
 62
     7
370
    25
100
AcDbLine
 10
804.368428
 20
651.407172
 30
0.0
 11
786.026697
 21
653.821906
 31
0.0
  0
LINE
  5
57A
330
566
100
AcDbEntity
  8
LC-009-003-----0
 62
     7
370
    25
100
AcDbLine
 10
785.971089
 20
649.840857
 30
0.0
 11
797.868428
 21
651.407172
 31
0.0
  0
LINE
  5
57B
330
566
100
AcDbEntity
  8
LC-009-003-----0
 62
     7
370
    25
100
AcDbLine
 10
797.868428
 20
651.407172
 30
0.0
 11
785.971089
 21
652.973486
 31
0.0
  0
LINE
  5
57C
330
566
100
AcDbEntity
  8
LC-009-003-----0
 62
     7
370
    25
100
AcDbLine
 10
785.915481
 20
650.689278
 30
0.0
 11
791.368428
 21
651.407172
 31
0.0
  0
LINE
  5
57D
330
566
100
AcDbEntity
  8
LC-009-003-----0
 62
     7
370
    25
100
AcDbLine
 10
791.368428
 20
651.407172
 30
0.0
 11
785.915481
 21
652.125066
 31
0.0
  0
TEXT
  5
57E
330
566
100
AcDbEntity
  8
LC-009-003-----0
 62
     7
370
    25
100
AcDbText
 10
580.672765
 20
666.407172
 30
0.0
 40
25.0
  1
818
 41
0.7
  7
LCTX0-400-0-0pDIN-Schrift
 72
     1
 11
605.672765
 21
666.407172
 31
0.0
100
AcDbText
  0
ENDBLK
  5
568
330
566
100
AcDbEntity
  8
0
100
AcDbBlockEnd
  0
BLOCK
  5
581
330
580
100
AcDbEntity
  8
0
100
AcDbBlockBegin
  2
LCDIM16
 70
     0
 71
     0
 10
0.0
 20
0.0
 30
0.0
  3
LCDIM16
  1

  4
LCDIM16
  0
LINE
  5
583
330
580
100
AcDbEntity
  8
LC-007-003-MTH-0
 62
     7
370
    25
100
AcDbLine
 10
805.868428
 20
721.957172
 30
0.0
 11
884.862963
 21
721.957172
 31
0.0
  0
LINE
  5
584
330
580
100
AcDbEntity
  8
LC-007-003-MTH-0
 62
     7
370
    25
100
AcDbLine
 10
805.868428
 20
991.357172
 30
0.0
 11
884.862963
 21
991.357172
 31
0.0
  0
LINE
  5
585
330
580
100
AcDbEntity
  8
LC-008-003-MTG-0
 62
     7
370
    25
100
AcDbLine
 10
869.862963
 20
721.957172
 30
0.0
 11
869.862963
 21
991.357172
 31
0.0
  0
LINE
  5
586
330
580
100
AcDbEntity
  8
LC-009-003-----0
 62
     7
370
    25
100
AcDbLine
 10
866.599808
 20
746.743294
 30
0.0
 11
869.862963
 21
721.957172
 31
0.0
  0
LINE
  5
587
330
580
100
AcDbEntity
  8
LC-009-003-----0
 62
     7
370
    25
100
AcDbLine
 10
869.862963
 20
721.957172
 30
0.0
 11
873.126118
 21
746.743294
 31
0.0
  0
LINE
  5
588
330
580
100
AcDbEntity
  8
LC-009-003-----0
 62
     7
370
    25
100
AcDbLine
 10
873.126118
 20
746.743294
 30
0.0
 11
866.599808
 21
746.743294
 31
0.0
  0
LINE
  5
589
330
580
100
AcDbEntity
  8
LC-009-003-----0
 62
     7
370
    25
100
AcDbLine
 10
867.448228
 20
746.798902
 30
0.0
 11
869.862963
 21
728.457172
 31
0.0
  0
LINE
  5
58A
330
580
100
AcDbEntity
  8
LC-009-003-----0
 62
     7
370
    25
100
AcDbLine
 10
869.862963
 20
728.457172
 30
0.0
 11
872.277698
 21
746.798902
 31
0.0
  0
LINE
  5
58B
330
580
100
AcDbEntity
  8
LC-009-003-----0
 62
     7
370
    25
100
AcDbLine
 10
868.296649
 20
746.85451
 30
0.0
 11
869.862963
 21
734.957172
 31
0.0
  0
LINE
  5
58C
330
580
100
AcDbEntity
  8
LC-009-003-----0
 62
     7
370
    25
100
AcDbLine
 10
869.862963
 20
734.957172
 30
0.0
 11
871.429277
 21
746.85451
 31
0.0
  0
LINE
  5
58D
330
580
100
AcDbEntity
  8
LC-009-003-----0
 62
     7
370
    25
100
AcDbLine
 10
869.145069
 20
746.910119
 30
0.0
 11
869.862963
 21
741.457172
 31
0.0
  0
LINE
  5
58E
330
580
100
AcDbEntity
  8
LC-009-003-----0
 62
     7
370
    25
100
AcDbLine
 10
869.862963
 20
741.457172
 30
0.0
 11
870.580857
 21
746.910119
 31
0.0
  0
LINE
  5
58F
330
580
100
AcDbEntity
  8
LC-009-003-----0
 62
     7
370
    25
100
AcDbLine
 10
873.126118
 20
966.57105
 30
0.0
 11
869.862963
 21
991.357172
 31
0.0
  0
LINE
  5
590
330
580
100
AcDbEntity
  8
LC-009-003-----0
 62
     7
370
    25
100
AcDbLine
 10
869.862963
 20
991.357172
 30
0.0
 11
866.599808
 21
966.57105
 31
0.0
  0
LINE
  5
591
330
580
100
AcDbEntity
  8
LC-009-003-----0
 62
     7
370
    25
100
AcDbLine
 10
866.599808
 20
966.57105
 30
0.0
 11
873.126118
 21
966.57105
 31
0.0
  0
LINE
  5
592
330
580
100
AcDbEntity
  8
LC-009-003-----0
 62
     7
370
    25
100
AcDbLine
 10
872.277698
 20
966.515441
 30
0.0
 11
869.862963
 21
984.857172
 31
0.0
  0
LINE
  5
593
330
580
100
AcDbEntity
  8
LC-009-003-----0
 62
     7
370
    25
100
AcDbLine
 10
869.862963
 20
984.857172
 30
0.0
 11
867.448228
 21
966.515441
 31
0.0
  0
LINE
  5
594
330
580
100
AcDbEntity
  8
LC-009-003-----0
 62
     7
370
    25
100
AcDbLine
 10
871.429277
 20
966.459833
 30
0.0
 11
869.862963
 21
978.357171
 31
0.0
  0
LINE
  5
595
330
580
100
AcDbEntity
  8
LC-009-003-----0
 62
     7
370
    25
100
AcDbLine
 10
869.862963
 20
978.357171
 30
0.0
 11
868.296649
 21
966.459833
 31
0.0
  0
LINE
  5
596
330
580
100
AcDbEntity
  8
LC-009-003-----0
 62
     7
370
    25
100
AcDbLine
 10
870.580857
 20
966.404225
 30
0.0
 11
869.862963
 21
971.857171
 31
0.0
  0
LINE
  5
597
330
580
100
AcDbEntity
  8
LC-009-003-----0
 62
     7
370
    25
100
AcDbLine
 10
869.862963
 20
971.857171
 30
0.0
 11
869.145069
 21
966.404225
 31
0.0
  0
TEXT
  5
598
330
580
100
AcDbEntity
  8
LC-009-003-----0
 62
     7
370
    25
100
AcDbText
 10
854.862963
 20
830.258522
 30
0.0
 40
25.0
  1
539
 50
90.0
 41
0.7
  7
LCTX0-400-0-0pDIN-Schrift
 72
     1
 11
854.862963
 21
854.841855
 31
0.0
100
AcDbText
  0
ENDBLK
  5
582
330
580
100
AcDbEntity
  8
0
100
AcDbBlockEnd
  0
BLOCK
  5
59B
330
59A
100
AcDbEntity
  8
0
100
AcDbBlockBegin
  2
LCDIM17
 70
     0
 71
     0
 10
0.0
 20
0.0
 30
0.0
  3
LCDIM17
  1

  4
LCDIM17
  0
TEXT
  5
59D
330
59A
100
AcDbEntity
  8
LC-009-003-----0
 62
     7
370
    25
100
AcDbText
 10
453.860149
 20
955.530185
 30
0.0
 40
25.0
  1
R10
 50
311.33429
 41
0.7
  7
LCTX0-400-0-0pDIN-Schrift
100
AcDbText
  0
LINE
  5
59E
330
59A
100
AcDbEntity
  8
LC-008-003-MTG-0
 62
     7
370
    25
100
AcDbLine
 10
464.006772
 20
921.282709
 30
0.0
 11
403.466173
 21
990.111517
 31
0.0
  0
LINE
  5
59F
330
59A
100
AcDbEntity
  8
LC-009-003-----0
 62
     7
370
    25
100
AcDbLine
 10
422.286396
 20
973.65554
 30
0.0
 11
403.466173
 21
990.111517
 31
0.0
  0
LINE
  5
5A0
330
59A
100
AcDbEntity
  8
LC-009-003-----0
 62
     7
370
    25
100
AcDbLine
 10
403.466173
 20
990.111517
 30
0.0
 11
417.385992
 21
969.345231
 31
0.0
  0
LINE
  5
5A1
330
59A
100
AcDbEntity
  8
LC-009-003-----0
 62
     7
370
    25
100
AcDbLine
 10
417.385992
 20
969.345231
 30
0.0
 11
422.286396
 21
973.65554
 31
0.0
  0
LINE
  5
5A2
330
59A
100
AcDbEntity
  8
LC-009-003-----0
 62
     7
370
    25
100
AcDbLine
 10
421.68607
 20
973.053445
 30
0.0
 11
407.759105
 21
985.230868
 31
0.0
  0
LINE
  5
5A3
330
59A
100
AcDbEntity
  8
LC-009-003-----0
 62
     7
370
    25
100
AcDbLine
 10
407.759105
 20
985.230868
 30
0.0
 11
418.059771
 21
969.863817
 31
0.0
  0
LINE
  5
5A4
330
59A
100
AcDbEntity
  8
LC-009-003-----0
 62
     7
370
    25
100
AcDbLine
 10
421.085744
 20
972.45135
 30
0.0
 11
412.052037
 21
980.350219
 31
0.0
  0
LINE
  5
5A5
330
59A
100
AcDbEntity
  8
LC-009-003-----0
 62
     7
370
    25
100
AcDbLine
 10
412.052037
 20
980.350219
 30
0.0
 11
418.73355
 21
970.382402
 31
0.0
  0
LINE
  5
5A6
330
59A
100
AcDbEntity
  8
LC-009-003-----0
 62
     7
370
    25
100
AcDbLine
 10
420.485418
 20
971.849256
 30
0.0
 11
416.344969
 21
975.469571
 31
0.0
  0
LINE
  5
5A7
330
59A
100
AcDbEntity
  8
LC-009-003-----0
 62
     7
370
    25
100
AcDbLine
 10
416.344969
 20
975.469571
 30
0.0
 11
419.407329
 21
970.900988
 31
0.0
  0
ENDBLK
  5
59C
330
59A
100
AcDbEntity
  8
0
100
AcDbBlockEnd
  0
ENDSEC
  0
SECTION
  2
ENTITIES
  0
INSERT
  5
104
330
1F
100
AcDbEntity
  8
LC-003-230-ZVN-0
 62
     7
370
    50
100
AcDbBlockReference
  2
SYM1
 10
0.0
 20
0.0
 30
0.0
  0
LINE
  5
105
102
{ACAD_REACTORS
330
5B8
102
}
330
1F
100
AcDbEntity
  8
LC-002-002-----0
 62
     7
370
    25
100
AcDbLine
 10
1841.281477
 20
1950.759799
 30
0.0
 11
1845.58652
 21
1951.136438
 31
0.0
  0
LINE
  5
106
102
{ACAD_REACTORS
330
5B8
102
}
330
1F
100
AcDbEntity
  8
LC-002-002-----0
 62
     7
370
    25
100
AcDbLine
 10
1847.150663
 20
1952.14
 30
0.0
 11
1847.41221
 21
1952.14
 31
0.0
  0
LINE
  5
107
102
{ACAD_REACTORS
330
5AE
102
}
330
1F
100
AcDbEntity
  8
LC-002-002-----0
 62
     7
370
    50
100
AcDbLine
 10
1224.177752
 20
2641.24
 30
0.0
 11
1294.416093
 21
2641.24
 31
0.0
  0
LINE
  5
108
102
{ACAD_REACTORS
330
5AE
102
}
330
1F
100
AcDbEntity
  8
LC-002-002-----0
 62
     7
370
    50
100
AcDbLine
 10
1224.177752
 20
2641.24
 30
0.0
 11
1224.177752
 21
2603.24
 31
0.0
  0
LINE
  5
109
102
{ACAD_REACTORS
330
5AE
102
}
330
1F
100
AcDbEntity
  8
LC-002-002-----0
 62
     7
370
    50
100
AcDbLine
 10
1224.177752
 20
2603.24
 30
0.0
 11
1294.416093
 21
2603.24
 31
0.0
  0
LINE
  5
10A
102
{ACAD_REACTORS
330
5AE
102
}
330
1F
100
AcDbEntity
  8
LC-002-002-----0
 62
     7
370
    25
100
AcDbLine
 10
1294.416093
 20
2641.24
 30
0.0
 11
1298.92907
 21
2620.630234
 31
0.0
  0
LINE
  5
10B
102
{ACAD_REACTORS
330
5AE
102
}
330
1F
100
AcDbEntity
  8
LC-002-002-----0
 62
     7
370
    25
100
AcDbLine
 10
1298.92907
 20
2620.630234
 30
0.0
 11
1294.416093
 21
2603.24
 31
0.0
  0
LINE
  5
10C
102
{ACAD_REACTORS
330
5B5
102
}
330
1F
100
AcDbEntity
  8
LC-002-002-----0
 62
     7
370
    25
100
AcDbLine
 10
1505.255112
 20
1735.74
 30
0.0
 11
1505.255112
 21
1761.295748
 31
0.0
  0
LINE
  5
10D
102
{ACAD_REACTORS
330
5AE
102
}
330
1F
100
AcDbEntity
  8
LC-002-002-----0
 62
     7
370
    50
100
AcDbLine
 10
1234.177752
 20
2603.24
 30
0.0
 11
1234.177752
 21
2473.615673
 31
0.0
  0
LINE
  5
10E
102
{ACAD_REACTORS
330
5AE
102
}
330
1F
100
AcDbEntity
  8
LC-002-002-----0
 62
     7
370
    50
100
AcDbLine
 10
1215.177752
 20
2603.24
 30
0.0
 11
1215.177752
 21
2473.615673
 31
0.0
  0
LINE
  5
10F
102
{ACAD_REACTORS
330
5AE
102
}
330
1F
100
AcDbEntity
  8
LC-002-002-----0
 62
     7
370
    50
100
AcDbLine
 10
1215.177752
 20
2603.24
 30
0.0
 11
1234.177752
 21
2603.24
 31
0.0
  0
LINE
  5
110
102
{ACAD_REACTORS
330
5AE
102
}
330
1F
100
AcDbEntity
  8
LC-002-002-----0
 62
     7
370
    25
100
AcDbLine
 10
1215.177752
 20
2473.615673
 30
0.0
 11
1227.056198
 21
2469.302016
 31
0.0
  0
LINE
  5
111
102
{ACAD_REACTORS
330
5AE
102
}
330
1F
100
AcDbEntity
  8
LC-002-002-----0
 62
     7
370
    25
100
AcDbLine
 10
1227.056198
 20
2469.302016
 30
0.0
 11
1234.177752
 21
2473.615673
 31
0.0
  0
ARC
  5
113
102
{ACAD_REACTORS
330
5AB
102
}
330
1F
100
AcDbEntity
  8
LC-004-002-RND-0
 62
     7
370
    50
100
AcDbCircle
 10
406.768428
 20
986.357172
 30
0.0
 40
5.0
100
AcDbArc
 50
90.0
 51
180.0
  0
LINE
  5
116
102
{ACAD_REACTORS
330
5AD
102
}
330
1F
100
AcDbEntity
  8
LC-005-006-MLN-0
 62
     7
370
    25
100
AcDbLine
 10
1598.857341
 20
1786.74
 30
0.0
 11
1630.456488
 21
1786.74
 31
0.0
  0
ARC
  5
117
102
{ACAD_REACTORS
330
5AB
102
}
330
1F
100
AcDbEntity
  8
LC-004-002-RND-0
 62
     7
370
    50
100
AcDbCircle
 10
406.768428
 20
726.957172
 30
0.0
 40
5.0
100
AcDbArc
 50
180.0
 51
270.0
  0
LINE
  5
118
102
{ACAD_REACTORS
330
5AD
102
}
330
1F
100
AcDbEntity
  8
LC-002-002-----0
 62
     7
370
    50
100
AcDbLine
 10
1601.857341
 20
1831.74
 30
0.0
 11
1611.738976
 21
1831.74
 31
0.0
  0
LINE
  5
119
102
{ACAD_REACTORS
330
5AD
102
}
330
1F
100
AcDbEntity
  8
LC-002-002-----0
 62
     7
370
    50
100
AcDbLine
 10
1601.857341
 20
1831.74
 30
0.0
 11
1601.857341
 21
1741.74
 31
0.0
  0
LINE
  5
11A
102
{ACAD_REACTORS
330
5AD
102
}
330
1F
100
AcDbEntity
  8
LC-002-002-----0
 62
     7
370
    50
100
AcDbLine
 10
1601.857341
 20
1741.74
 30
0.0
 11
1611.738976
 21
1741.74
 31
0.0
  0
LINE
  5
11B
102
{ACAD_REACTORS
330
5AD
102
}
330
1F
100
AcDbEntity
  8
LC-002-002-----0
 62
     7
370
    50
100
AcDbLine
 10
1611.738976
 20
1831.74
 30
0.0
 11
1611.738976
 21
1741.74
 31
0.0
  0
LINE
  5
11C
102
{ACAD_REACTORS
330
5AD
102
}
330
1F
100
AcDbEntity
  8
LC-002-002-----0
 62
     7
370
    25
100
AcDbLine
 10
1615.91221
 20
1844.24
 30
0.0
 11
1615.91221
 21
1729.24
 31
0.0
  0
LINE
  5
11D
102
{ACAD_REACTORS
330
5AC
102
}
330
1F
100
AcDbEntity
  8
LC-002-002-----0
 62
     7
370
    25
100
AcDbLine
 10
1601.857341
 20
1674.014141
 30
0.0
 11
1601.857341
 21
1716.827073
 31
0.0
  0
ARC
  5
11E
102
{ACAD_REACTORS
330
5AB
102
}
330
1F
100
AcDbEntity
  8
LC-004-002-RND-0
 62
     7
370
    50
100
AcDbCircle
 10
805.868428
 20
726.957172
 30
0.0
 40
5.0
100
AcDbArc
 50
270.0
 51
0.0
  0
ARC
  5
11F
102
{ACAD_REACTORS
330
5AB
102
}
330
1F
100
AcDbEntity
  8
LC-004-002-RND-0
 62
     7
370
    50
100
AcDbCircle
 10
805.868428
 20
986.357172
 30
0.0
 40
5.0
100
AcDbArc
 50
0.0
 51
90.0
  0
LINE
  5
120
102
{ACAD_REACTORS
330
5B2
102
}
330
1F
100
AcDbEntity
  8
LC-002-002-----0
 62
     7
370
    25
100
AcDbLine
 10
885.637866
 20
1833.470387
 30
0.0
 11
1142.538272
 21
1833.470387
 31
0.0
  0
LINE
  5
121
102
{ACAD_REACTORS
330
5B2
102
}
330
1F
100
AcDbEntity
  8
LC-002-002-----0
 62
     7
370
    25
100
AcDbLine
 10
883.836095
 20
1809.208753
 30
0.0
 11
1144.339887
 21
1809.208753
 31
0.0
  0
LINE
  5
122
102
{ACAD_REACTORS
330
5B2
102
}
330
1F
100
AcDbEntity
  8
LC-005-006-MLN-0
 62
     7
370
    25
100
AcDbLine
 10
616.077752
 20
1847.24
 30
0.0
 11
616.077752
 21
1726.24
 31
0.0
  0
LINE
  5
123
102
{ACAD_REACTORS
330
5B2
102
}
330
1F
100
AcDbEntity
  8
LC-005-006-MLN-0
 62
     7
370
    25
100
AcDbLine
 10
555.577752
 20
1786.74
 30
0.0
 11
676.577752
 21
1786.74
 31
0.0
  0
LINE
  5
124
102
{ACAD_REACTORS
330
5B2
102
}
330
1F
100
AcDbEntity
  8
LC-005-006-MLN-0
 62
     7
370
    25
100
AcDbLine
 10
1014.077752
 20
1796.24
 30
0.0
 11
1014.077752
 21
1675.24
 31
0.0
  0
LINE
  5
125
102
{ACAD_REACTORS
330
5B2
102
}
330
1F
100
AcDbEntity
  8
LC-005-006-MLN-0
 62
     7
370
    25
100
AcDbLine
 10
953.577752
 20
1735.74
 30
0.0
 11
1074.577752
 21
1735.74
 31
0.0
  0
CIRCLE
  5
126
102
{ACAD_REACTORS
330
5B2
102
}
330
1F
100
AcDbEntity
  8
LC-002-002-----0
 62
     7
370
    50
100
AcDbCircle
 10
616.077752
 20
1786.74
 30
0.0
 40
57.5
  0
CIRCLE
  5
127
102
{ACAD_REACTORS
330
5B2
102
}
330
1F
100
AcDbEntity
  8
LC-002-002-----0
 62
     7
370
    50
100
AcDbCircle
 10
616.077752
 20
1786.74
 30
0.0
 40
46.0
  0
CIRCLE
  5
128
102
{ACAD_REACTORS
330
5B2
102
}
330
1F
100
AcDbEntity
  8
LC-002-002-----0
 62
     7
370
    50
100
AcDbCircle
 10
1014.077752
 20
1735.74
 30
0.0
 40
57.5
  0
LINE
  5
129
102
{ACAD_REACTORS
330
5B2
102
}
330
1F
100
AcDbEntity
  8
LC-002-002-----0
 62
     7
370
    25
100
AcDbLine
 10
846.637936
 20
1794.54452
 30
0.0
 11
846.075134
 21
1498.465754
 31
0.0
  0
LINE
  5
12A
102
{ACAD_REACTORS
330
5B2
102
}
330
1F
100
AcDbEntity
  8
LC-002-002-----0
 62
     7
370
    25
100
AcDbLine
 10
870.336095
 20
1795.710183
 30
0.0
 11
870.30441
 21
1496.635075
 31
0.0
  0
LINE
  5
12B
102
{ACAD_REACTORS
330
5B2
102
}
330
1F
100
AcDbEntity
  8
LC-002-002-----0
 62
     7
370
    25
100
AcDbLine
 10
1157.839887
 20
1795.710188
 30
0.0
 11
1157.871683
 21
1496.635067
 31
0.0
  0
LINE
  5
12C
102
{ACAD_REACTORS
330
5B2
102
}
330
1F
100
AcDbEntity
  8
LC-002-002-----0
 62
     7
370
    25
100
AcDbLine
 10
1181.538202
 20
1794.544506
 30
0.0
 11
1182.100898
 21
1498.465623
 31
0.0
  0
LINE
  5
12D
102
{ACAD_REACTORS
330
5B2
102
}
330
1F
100
AcDbEntity
  8
LC-002-002-----0
 62
     7
370
    25
100
AcDbLine
 10
1144.371682
 20
1483.133632
 30
0.0
 11
883.804409
 21
1483.133645
 31
0.0
  0
LINE
  5
12E
102
{ACAD_REACTORS
330
5B2
102
}
330
1F
100
AcDbEntity
  8
LC-002-002-----0
 62
     7
370
    25
100
AcDbLine
 10
885.075046
 20
1459.391621
 30
0.0
 11
1143.100951
 21
1459.391504
 31
0.0
  0
LINE
  5
12F
102
{ACAD_REACTORS
330
5B2
102
}
330
1F
100
AcDbEntity
  8
LC-002-002-----0
 62
     7
370
    25
100
AcDbLine
 10
783.508237
 20
1845.556845
 30
0.0
 11
784.27715
 21
1498.26502
 31
0.0
  0
LINE
  5
130
102
{ACAD_REACTORS
330
5B2
102
}
330
1F
100
AcDbEntity
  8
LC-002-002-----0
 62
     7
370
    25
100
AcDbLine
 10
759.954778
 20
1496.386816
 30
0.0
 11
759.809703
 21
1846.714351
 31
0.0
  0
LINE
  5
131
102
{ACAD_REACTORS
330
5B2
102
}
330
1F
100
AcDbEntity
  8
LC-002-002-----0
 62
     7
370
    25
100
AcDbLine
 10
487.617062
 20
1884.470618
 30
0.0
 11
744.50835
 21
1884.470498
 31
0.0
  0
LINE
  5
132
102
{ACAD_REACTORS
330
5B2
102
}
330
1F
100
AcDbEntity
  8
LC-002-002-----0
 62
     7
370
    25
100
AcDbLine
 10
746.309704
 20
1860.20876
 30
0.0
 11
485.815635
 21
1860.208768
 31
0.0
  0
LINE
  5
133
102
{ACAD_REACTORS
330
5B2
102
}
330
1F
100
AcDbEntity
  8
LC-002-002-----0
 62
     7
370
    25
100
AcDbLine
 10
448.617139
 20
1845.556965
 30
0.0
 11
447.848228
 21
1498.264904
 31
0.0
  0
LINE
  5
134
102
{ACAD_REACTORS
330
5B2
102
}
330
1F
100
AcDbEntity
  8
LC-002-002-----0
 62
     7
370
    25
100
AcDbLine
 10
472.170496
 20
1496.386794
 30
0.0
 11
472.315636
 21
1846.714361
 31
0.0
  0
LINE
  5
135
102
{ACAD_REACTORS
330
5B2
102
}
330
1F
100
AcDbEntity
  8
LC-002-002-----0
 62
     7
370
    25
100
AcDbLine
 10
485.670496
 20
1482.881201
 30
0.0
 11
746.45478
 21
1482.881226
 31
0.0
  0
LINE
  5
136
102
{ACAD_REACTORS
330
5B2
102
}
330
1F
100
AcDbEntity
  8
LC-002-002-----0
 62
     7
370
    25
100
AcDbLine
 10
486.84815
 20
1459.178557
 30
0.0
 11
745.277263
 21
1459.178674
 31
0.0
  0
ARC
  5
137
102
{ACAD_REACTORS
330
5B2
102
}
330
1F
100
AcDbEntity
  8
LC-004-002-RND-0
 62
     7
370
    25
100
AcDbCircle
 10
487.617044
 20
1845.470618
 30
0.0
 40
38.99999999999994
100
AcDbArc
 50
89.999973
 51
179.873146
  0
ARC
  5
138
102
{ACAD_REACTORS
330
5B2
102
}
330
1F
100
AcDbEntity
  8
LC-004-002-RND-0
 62
     7
370
    25
100
AcDbCircle
 10
485.815635
 20
1846.708768
 30
0.0
 40
13.50000000000001
100
AcDbArc
 50
89.999998
 51
179.976262
  0
ARC
  5
139
102
{ACAD_REACTORS
330
5B2
102
}
330
1F
100
AcDbEntity
  8
LC-004-002-RND-0
 62
     7
370
    25
100
AcDbCircle
 10
883.836095
 20
1795.708753
 30
0.0
 40
13.5
100
AcDbArc
 50
90.0
 51
179.99393
  0
ARC
  5
13A
102
{ACAD_REACTORS
330
5B2
102
}
330
1F
100
AcDbEntity
  8
LC-004-002-RND-0
 62
     7
370
    25
100
AcDbCircle
 10
885.637866
 20
1794.470387
 30
0.0
 40
39.0
100
AcDbArc
 50
90.0
 51
179.891089
  0
ARC
  5
13B
102
{ACAD_REACTORS
330
5B2
102
}
330
1F
100
AcDbEntity
  8
LC-004-002-RND-0
 62
     7
370
    25
100
AcDbCircle
 10
744.508332
 20
1845.470498
 30
0.0
 40
38.99999999999989
100
AcDbArc
 50
0.126854
 51
89.999973
  0
ARC
  5
13C
102
{ACAD_REACTORS
330
5B2
102
}
330
1F
100
AcDbEntity
  8
LC-004-002-RND-0
 62
     7
370
    25
100
AcDbCircle
 10
1142.538272
 20
1794.470387
 30
0.0
 40
39.00000000000008
100
AcDbArc
 50
0.10889
 51
90.0
  0
ARC
  5
13D
102
{ACAD_REACTORS
330
5B2
102
}
330
1F
100
AcDbEntity
  8
LC-004-002-RND-0
 62
     7
370
    25
100
AcDbCircle
 10
1143.100969
 20
1498.391504
 30
0.0
 40
38.99999999999994
100
AcDbArc
 50
269.999974
 51
0.10889
  0
ARC
  5
13E
102
{ACAD_REACTORS
330
5B2
102
}
330
1F
100
AcDbEntity
  8
LC-004-002-RND-0
 62
     7
370
    25
100
AcDbCircle
 10
885.075063
 20
1498.391621
 30
0.0
 40
39.00000000000001
100
AcDbArc
 50
179.891089
 51
269.999974
  0
ARC
  5
13F
102
{ACAD_REACTORS
330
5B2
102
}
330
1F
100
AcDbEntity
  8
LC-004-002-RND-0
 62
     7
370
    25
100
AcDbCircle
 10
745.277246
 20
1498.178674
 30
0.0
 40
39.00000000000008
100
AcDbArc
 50
270.000026
 51
0.126854
  0
ARC
  5
140
102
{ACAD_REACTORS
330
5B2
102
}
330
1F
100
AcDbEntity
  8
LC-004-002-RND-0
 62
     7
370
    25
100
AcDbCircle
 10
486.848132
 20
1498.178557
 30
0.0
 40
38.99999999999995
100
AcDbArc
 50
179.873146
 51
270.000026
  0
ARC
  5
141
102
{ACAD_REACTORS
330
5B2
102
}
330
1F
100
AcDbEntity
  8
LC-004-002-RND-0
 62
     7
370
    25
100
AcDbCircle
 10
746.309704
 20
1846.70876
 30
0.0
 40
13.49999999999995
100
AcDbArc
 50
0.023727
 51
89.999998
  0
ARC
  5
142
102
{ACAD_REACTORS
330
5B2
102
}
330
1F
100
AcDbEntity
  8
LC-004-002-RND-0
 62
     7
370
    25
100
AcDbCircle
 10
746.454779
 20
1496.381226
 30
0.0
 40
13.50000000000006
100
AcDbArc
 50
270.000005
 51
0.023727
  0
ARC
  5
143
102
{ACAD_REACTORS
330
5B2
102
}
330
1F
100
AcDbEntity
  8
LC-004-002-RND-0
 62
     7
370
    25
100
AcDbCircle
 10
485.670495
 20
1496.381201
 30
0.0
 40
13.5
100
AcDbArc
 50
179.976262
 51
270.000005
  0
ARC
  5
144
102
{ACAD_REACTORS
330
5B2
102
}
330
1F
100
AcDbEntity
  8
LC-004-002-RND-0
 62
     7
370
    25
100
AcDbCircle
 10
883.80441
 20
1496.633645
 30
0.0
 40
13.50000000000006
100
AcDbArc
 50
179.99393
 51
269.999997
  0
ARC
  5
145
102
{ACAD_REACTORS
330
5B2
102
}
330
1F
100
AcDbEntity
  8
LC-004-002-RND-0
 62
     7
370
    25
100
AcDbCircle
 10
1144.371683
 20
1496.633632
 30
0.0
 40
13.49999999999979
100
AcDbArc
 50
269.999997
 51
0.006091
  0
ARC
  5
146
102
{ACAD_REACTORS
330
5B2
102
}
330
1F
100
AcDbEntity
  8
LC-004-002-RND-0
 62
     7
370
    25
100
AcDbCircle
 10
1144.339887
 20
1795.708753
 30
0.0
 40
13.49999999999998
100
AcDbArc
 50
0.006091
 51
90.0
  0
CIRCLE
  5
147
102
{ACAD_REACTORS
330
5B2
102
}
330
1F
100
AcDbEntity
  8
LC-002-002-----0
 62
     7
370
    50
100
AcDbCircle
 10
1014.077752
 20
1735.74
 30
0.0
 40
46.0
  0
LINE
  5
148
102
{ACAD_REACTORS
330
5B2
102
}
330
1F
100
AcDbEntity
  8
LC-002-002-----0
 62
     7
370
    50
100
AcDbLine
 10
1180.177752
 20
1441.34
 30
0.0
 11
802.147752
 21
1441.34
 31
0.0
  0
LINE
  5
149
102
{ACAD_REACTORS
330
5B2
102
}
330
1F
100
AcDbEntity
  8
LC-002-002-----0
 62
     7
370
    50
100
AcDbLine
 10
1200.177752
 20
1832.14
 30
0.0
 11
1200.177752
 21
1461.34
 31
0.0
  0
LINE
  5
14A
102
{ACAD_REACTORS
330
5B2
102
}
330
1F
100
AcDbEntity
  8
LC-002-002-----0
 62
     7
370
    50
100
AcDbLine
 10
827.147752
 20
1852.14
 30
0.0
 11
1180.177752
 21
1852.14
 31
0.0
  0
LINE
  5
14B
102
{ACAD_REACTORS
330
5B2
102
}
330
1F
100
AcDbEntity
  8
LC-002-002-----0
 62
     7
370
    50
100
AcDbLine
 10
802.147752
 20
1877.14
 30
0.0
 11
802.147752
 21
1883.14
 31
0.0
  0
LINE
  5
14C
102
{ACAD_REACTORS
330
5B2
102
}
330
1F
100
AcDbEntity
  8
LC-002-002-----0
 62
     7
370
    50
100
AcDbLine
 10
782.147752
 20
1903.14
 30
0.0
 11
449.977752
 21
1903.14
 31
0.0
  0
LINE
  5
14E
102
{ACAD_REACTORS
330
5B2
102
}
330
1F
100
AcDbEntity
  8
LC-006-100-D00-0
 62
    40
370
    -2
100
AcDbLine
 10
800.572956
 20
1461.34
 30
0.0
 11
800.572956
 21
1850.565204
 31
0.0
  0
LINE
  5
14F
102
{ACAD_REACTORS
330
5B2
102
}
330
1F
100
AcDbEntity
  8
LC-002-002-----0
 62
     7
370
    50
100
AcDbLine
 10
829.572956
 20
1850.565204
 30
0.0
 11
829.572956
 21
1461.34
 31
0.0
  0
LINE
  5
150
102
{ACAD_REACTORS
330
5B2
102
}
330
1F
100
AcDbEntity
  8
LC-002-002-----0
 62
     7
370
    50
100
AcDbLine
 10
449.977752
 20
1441.34
 30
0.0
 11
802.147752
 21
1441.34
 31
0.0
  0
LINE
  5
151
102
{ACAD_REACTORS
330
5B2
102
}
330
1F
100
AcDbEntity
  8
LC-002-002-----0
 62
     7
370
    50
100
AcDbLine
 10
429.977752
 20
1883.14
 30
0.0
 11
429.977752
 21
1461.34
 31
0.0
  0
ARC
  5
152
102
{ACAD_REACTORS
330
5B2
102
}
330
1F
100
AcDbEntity
  8
LC-002-002-----0
 62
     7
370
    50
100
AcDbCircle
 10
849.572956
 20
1461.34
 30
0.0
 40
20.0
100
AcDbArc
 50
180.0
 51
270.0
  0
ARC
  5
153
102
{ACAD_REACTORS
330
5B2
102
}
330
1F
100
AcDbEntity
  8
LC-002-002-----0
 62
     7
370
    50
100
AcDbCircle
 10
1180.177752
 20
1461.34
 30
0.0
 40
20.0
100
AcDbArc
 50
270.0
 51
0.0
  0
ARC
  5
154
102
{ACAD_REACTORS
330
5B2
102
}
330
1F
100
AcDbEntity
  8
LC-002-002-----0
 62
     7
370
    50
100
AcDbCircle
 10
1180.177752
 20
1832.14
 30
0.0
 40
20.0
100
AcDbArc
 50
0.0
 51
90.0
  0
ARC
  5
155
102
{ACAD_REACTORS
330
5B2
102
}
330
1F
100
AcDbEntity
  8
LC-002-002-----0
 62
     7
370
    50
100
AcDbCircle
 10
827.147752
 20
1877.14
 30
0.0
 40
25.0
100
AcDbArc
 50
180.0
 51
270.0
  0
ARC
  5
156
102
{ACAD_REACTORS
330
5B2
102
}
330
1F
100
AcDbEntity
  8
LC-002-002-----0
 62
     7
370
    50
100
AcDbCircle
 10
782.147752
 20
1883.14
 30
0.0
 40
20.0
100
AcDbArc
 50
0.0
 51
90.0
  0
ARC
  5
157
102
{ACAD_REACTORS
330
5B2
102
}
330
1F
100
AcDbEntity
  8
LC-002-002-----0
 62
     7
370
    50
100
AcDbCircle
 10
780.572956
 20
1461.34
 30
0.0
 40
20.0
100
AcDbArc
 50
270.0
 51
0.0
  0
ARC
  5
158
102
{ACAD_REACTORS
330
5B2
102
}
330
1F
100
AcDbEntity
  8
LC-002-002-----0
 62
     7
370
    50
100
AcDbCircle
 10
449.977752
 20
1461.34
 30
0.0
 40
20.0
100
AcDbArc
 50
180.0
 51
270.0
  0
ARC
  5
159
102
{ACAD_REACTORS
330
5B2
102
}
330
1F
100
AcDbEntity
  8
LC-002-002-----0
 62
     7
370
    50
100
AcDbCircle
 10
449.977752
 20
1883.14
 30
0.0
 40
20.0
100
AcDbArc
 50
90.0
 51
180.0
  0
ARC
  5
15B
102
{ACAD_REACTORS
330
5B2
102
}
330
1F
100
AcDbEntity
  8
LC-002-002-----0
  6
DASHDOT
 62
     7
370
    25
100
AcDbCircle
 10
1159.877752
 20
1910.64
 30
0.0
 40
19.05000000000018
100
AcDbArc
 50
180.0
 51
0.0
  0
ARC
  5
15C
102
{ACAD_REACTORS
330
5B2
102
}
330
1F
100
AcDbEntity
  8
LC-002-002-----0
  6
DASHDOT
 62
     7
370
    25
100
AcDbCircle
 10
1159.877752
 20
1910.64
 30
0.0
 40
19.04999999999973
100
AcDbArc
 50
0.0
 51
180.0
  0
ARC
  5
15D
102
{ACAD_REACTORS
330
5B2
102
}
330
1F
100
AcDbEntity
  8
LC-002-002-----0
  6
DASHDOT
 62
     7
370
    25
100
AcDbCircle
 10
1058.277752
 20
1910.64
 30
0.0
 40
19.05000000000018
100
AcDbArc
 50
180.0
 51
0.0
  0
ARC
  5
15E
102
{ACAD_REACTORS
330
5B2
102
}
330
1F
100
AcDbEntity
  8
LC-002-002-----0
  6
DASHDOT
 62
     7
370
    25
100
AcDbCircle
 10
1058.277752
 20
1910.64
 30
0.0
 40
19.04999999999973
100
AcDbArc
 50
0.0
 51
180.0
  0
ARC
  5
15F
102
{ACAD_REACTORS
330
5B2
102
}
330
1F
100
AcDbEntity
  8
LC-002-002-----0
  6
DASHDOT
 62
     7
370
    25
100
AcDbCircle
 10
956.677752
 20
1910.64
 30
0.0
 40
19.04999999999973
100
AcDbArc
 50
180.0
 51
0.0
  0
ARC
  5
160
102
{ACAD_REACTORS
330
5B2
102
}
330
1F
100
AcDbEntity
  8
LC-002-002-----0
  6
DASHDOT
 62
     7
370
    25
100
AcDbCircle
 10
956.677752
 20
1910.64
 30
0.0
 40
19.05000000000018
100
AcDbArc
 50
0.0
 51
180.0
  0
ARC
  5
161
102
{ACAD_REACTORS
330
5B2
102
}
330
1F
100
AcDbEntity
  8
LC-002-002-----0
  6
DASHDOT
 62
     7
370
    25
100
AcDbCircle
 10
855.077752
 20
1910.64
 30
0.0
 40
19.04999999999996
100
AcDbArc
 50
180.0
 51
0.0
  0
ARC
  5
162
102
{ACAD_REACTORS
330
5B2
102
}
330
1F
100
AcDbEntity
  8
LC-002-002-----0
  6
DASHDOT
 62
     7
370
    25
100
AcDbCircle
 10
855.077752
 20
1910.64
 30
0.0
 40
19.04999999999996
100
AcDbArc
 50
0.0
 51
180.0
  0
LINE
  5
163
102
{ACAD_REACTORS
330
5B2
102
}
330
1F
100
AcDbEntity
  8
LC-002-002-----0
 62
     7
370
    50
100
AcDbLine
 10
800.572956
 20
1461.34
 30
0.0
 11
800.572956
 21
1850.565204
 31
0.0
  0
ARC
  5
164
102
{ACAD_REACTORS
330
5B2
102
}
330
1F
100
AcDbEntity
  8
LC-002-002-----0
 62
     7
370
    50
100
AcDbCircle
 10
421.377752
 20
1940.74
 30
0.0
 40
25.39999999999986
100
AcDbArc
 50
90.0
 51
180.0
  0
LINE
  5
165
102
{ACAD_REACTORS
330
5B2
102
}
330
1F
100
AcDbEntity
  8
LC-002-002-----0
 62
     7
370
    50
100
AcDbLine
 10
1208.777752
 20
1966.14
 30
0.0
 11
421.377752
 21
1966.14
 31
0.0
  0
ARC
  5
166
102
{ACAD_REACTORS
330
5B2
102
}
330
1F
100
AcDbEntity
  8
LC-002-002-----0
 62
     7
370
    50
100
AcDbCircle
 10
1208.777752
 20
1940.74
 30
0.0
 40
25.40000000000009
100
AcDbArc
 50
0.0
 51
90.0
  0
LINE
  5
167
102
{ACAD_REACTORS
330
5B2
102
}
330
1F
100
AcDbEntity
  8
LC-002-002-----0
 62
     7
370
    50
100
AcDbLine
 10
1234.177752
 20
1432.74
 30
0.0
 11
1234.177752
 21
1940.74
 31
0.0
  0
ARC
  5
168
102
{ACAD_REACTORS
330
5B2
102
}
330
1F
100
AcDbEntity
  8
LC-002-002-----0
 62
     7
370
    50
100
AcDbCircle
 10
1208.777752
 20
1432.74
 30
0.0
 40
25.39999999999986
100
AcDbArc
 50
270.0
 51
0.0
  0
LINE
  5
169
102
{ACAD_REACTORS
330
5B2
102
}
330
1F
100
AcDbEntity
  8
LC-002-002-----0
 62
     7
370
    50
100
AcDbLine
 10
421.377752
 20
1407.34
 30
0.0
 11
1208.777752
 21
1407.34
 31
0.0
  0
ARC
  5
16A
102
{ACAD_REACTORS
330
5B2
102
}
330
1F
100
AcDbEntity
  8
LC-002-002-----0
 62
     7
370
    50
100
AcDbCircle
 10
421.377752
 20
1432.74
 30
0.0
 40
25.39999999999998
100
AcDbArc
 50
180.0
 51
270.0
  0
LINE
  5
16B
102
{ACAD_REACTORS
330
5B2
102
}
330
1F
100
AcDbEntity
  8
LC-002-002-----0
 62
     7
370
    50
100
AcDbLine
 10
395.977752
 20
1940.74
 30
0.0
 11
395.977752
 21
1432.74
 31
0.0
  0
LINE
  5
16C
102
{ACAD_REACTORS
330
5B7
102
}
330
1F
100
AcDbEntity
  8
LC-002-002-----0
 62
     7
370
    50
100
AcDbLine
 10
395.977752
 20
2641.24
 30
0.0
 11
409.977752
 21
2641.24
 31
0.0
  0
LINE
  5
16D
102
{ACAD_REACTORS
330
5B7
102
}
330
1F
100
AcDbEntity
  8
LC-002-002-----0
 62
     7
370
    50
100
AcDbLine
 10
1234.177752
 20
2641.24
 30
0.0
 11
1220.177752
 21
2641.24
 31
0.0
  0
LINE
  5
16E
102
{ACAD_REACTORS
330
5B7
102
}
330
1F
100
AcDbEntity
  8
LC-002-002-----0
 62
     7
370
    50
100
AcDbLine
 10
409.977752
 20
2639.74
 30
0.0
 11
409.977752
 21
2641.24
 31
0.0
  0
LINE
  5
16F
102
{ACAD_REACTORS
330
5B7
102
}
330
1F
100
AcDbEntity
  8
LC-002-002-----0
 62
     7
370
    50
100
AcDbLine
 10
1220.177752
 20
2639.74
 30
0.0
 11
1220.177752
 21
2641.24
 31
0.0
  0
ARC
  5
170
102
{ACAD_REACTORS
330
5B7
102
}
330
1F
100
AcDbEntity
  8
LC-004-002-RND-0
 62
     7
370
    50
100
AcDbCircle
 10
758.547299
 20
2437.727374
 30
0.0
 40
25.00000000000002
100
AcDbArc
 50
273.0
 51
355.0
  0
ARC
  5
171
102
{ACAD_REACTORS
330
5B7
102
}
330
1F
100
AcDbEntity
  8
LC-004-002-RND-0
 62
     7
370
    50
100
AcDbCircle
 10
758.459287
 20
2436.721389
 30
0.0
 40
33.00000000000006
100
AcDbArc
 50
273.0
 51
355.0
  0
LINE
  5
172
102
{ACAD_REACTORS
330
5B7
102
}
330
1F
100
AcDbEntity
  8
LC-005-006-MLN-0
 62
     7
370
    25
100
AcDbLine
 10
1013.970711
 20
2391.185131
 30
0.0
 11
1013.970711
 21
2411.306446
 31
0.0
  0
LINE
  5
173
102
{ACAD_REACTORS
330
5B7
102
}
330
1F
100
AcDbEntity
  8
LC-002-002-----0
 62
     7
370
    50
100
AcDbLine
 10
1059.970711
 20
2394.185131
 30
0.0
 11
1059.970711
 21
2404.224219
 31
0.0
  0
LINE
  5
174
102
{ACAD_REACTORS
330
5B7
102
}
330
1F
100
AcDbEntity
  8
LC-002-002-----0
 62
     7
370
    50
100
AcDbLine
 10
967.970711
 20
2404.261967
 30
0.0
 11
1059.970711
 21
2404.261967
 31
0.0
  0
LINE
  5
175
102
{ACAD_REACTORS
330
5B7
102
}
330
1F
100
AcDbEntity
  8
LC-002-002-----0
 62
     7
370
    50
100
AcDbLine
 10
967.970711
 20
2394.185131
 30
0.0
 11
967.970711
 21
2404.261967
 31
0.0
  0
LINE
  5
176
102
{ACAD_REACTORS
330
5B7
102
}
330
1F
100
AcDbEntity
  8
LC-005-006-MLN-0
 62
     7
370
    25
100
AcDbLine
 10
615.886999
 20
2391.185131
 30
0.0
 11
615.886999
 21
2411.306446
 31
0.0
  0
LINE
  5
177
102
{ACAD_REACTORS
330
5B7
102
}
330
1F
100
AcDbEntity
  8
LC-002-002-----0
 62
     7
370
    50
100
AcDbLine
 10
615.886999
 20
2649.24
 30
0.0
 11
1013.970711
 21
2649.24
 31
0.0
  0
LINE
  5
178
102
{ACAD_REACTORS
330
5B7
102
}
330
1F
100
AcDbEntity
  8
LC-002-002-----0
 62
     7
370
    50
100
AcDbLine
 10
661.886999
 20
2394.185131
 30
0.0
 11
661.886999
 21
2404.209458
 31
0.0
  0
LINE
  5
179
102
{ACAD_REACTORS
330
5B7
102
}
330
1F
100
AcDbEntity
  8
LC-002-002-----0
 62
     7
370
    50
100
AcDbLine
 10
569.886999
 20
2404.276728
 30
0.0
 11
661.886999
 21
2404.276728
 31
0.0
  0
LINE
  5
17A
102
{ACAD_REACTORS
330
5B7
102
}
330
1F
100
AcDbEntity
  8
LC-002-002-----0
 62
     7
370
    50
100
AcDbLine
 10
569.886999
 20
2394.185131
 30
0.0
 11
569.886999
 21
2404.276728
 31
0.0
  0
LINE
  5
17B
102
{ACAD_REACTORS
330
5B7
102
}
330
1F
100
AcDbEntity
  8
LC-002-002-----0
 62
     7
370
    50
100
AcDbLine
 10
570.077752
 20
2394.185131
 30
0.0
 11
662.077752
 21
2394.185131
 31
0.0
  0
LINE
  5
17C
102
{ACAD_REACTORS
330
5B7
102
}
330
1F
100
AcDbEntity
  8
LC-002-002-----0
 62
     7
370
    50
100
AcDbLine
 10
1060.077752
 20
2394.185131
 30
0.0
 11
968.077752
 21
2394.185131
 31
0.0
  0
LINE
  5
17D
102
{ACAD_REACTORS
330
5B7
102
}
330
1F
100
AcDbEntity
  8
LC-002-002-----0
 62
     7
370
    25
100
AcDbLine
 10
1071.090298
 20
2408.306446
 30
0.0
 11
956.851123
 21
2408.306446
 31
0.0
  0
LINE
  5
17E
102
{ACAD_REACTORS
330
5B7
102
}
330
1F
100
AcDbEntity
  8
LC-002-002-----0
 62
     7
370
    25
100
AcDbLine
 10
673.265395
 20
2408.306446
 30
0.0
 11
558.508604
 21
2408.306446
 31
0.0
  0
LINE
  5
17F
102
{ACAD_REACTORS
330
5B7
102
}
330
1F
100
AcDbEntity
  8
LC-002-002-----0
 62
     7
370
    50
100
AcDbLine
 10
1205.159408
 20
2649.24
 30
0.0
 11
1013.970711
 21
2649.24
 31
0.0
  0
LINE
  5
180
102
{ACAD_REACTORS
330
5B7
102
}
330
1F
100
AcDbEntity
  8
LC-002-002-----0
 62
     7
370
    50
100
AcDbLine
 10
430.37707
 20
2644.675779
 30
0.0
 11
448.673199
 21
2435.55006
 31
0.0
  0
ARC
  5
181
102
{ACAD_REACTORS
330
5B7
102
}
330
1F
100
AcDbEntity
  8
LC-002-002-----0
 62
     7
370
    50
100
AcDbCircle
 10
473.578067
 20
2437.728953
 30
0.0
 40
25.00000000000004
100
AcDbArc
 50
185.00077
 51
266.998293
  0
LINE
  5
182
102
{ACAD_REACTORS
330
5B7
102
}
330
1F
100
AcDbEntity
  8
LC-002-002-----0
 62
     7
370
    50
100
AcDbLine
 10
472.269668
 20
2412.763215
 30
0.0
 11
557.536037
 21
2408.294594
 31
0.0
  0
ARC
  5
183
102
{ACAD_REACTORS
330
5B7
102
}
330
1F
100
AcDbEntity
  8
LC-002-002-----0
 62
     7
370
    50
100
AcDbCircle
 10
557.473234
 20
2407.096238
 30
0.0
 40
1.199999999999933
100
AcDbArc
 50
5.0
 51
87.0
  0
LINE
  5
184
102
{ACAD_REACTORS
330
5B7
102
}
330
1F
100
AcDbEntity
  8
LC-002-002-----0
 62
     7
370
    50
100
AcDbLine
 10
558.668668
 20
2407.200825
 30
0.0
 11
558.685852
 21
2407.004407
 31
0.0
  0
ARC
  5
185
102
{ACAD_REACTORS
330
5B7
102
}
330
1F
100
AcDbEntity
  8
LC-002-002-----0
 62
     7
370
    50
100
AcDbCircle
 10
559.682047
 20
2407.091563
 30
0.0
 40
0.9999999999999896
100
AcDbArc
 50
185.0
 51
260.0
  0
LINE
  5
186
102
{ACAD_REACTORS
330
5B7
102
}
330
1F
100
AcDbEntity
  8
LC-002-002-----0
 62
     7
370
    50
100
AcDbLine
 10
559.508399
 20
2406.106755
 30
0.0
 11
569.886999
 21
2404.276728
 31
0.0
  0
LINE
  5
187
102
{ACAD_REACTORS
330
5B7
102
}
330
1F
100
AcDbEntity
  8
LC-002-002-----0
 62
     7
370
    50
100
AcDbLine
 10
672.647105
 20
2406.106755
 30
0.0
 11
661.886999
 21
2404.209458
 31
0.0
  0
ARC
  5
188
102
{ACAD_REACTORS
330
5B7
102
}
330
1F
100
AcDbEntity
  8
LC-002-002-----0
 62
     7
370
    50
100
AcDbCircle
 10
672.473457
 20
2407.091563
 30
0.0
 40
0.9999999999999827
100
AcDbArc
 50
280.0
 51
355.0
  0
LINE
  5
189
102
{ACAD_REACTORS
330
5B7
102
}
330
1F
100
AcDbEntity
  8
LC-002-002-----0
 62
     7
370
    50
100
AcDbLine
 10
673.486836
 20
2407.200825
 30
0.0
 11
673.469652
 21
2407.004407
 31
0.0
  0
ARC
  5
18A
102
{ACAD_REACTORS
330
5B7
102
}
330
1F
100
AcDbEntity
  8
LC-002-002-----0
 62
     7
370
    50
100
AcDbCircle
 10
674.68227
 20
2407.096238
 30
0.0
 40
1.199999999999712
100
AcDbArc
 50
93.0
 51
175.0
  0
LINE
  5
18B
102
{ACAD_REACTORS
330
5B7
102
}
330
1F
100
AcDbEntity
  8
LC-002-002-----0
 62
     7
370
    50
100
AcDbLine
 10
759.855698
 20
2412.761635
 30
0.0
 11
674.619466
 21
2408.294594
 31
0.0
  0
LINE
  5
18C
102
{ACAD_REACTORS
330
5B7
102
}
330
1F
100
AcDbEntity
  8
LC-002-002-----0
 62
     7
370
    50
100
AcDbLine
 10
760.186373
 20
2403.766614
 30
0.0
 11
685.226019
 21
2399.838109
 31
0.0
  0
ARC
  5
18D
102
{ACAD_REACTORS
330
5B7
102
}
330
1F
100
AcDbEntity
  8
LC-002-002-----0
 62
     7
370
    50
100
AcDbCircle
 10
685.540035
 20
2393.846331
 30
0.0
 40
5.999999999999963
100
AcDbArc
 50
93.0
 51
155.0
  0
LINE
  5
18E
102
{ACAD_REACTORS
330
5B7
102
}
330
1F
100
AcDbEntity
  8
LC-002-002-----0
 62
     7
370
    50
100
AcDbLine
 10
680.102188
 20
2396.382041
 30
0.0
 11
679.616227
 21
2395.339894
 31
0.0
  0
ARC
  5
18F
102
{ACAD_REACTORS
330
5B7
102
}
330
1F
100
AcDbEntity
  8
LC-002-002-----0
 62
     7
370
    50
100
AcDbCircle
 10
677.803611
 20
2396.185131
 30
0.0
 40
2.0
100
AcDbArc
 50
270.0
 51
335.0
  0
LINE
  5
190
102
{ACAD_REACTORS
330
5B7
102
}
330
1F
100
AcDbEntity
  8
LC-002-002-----0
 62
     7
370
    50
100
AcDbLine
 10
554.351892
 20
2394.185131
 30
0.0
 11
677.803611
 21
2394.185131
 31
0.0
  0
ARC
  5
191
102
{ACAD_REACTORS
330
5B7
102
}
330
1F
100
AcDbEntity
  8
LC-002-002-----0
 62
     7
370
    50
100
AcDbCircle
 10
554.351892
 20
2396.185131
 30
0.0
 40
2.000000000000321
100
AcDbArc
 50
205.0
 51
270.0
  0
LINE
  5
192
102
{ACAD_REACTORS
330
5B7
102
}
330
1F
100
AcDbEntity
  8
LC-002-002-----0
 62
     7
370
    50
100
AcDbLine
 10
552.053316
 20
2396.382041
 30
0.0
 11
552.539277
 21
2395.339894
 31
0.0
  0
ARC
  5
193
102
{ACAD_REACTORS
330
5B7
102
}
330
1F
100
AcDbEntity
  8
LC-002-002-----0
 62
     7
370
    50
100
AcDbCircle
 10
546.615469
 20
2393.846331
 30
0.0
 40
5.999999999999981
100
AcDbArc
 50
25.0
 51
87.0
  0
LINE
  5
194
102
{ACAD_REACTORS
330
5B7
102
}
330
1F
100
AcDbEntity
  8
LC-002-002-----0
 62
     7
370
    50
100
AcDbLine
 10
471.938992
 20
2403.768194
 30
0.0
 11
546.929485
 21
2399.838109
 31
0.0
  0
ARC
  5
195
102
{ACAD_REACTORS
330
5B7
102
}
330
1F
100
AcDbEntity
  8
LC-002-002-----0
 62
     7
370
    50
100
AcDbCircle
 10
473.666079
 20
2436.722968
 30
0.0
 40
33.00000000000001
100
AcDbArc
 50
185.000542
 51
266.998549
  0
LINE
  5
196
102
{ACAD_REACTORS
330
5B7
102
}
330
1F
100
AcDbEntity
  8
LC-002-002-----0
 62
     7
370
    50
100
AcDbLine
 10
423.177653
 20
2635.175779
 30
0.0
 11
440.791654
 21
2433.846829
 31
0.0
  0
ARC
  5
197
102
{ACAD_REACTORS
330
5B7
102
}
330
1F
100
AcDbEntity
  8
LC-002-002-----0
 62
     7
370
    50
100
AcDbCircle
 10
418.19668
 20
2634.74
 30
0.0
 40
5.000000000000034
100
AcDbArc
 50
5.0
 51
90.0
  0
LINE
  5
198
102
{ACAD_REACTORS
330
5B7
102
}
330
1F
100
AcDbEntity
  8
LC-002-002-----0
 62
     7
370
    50
100
AcDbLine
 10
409.977752
 20
2639.74
 30
0.0
 11
418.19668
 21
2639.74
 31
0.0
  0
LINE
  5
199
102
{ACAD_REACTORS
330
5B7
102
}
330
1F
100
AcDbEntity
  8
LC-002-002-----0
 62
     7
370
    50
100
AcDbLine
 10
395.977752
 20
2641.24
 30
0.0
 11
396.276971
 21
2645.519026
 31
0.0
  0
ARC
  5
19A
102
{ACAD_REACTORS
330
5B7
102
}
330
1F
100
AcDbEntity
  8
LC-002-002-----0
 62
     7
370
    50
100
AcDbCircle
 10
400.267227
 20
2645.24
 30
0.0
 40
4.0
100
AcDbArc
 50
90.0
 51
176.0
  0
LINE
  5
19B
102
{ACAD_REACTORS
330
5B7
102
}
330
1F
100
AcDbEntity
  8
LC-002-002-----0
 62
     7
370
    50
100
AcDbLine
 10
400.267227
 20
2649.24
 30
0.0
 11
425.396096
 21
2649.24
 31
0.0
  0
ARC
  5
19C
102
{ACAD_REACTORS
330
5B7
102
}
330
1F
100
AcDbEntity
  8
LC-002-002-----0
 62
     7
370
    50
100
AcDbCircle
 10
425.396096
 20
2644.24
 30
0.0
 40
5.000000000000034
100
AcDbArc
 50
5.0
 51
90.0
  0
LINE
  5
19D
102
{ACAD_REACTORS
330
5B7
102
}
330
1F
100
AcDbEntity
  8
LC-002-002-----0
 62
     7
370
    50
100
AcDbLine
 10
800.173638
 20
2626.675779
 30
0.0
 11
783.452166
 21
2435.54848
 31
0.0
  0
ARC
  5
19E
102
{ACAD_REACTORS
330
5B7
102
}
330
1F
100
AcDbEntity
  8
LC-002-002-----0
 62
     7
370
    50
100
AcDbCircle
 10
805.154612
 20
2626.24
 30
0.0
 40
5.0
100
AcDbArc
 50
90.0
 51
175.0
  0
LINE
  5
19F
102
{ACAD_REACTORS
330
5B7
102
}
330
1F
100
AcDbEntity
  8
LC-002-002-----0
 62
     7
370
    50
100
AcDbLine
 10
805.154612
 20
2631.24
 30
0.0
 11
824.9913
 21
2631.24
 31
0.0
  0
ARC
  5
1A0
102
{ACAD_REACTORS
330
5B7
102
}
330
1F
100
AcDbEntity
  8
LC-002-002-----0
 62
     7
370
    50
100
AcDbCircle
 10
824.9913
 20
2626.24
 30
0.0
 40
4.99999999999992
100
AcDbArc
 50
5.0
 51
90.0
  0
LINE
  5
1A1
102
{ACAD_REACTORS
330
5B7
102
}
330
1F
100
AcDbEntity
  8
LC-002-002-----0
 62
     7
370
    50
100
AcDbLine
 10
829.972274
 20
2626.675779
 30
0.0
 11
846.693701
 21
2435.548985
 31
0.0
  0
ARC
  5
1A2
102
{ACAD_REACTORS
330
5B7
102
}
330
1F
100
AcDbEntity
  8
LC-002-002-----0
 62
     7
370
    50
100
AcDbCircle
 10
871.598569
 20
2437.727879
 30
0.0
 40
24.99999999999987
100
AcDbArc
 50
185.000766
 51
266.998289
  0
LINE
  5
1A3
102
{ACAD_REACTORS
330
5B7
102
}
330
1F
100
AcDbEntity
  8
LC-002-002-----0
 62
     7
370
    50
100
AcDbLine
 10
870.29017
 20
2412.76214
 30
0.0
 11
955.536037
 21
2408.294594
 31
0.0
  0
ARC
  5
1A4
102
{ACAD_REACTORS
330
5B7
102
}
330
1F
100
AcDbEntity
  8
LC-002-002-----0
 62
     7
370
    50
100
AcDbCircle
 10
955.473234
 20
2407.096238
 30
0.0
 40
1.199999999999819
100
AcDbArc
 50
5.0
 51
87.0
  0
LINE
  5
1A5
102
{ACAD_REACTORS
330
5B7
102
}
330
1F
100
AcDbEntity
  8
LC-002-002-----0
 62
     7
370
    50
100
AcDbLine
 10
956.668668
 20
2407.200825
 30
0.0
 11
956.685852
 21
2407.004407
 31
0.0
  0
ARC
  5
1A6
102
{ACAD_REACTORS
330
5B7
102
}
330
1F
100
AcDbEntity
  8
LC-002-002-----0
 62
     7
370
    50
100
AcDbCircle
 10
957.682047
 20
2407.091563
 30
0.0
 40
1.000000000000103
100
AcDbArc
 50
185.0
 51
260.0
  0
LINE
  5
1A7
102
{ACAD_REACTORS
330
5B7
102
}
330
1F
100
AcDbEntity
  8
LC-002-002-----0
 62
     7
370
    50
100
AcDbLine
 10
957.508399
 20
2406.106755
 30
0.0
 11
967.970711
 21
2404.261967
 31
0.0
  0
LINE
  5
1A8
102
{ACAD_REACTORS
330
5B7
102
}
330
1F
100
AcDbEntity
  8
LC-002-002-----0
 62
     7
370
    50
100
AcDbLine
 10
1070.647105
 20
2406.106755
 30
0.0
 11
1059.970711
 21
2404.224219
 31
0.0
  0
ARC
  5
1A9
102
{ACAD_REACTORS
330
5B7
102
}
330
1F
100
AcDbEntity
  8
LC-002-002-----0
 62
     7
370
    50
100
AcDbCircle
 10
1070.473457
 20
2407.091563
 30
0.0
 40
0.9999999999999629
100
AcDbArc
 50
280.0
 51
355.0
  0
LINE
  5
1AA
102
{ACAD_REACTORS
330
5B7
102
}
330
1F
100
AcDbEntity
  8
LC-002-002-----0
 62
     7
370
    50
100
AcDbLine
 10
1071.486836
 20
2407.200825
 30
0.0
 11
1071.469652
 21
2407.004407
 31
0.0
  0
ARC
  5
1AB
102
{ACAD_REACTORS
330
5B7
102
}
330
1F
100
AcDbEntity
  8
LC-002-002-----0
 62
     7
370
    50
100
AcDbCircle
 10
1072.68227
 20
2407.096238
 30
0.0
 40
1.199999999999598
100
AcDbArc
 50
93.0
 51
175.0
  0
LINE
  5
1AC
102
{ACAD_REACTORS
330
5B7
102
}
330
1F
100
AcDbEntity
  8
LC-002-002-----0
 62
     7
370
    50
100
AcDbLine
 10
1157.885836
 20
2412.763215
 30
0.0
 11
1072.619466
 21
2408.294594
 31
0.0
  0
ARC
  5
1AD
102
{ACAD_REACTORS
330
5B7
102
}
330
1F
100
AcDbEntity
  8
LC-002-002-----0
 62
     7
370
    50
100
AcDbCircle
 10
1156.577437
 20
2437.728953
 30
0.0
 40
24.99999999999985
100
AcDbArc
 50
273.001117
 51
354.999166
  0
LINE
  5
1AE
102
{ACAD_REACTORS
330
5B7
102
}
330
1F
100
AcDbEntity
  8
LC-002-002-----0
 62
     7
370
    50
100
AcDbLine
 10
1199.778434
 20
2644.675779
 30
0.0
 11
1181.482305
 21
2435.55006
 31
0.0
  0
ARC
  5
1AF
102
{ACAD_REACTORS
330
5B7
102
}
330
1F
100
AcDbEntity
  8
LC-002-002-----0
 62
     7
370
    50
100
AcDbCircle
 10
1204.759408
 20
2644.24
 30
0.0
 40
5.0
100
AcDbArc
 50
90.0
 51
175.0
  0
LINE
  5
1B0
102
{ACAD_REACTORS
330
5B7
102
}
330
1F
100
AcDbEntity
  8
LC-002-002-----0
 62
     7
370
    50
100
AcDbLine
 10
1229.888277
 20
2649.24
 30
0.0
 11
1204.759408
 21
2649.24
 31
0.0
  0
ARC
  5
1B1
102
{ACAD_REACTORS
330
5B7
102
}
330
1F
100
AcDbEntity
  8
LC-002-002-----0
 62
     7
370
    50
100
AcDbCircle
 10
1229.888277
 20
2645.24
 30
0.0
 40
4.000000000000019
100
AcDbArc
 50
4.0
 51
90.0
  0
LINE
  5
1B2
102
{ACAD_REACTORS
330
5B7
102
}
330
1F
100
AcDbEntity
  8
LC-002-002-----0
 62
     7
370
    50
100
AcDbLine
 10
1234.177752
 20
2641.24
 30
0.0
 11
1233.878533
 21
2645.519026
 31
0.0
  0
LINE
  5
1B3
102
{ACAD_REACTORS
330
5B7
102
}
330
1F
100
AcDbEntity
  8
LC-002-002-----0
 62
     7
370
    50
100
AcDbLine
 10
1220.177752
 20
2639.74
 30
0.0
 11
1211.958824
 21
2639.74
 31
0.0
  0
ARC
  5
1B4
102
{ACAD_REACTORS
330
5B7
102
}
330
1F
100
AcDbEntity
  8
LC-002-002-----0
 62
     7
370
    50
100
AcDbCircle
 10
1211.958824
 20
2634.74
 30
0.0
 40
5.0
100
AcDbArc
 50
90.0
 51
175.0
  0
LINE
  5
1B5
102
{ACAD_REACTORS
330
5B7
102
}
330
1F
100
AcDbEntity
  8
LC-002-002-----0
 62
     7
370
    50
100
AcDbLine
 10
1206.977851
 20
2635.175779
 30
0.0
 11
1189.36385
 21
2433.846829
 31
0.0
  0
ARC
  5
1B6
102
{ACAD_REACTORS
330
5B7
102
}
330
1F
100
AcDbEntity
  8
LC-002-002-----0
 62
     7
370
    50
100
AcDbCircle
 10
1156.489425
 20
2436.722968
 30
0.0
 40
33.00000000000034
100
AcDbArc
 50
273.00077
 51
354.999478
  0
LINE
  5
1B7
102
{ACAD_REACTORS
330
5B7
102
}
330
1F
100
AcDbEntity
  8
LC-002-002-----0
 62
     7
370
    50
100
AcDbLine
 10
1158.216511
 20
2403.768194
 30
0.0
 11
1083.226019
 21
2399.838109
 31
0.0
  0
ARC
  5
1B8
102
{ACAD_REACTORS
330
5B7
102
}
330
1F
100
AcDbEntity
  8
LC-002-002-----0
 62
     7
370
    50
100
AcDbCircle
 10
1083.540035
 20
2393.846331
 30
0.0
 40
5.99999999999979
100
AcDbArc
 50
93.0
 51
155.0
  0
LINE
  5
1B9
102
{ACAD_REACTORS
330
5B7
102
}
330
1F
100
AcDbEntity
  8
LC-002-002-----0
 62
     7
370
    50
100
AcDbLine
 10
1078.102188
 20
2396.382041
 30
0.0
 11
1077.616227
 21
2395.339894
 31
0.0
  0
ARC
  5
1BA
102
{ACAD_REACTORS
330
5B7
102
}
330
1F
100
AcDbEntity
  8
LC-002-002-----0
 62
     7
370
    50
100
AcDbCircle
 10
1075.803611
 20
2396.185131
 30
0.0
 40
2.0
100
AcDbArc
 50
270.0
 51
335.0
  0
LINE
  5
1BB
102
{ACAD_REACTORS
330
5B7
102
}
330
1F
100
AcDbEntity
  8
LC-002-002-----0
 62
     7
370
    50
100
AcDbLine
 10
952.351892
 20
2394.185131
 30
0.0
 11
1075.803611
 21
2394.185131
 31
0.0
  0
ARC
  5
1BC
102
{ACAD_REACTORS
330
5B7
102
}
330
1F
100
AcDbEntity
  8
LC-002-002-----0
 62
     7
370
    50
100
AcDbCircle
 10
952.351892
 20
2396.185131
 30
0.0
 40
2.000000000000308
100
AcDbArc
 50
205.0
 51
270.0
  0
LINE
  5
1BD
102
{ACAD_REACTORS
330
5B7
102
}
330
1F
100
AcDbEntity
  8
LC-002-002-----0
 62
     7
370
    50
100
AcDbLine
 10
950.053316
 20
2396.382041
 30
0.0
 11
950.539277
 21
2395.339894
 31
0.0
  0
ARC
  5
1BE
102
{ACAD_REACTORS
330
5B7
102
}
330
1F
100
AcDbEntity
  8
LC-002-002-----0
 62
     7
370
    50
100
AcDbCircle
 10
944.615469
 20
2393.846331
 30
0.0
 40
5.999999999999844
100
AcDbArc
 50
25.0
 51
87.0
  0
LINE
  5
1BF
102
{ACAD_REACTORS
330
5B7
102
}
330
1F
100
AcDbEntity
  8
LC-002-002-----0
 62
     7
370
    50
100
AcDbLine
 10
869.959494
 20
2403.767119
 30
0.0
 11
944.929485
 21
2399.838109
 31
0.0
  0
ARC
  5
1C0
102
{ACAD_REACTORS
330
5B7
102
}
330
1F
100
AcDbEntity
  8
LC-002-002-----0
 62
     7
370
    50
100
AcDbCircle
 10
871.686581
 20
2436.721894
 30
0.0
 40
32.99999999999989
100
AcDbArc
 50
185.000539
 51
266.998544
  0
LINE
  5
1C1
102
{ACAD_REACTORS
330
5B7
102
}
330
1F
100
AcDbEntity
  8
LC-002-002-----0
 62
     7
370
    50
100
AcDbLine
 10
822.641624
 20
2618.675779
 30
0.0
 11
838.812156
 21
2433.845754
 31
0.0
  0
ARC
  5
1C2
102
{ACAD_REACTORS
330
5B7
102
}
330
1F
100
AcDbEntity
  8
LC-002-002-----0
 62
     7
370
    50
100
AcDbCircle
 10
817.660651
 20
2618.24
 30
0.0
 40
4.99999999999992
100
AcDbArc
 50
5.0
 51
90.0
  0
LINE
  5
1C3
102
{ACAD_REACTORS
330
5B7
102
}
330
1F
100
AcDbEntity
  8
LC-002-002-----0
 62
     7
370
    50
100
AcDbLine
 10
812.485261
 20
2623.24
 30
0.0
 11
817.660651
 21
2623.24
 31
0.0
  0
ARC
  5
1C4
102
{ACAD_REACTORS
330
5B7
102
}
330
1F
100
AcDbEntity
  8
LC-002-002-----0
 62
     7
370
    50
100
AcDbCircle
 10
812.485261
 20
2618.24
 30
0.0
 40
5.0
100
AcDbArc
 50
90.0
 51
175.0
  0
LINE
  5
1C5
102
{ACAD_REACTORS
330
5B7
102
}
330
1F
100
AcDbEntity
  8
LC-002-002-----0
 62
     7
370
    50
100
AcDbLine
 10
807.504288
 20
2618.675779
 30
0.0
 11
791.333712
 21
2433.845249
 31
0.0
  0
LINE
  5
1C6
102
{ACAD_REACTORS
330
5B7
102
}
330
1F
100
AcDbEntity
  8
LC-002-002-----0
 62
     7
370
    50
100
AcDbLine
 10
615.886999
 20
2649.24
 30
0.0
 11
424.996096
 21
2649.24
 31
0.0
  0
LINE
  5
1C7
102
{ACAD_REACTORS
330
5B8
102
}
330
1F
100
AcDbEntity
  8
LC-002-002-----0
 62
     7
370
    25
100
AcDbLine
 10
1847.41221
 20
1868.61733
 30
0.0
 11
1847.41221
 21
1952.14
 31
0.0
  0
LINE
  5
1C8
102
{ACAD_REACTORS
330
5B8
102
}
330
1F
100
AcDbEntity
  8
LC-006-100-D00-0
 62
     7
370
    25
100
AcDbLine
 10
1856.912209
 20
1831.277995
 30
0.0
 11
1856.91221
 21
1832.141457
 31
0.0
  0
ARC
  5
1C9
102
{ACAD_REACTORS
330
5B8
102
}
330
1F
100
AcDbEntity
  8
LC-002-002-----0
 62
     7
370
    25
100
AcDbCircle
 10
1851.91221
 20
1856.721657
 30
0.0
 40
5.000000000000026
100
AcDbArc
 50
274.999999
 51
359.999991
  0
LINE
  5
1CA
102
{ACAD_REACTORS
330
5B8
102
}
330
1F
100
AcDbEntity
  8
LC-002-002-----0
 62
     7
370
    25
100
AcDbLine
 10
1839.91221
 20
1949.265508
 30
0.0
 11
1839.91221
 21
1935.794701
 31
0.0
  0
LINE
  5
1CB
102
{ACAD_REACTORS
330
5B8
102
}
330
1F
100
AcDbEntity
  8
LC-002-002-----0
 62
     7
370
    25
100
AcDbLine
 10
1840.91221
 20
1934.06265
 30
0.0
 11
1844.91221
 21
1931.753249
 31
0.0
  0
ARC
  5
1CC
102
{ACAD_REACTORS
330
5B8
102
}
330
1F
100
AcDbEntity
  8
LC-002-002-----0
 62
     7
370
    25
100
AcDbCircle
 10
1841.41221
 20
1949.265508
 30
0.0
 40
1.49999872879999
100
AcDbArc
 50
95.000015
 51
180.0
  0
ARC
  5
1CD
102
{ACAD_REACTORS
330
5B8
102
}
330
1F
100
AcDbEntity
  8
LC-002-002-----0
 62
     7
370
    25
100
AcDbCircle
 10
1841.91221
 20
1935.794701
 30
0.0
 40
2.0
100
AcDbArc
 50
180.0
 51
240.0
  0
ARC
  5
1CE
102
{ACAD_REACTORS
330
5B8
102
}
330
1F
100
AcDbEntity
  8
LC-002-002-----0
 62
     7
370
    25
100
AcDbCircle
 10
1842.41221
 20
1927.423122
 30
0.0
 40
5.0
100
AcDbArc
 50
0.0
 51
60.0
  0
ARC
  5
1CF
102
{ACAD_REACTORS
330
5B8
102
}
330
1F
100
AcDbEntity
  8
LC-002-002-----0
 62
     7
370
    25
100
AcDbCircle
 10
1845.41221
 20
1953.128827
 30
0.0
 40
2.000000000000044
100
AcDbArc
 50
274.999955
 51
330.368906
  0
INSERT
  5
1D6
102
{ACAD_REACTORS
330
5B8
102
}
330
1F
100
AcDbEntity
  8
LC-006-100-D00-0
 62
     7
370
    25
100
AcDbBlockReference
  2
KLON1
 10
0.0
 20
0.0
 30
0.0
  0
LINE
  5
1D7
102
{ACAD_REACTORS
330
5AC
102
}
330
1F
100
AcDbEntity
  8
LC-002-002-----0
 62
     7
370
    50
100
AcDbLine
 10
1848.91221
 20
1952.14
 30
0.0
 11
1848.91221
 21
1966.14
 31
0.0
  0
LINE
  5
1D8
102
{ACAD_REACTORS
330
5AC
102
}
330
1F
100
AcDbEntity
  8
LC-002-002-----0
 62
     7
370
    50
100
AcDbLine
 10
1847.41221
 20
1952.14
 30
0.0
 11
1848.91221
 21
1952.14
 31
0.0
  0
LINE
  5
1D9
102
{ACAD_REACTORS
330
5AC
102
}
330
1F
100
AcDbEntity
  8
LC-002-002-----0
 62
     7
370
    50
100
AcDbLine
 10
1848.91221
 20
1407.34
 30
0.0
 11
1848.91221
 21
1421.34
 31
0.0
  0
LINE
  5
1DA
102
{ACAD_REACTORS
330
5AC
102
}
330
1F
100
AcDbEntity
  8
LC-002-002-----0
 62
     7
370
    50
100
AcDbLine
 10
1848.91221
 20
1421.34
 30
0.0
 11
1847.41221
 21
1421.34
 31
0.0
  0
LINE
  5
1DB
102
{ACAD_REACTORS
330
5AC
102
}
330
1F
100
AcDbEntity
  8
LC-002-002-----0
 62
     7
370
    50
100
AcDbLine
 10
1856.91221
 20
1856.721656
 30
0.0
 11
1856.91221
 21
1436.758344
 31
0.0
  0
LINE
  5
1DC
102
{ACAD_REACTORS
330
5AC
102
}
330
1F
100
AcDbEntity
  8
LC-002-002-----0
 62
     7
370
    25
100
AcDbLine
 10
1607.603108
 20
1689.74
 30
0.0
 11
1601.857341
 21
1689.74
 31
0.0
  0
LINE
  5
1DD
102
{ACAD_REACTORS
330
5AC
102
}
330
1F
100
AcDbEntity
  8
LC-002-002-----0
 62
     7
370
    50
100
AcDbLine
 10
1852.347988
 20
1441.739318
 30
0.0
 11
1651.609284
 21
1459.301679
 31
0.0
  0
ARC
  5
1DE
102
{ACAD_REACTORS
330
5AC
102
}
330
1F
100
AcDbEntity
  8
LC-002-002-----0
 62
     7
370
    25
100
AcDbCircle
 10
1641.731515
 20
1808.218633
 30
0.0
 40
24.99999999999986
100
AcDbArc
 50
95.0
 51
153.476123
  0
LINE
  5
1DF
102
{ACAD_REACTORS
330
5AC
102
}
330
1F
100
AcDbEntity
  8
LC-002-002-----0
 62
     7
370
    25
100
AcDbLine
 10
1852.347988
 20
1851.740682
 30
0.0
 11
1639.552622
 21
1833.1235
 31
0.0
  0
LINE
  5
1E0
102
{ACAD_REACTORS
330
5AC
102
}
330
1F
100
AcDbEntity
  8
LC-002-002-----0
 62
     7
370
    50
100
AcDbLine
 10
1856.91221
 20
1856.721656
 30
0.0
 11
1856.91221
 21
1961.850525
 31
0.0
  0
ARC
  5
1E1
102
{ACAD_REACTORS
330
5AC
102
}
330
1F
100
AcDbEntity
  8
LC-002-002-----0
 62
     7
370
    50
100
AcDbCircle
 10
1852.91221
 20
1961.850525
 30
0.0
 40
4.0
100
AcDbArc
 50
0.0
 51
86.0
  0
LINE
  5
1E2
102
{ACAD_REACTORS
330
5AC
102
}
330
1F
100
AcDbEntity
  8
LC-002-002-----0
 62
     7
370
    25
100
AcDbLine
 10
1847.41221
 20
1863.921072
 30
0.0
 11
1847.41221
 21
1892.360991
 31
0.0
  0
ARC
  5
1E3
102
{ACAD_REACTORS
330
5AC
102
}
330
1F
100
AcDbEntity
  8
LC-002-002-----0
 62
     7
370
    25
100
AcDbCircle
 10
1842.41221
 20
1863.921072
 30
0.0
 40
5.000000000000107
100
AcDbArc
 50
275.0
 51
0.0
  0
LINE
  5
1E4
102
{ACAD_REACTORS
330
5AC
102
}
330
1F
100
AcDbEntity
  8
LC-002-002-----0
 62
     7
370
    25
100
AcDbLine
 10
1842.847988
 20
1858.940099
 30
0.0
 11
1637.849391
 21
1841.005045
 31
0.0
  0
ARC
  5
1E5
102
{ACAD_REACTORS
330
5AC
102
}
330
1F
100
AcDbEntity
  8
LC-002-002-----0
 62
     7
370
    25
100
AcDbCircle
 10
1640.725531
 20
1808.13062
 30
0.0
 40
32.99999999999994
100
AcDbArc
 50
95.0
 51
131.986717
  0
ARC
  5
1E6
102
{ACAD_REACTORS
330
5AC
102
}
330
1F
100
AcDbEntity
  8
LC-002-002-----0
 62
     7
370
    25
100
AcDbCircle
 10
1603.857341
 20
1674.014141
 30
0.0
 40
2.0
100
AcDbArc
 50
180.0
 51
245.0
  0
LINE
  5
1E7
102
{ACAD_REACTORS
330
5AC
102
}
330
1F
100
AcDbEntity
  8
LC-002-002-----0
 62
     7
370
    25
100
AcDbLine
 10
1603.012104
 20
1672.201525
 30
0.0
 11
1604.054251
 21
1671.715564
 31
0.0
  0
ARC
  5
1E8
102
{ACAD_REACTORS
330
5AC
102
}
330
1F
100
AcDbEntity
  8
LC-002-002-----0
 62
     7
370
    25
100
AcDbCircle
 10
1601.518541
 20
1666.277717
 30
0.0
 40
5.999999999999862
100
AcDbArc
 50
3.0
 51
65.0
  0
LINE
  5
1E9
102
{ACAD_REACTORS
330
5AC
102
}
330
1F
100
AcDbEntity
  8
LC-002-002-----0
 62
     7
370
    50
100
AcDbLine
 10
1842.847988
 20
1434.539901
 30
0.0
 11
1649.906054
 21
1451.420133
 31
0.0
  0
ARC
  5
1EA
102
{ACAD_REACTORS
330
5AC
102
}
330
1F
100
AcDbEntity
  8
LC-002-002-----0
 62
     7
370
    50
100
AcDbCircle
 10
1842.41221
 20
1429.558928
 30
0.0
 40
5.0
100
AcDbArc
 50
0.0
 51
85.0
  0
LINE
  5
1EB
102
{ACAD_REACTORS
330
5AC
102
}
330
1F
100
AcDbEntity
  8
LC-002-002-----0
 62
     7
370
    50
100
AcDbLine
 10
1847.41221
 20
1421.34
 30
0.0
 11
1847.41221
 21
1429.558928
 31
0.0
  0
LINE
  5
1EC
102
{ACAD_REACTORS
330
5AC
102
}
330
1F
100
AcDbEntity
  8
LC-002-002-----0
 62
     7
370
    50
100
AcDbLine
 10
1848.91221
 20
1407.34
 30
0.0
 11
1853.191236
 21
1407.639219
 31
0.0
  0
ARC
  5
1ED
102
{ACAD_REACTORS
330
5AC
102
}
330
1F
100
AcDbEntity
  8
LC-002-002-----0
 62
     7
370
    50
100
AcDbCircle
 10
1852.91221
 20
1411.629475
 30
0.0
 40
3.999999999999987
100
AcDbArc
 50
274.0
 51
0.0
  0
LINE
  5
1EE
102
{ACAD_REACTORS
330
5AC
102
}
330
1F
100
AcDbEntity
  8
LC-002-002-----0
 62
     7
370
    50
100
AcDbLine
 10
1856.91221
 20
1411.629475
 30
0.0
 11
1856.91221
 21
1436.758344
 31
0.0
  0
ARC
  5
1EF
102
{ACAD_REACTORS
330
5AC
102
}
330
1F
100
AcDbEntity
  8
LC-002-002-----0
 62
     7
370
    50
100
AcDbCircle
 10
1851.91221
 20
1436.758344
 30
0.0
 40
5.0
100
AcDbArc
 50
0.0
 51
85.0
  0
LINE
  5
1F0
102
{ACAD_REACTORS
330
5AC
102
}
330
1F
100
AcDbEntity
  8
LC-002-002-----0
 62
     7
370
    50
100
AcDbLine
 10
1848.91221
 20
1966.14
 30
0.0
 11
1853.191236
 21
1965.840781
 31
0.0
  0
INSERT
  5
20D
102
{ACAD_REACTORS
330
5B7
102
}
330
1F
100
AcDbEntity
  8
LC-009-003-----0
 62
     7
370
    25
100
AcDbBlockReference
  2
LCDIM1
 10
0.0
 20
0.0
 30
0.0
  0
INSERT
  5
227
102
{ACAD_REACTORS
330
5B7
102
}
330
1F
100
AcDbEntity
  8
LC-009-003-----0
 62
     7
370
    25
100
AcDbBlockReference
  2
LCDIM2
 10
0.0
 20
0.0
 30
0.0
  0
INSERT
  5
241
102
{ACAD_REACTORS
330
5B7
102
}
330
1F
100
AcDbEntity
  8
LC-009-003-----0
 62
     7
370
    25
100
AcDbBlockReference
  2
LCDIM3
 10
0.0
 20
0.0
 30
0.0
  0
LINE
  5
242
102
{ACAD_REACTORS
330
5AE
102
}
330
1F
100
AcDbEntity
  8
LC-002-002-----0
 62
     7
370
    50
100
AcDbLine
 10
405.977752
 20
2641.24
 30
0.0
 11
335.739411
 21
2641.24
 31
0.0
  0
LINE
  5
243
102
{ACAD_REACTORS
330
5AE
102
}
330
1F
100
AcDbEntity
  8
LC-002-002-----0
 62
     7
370
    25
100
AcDbLine
 10
335.739411
 20
2641.24
 30
0.0
 11
331.226433
 21
2620.630234
 31
0.0
  0
LINE
  5
244
102
{ACAD_REACTORS
330
5AE
102
}
330
1F
100
AcDbEntity
  8
LC-002-002-----0
 62
     7
370
    25
100
AcDbLine
 10
331.226433
 20
2620.630234
 30
0.0
 11
335.739411
 21
2603.24
 31
0.0
  0
LINE
  5
245
102
{ACAD_REACTORS
330
5AE
102
}
330
1F
100
AcDbEntity
  8
LC-002-002-----0
 62
     7
370
    50
100
AcDbLine
 10
405.977752
 20
2603.24
 30
0.0
 11
335.739411
 21
2603.24
 31
0.0
  0
LINE
  5
246
102
{ACAD_REACTORS
330
5AE
102
}
330
1F
100
AcDbEntity
  8
LC-002-002-----0
 62
     7
370
    50
100
AcDbLine
 10
405.977752
 20
2641.24
 30
0.0
 11
405.977752
 21
2603.24
 31
0.0
  0
INSERT
  5
251
102
{ACAD_REACTORS
330
5AE
102
}
330
1F
100
AcDbEntity
  8
LC-010-005-----0
 62
     7
370
    25
100
AcDbBlockReference
  2
*X16
 10
0.0
 20
0.0
 30
0.0
  0
LINE
  5
252
102
{ACAD_REACTORS
330
5AE
102
}
330
1F
100
AcDbEntity
  8
LC-002-002-----0
 62
     7
370
    50
100
AcDbLine
 10
395.977752
 20
2603.24
 30
0.0
 11
395.977752
 21
2473.615673
 31
0.0
  0
LINE
  5
253
102
{ACAD_REACTORS
330
5AE
102
}
330
1F
100
AcDbEntity
  8
LC-002-002-----0
 62
     7
370
    25
100
AcDbLine
 10
403.099305
 20
2469.302016
 30
0.0
 11
395.977752
 21
2473.615673
 31
0.0
  0
LINE
  5
254
102
{ACAD_REACTORS
330
5AE
102
}
330
1F
100
AcDbEntity
  8
LC-002-002-----0
 62
     7
370
    25
100
AcDbLine
 10
414.977752
 20
2473.615673
 30
0.0
 11
403.099305
 21
2469.302016
 31
0.0
  0
LINE
  5
255
102
{ACAD_REACTORS
330
5AE
102
}
330
1F
100
AcDbEntity
  8
LC-002-002-----0
 62
     7
370
    50
100
AcDbLine
 10
414.977752
 20
2603.24
 30
0.0
 11
414.977752
 21
2473.615673
 31
0.0
  0
LINE
  5
256
102
{ACAD_REACTORS
330
5AE
102
}
330
1F
100
AcDbEntity
  8
LC-002-002-----0
 62
     7
370
    50
100
AcDbLine
 10
414.977752
 20
2603.24
 30
0.0
 11
395.977752
 21
2603.24
 31
0.0
  0
INSERT
  5
270
102
{ACAD_REACTORS
330
5AE
102
}
330
1F
100
AcDbEntity
  8
LC-009-003-----0
 62
     7
370
    25
100
AcDbBlockReference
  2
LCDIM4
 10
0.0
 20
0.0
 30
0.0
  0
INSERT
  5
28A
102
{ACAD_REACTORS
330
5B2
102
}
330
1F
100
AcDbEntity
  8
LC-009-003-----0
 62
     7
370
    25
100
AcDbBlockReference
  2
LCDIM5
 10
0.0
 20
0.0
 30
0.0
  0
INSERT
  5
2A4
102
{ACAD_REACTORS
330
5B2
102
}
330
1F
100
AcDbEntity
  8
LC-009-003-----0
 62
     7
370
    25
100
AcDbBlockReference
  2
LCDIM6
 10
0.0
 20
0.0
 30
0.0
  0
INSERT
  5
2BE
102
{ACAD_REACTORS
330
5B2
102
}
330
1F
100
AcDbEntity
  8
LC-009-003-----0
 62
     7
370
    25
100
AcDbBlockReference
  2
LCDIM7
 10
0.0
 20
0.0
 30
0.0
  0
INSERT
  5
2D8
102
{ACAD_REACTORS
330
5B2
102
}
330
1F
100
AcDbEntity
  8
LC-009-003-----0
 62
     7
370
    25
100
AcDbBlockReference
  2
LCDIM8
 10
0.0
 20
0.0
 30
0.0
  0
INSERT
  5
2F2
102
{ACAD_REACTORS
330
5B2
102
}
330
1F
100
AcDbEntity
  8
LC-009-003-----0
 62
     7
370
    25
100
AcDbBlockReference
  2
LCDIM9
 10
0.0
 20
0.0
 30
0.0
  0
INSERT
  5
30C
102
{ACAD_REACTORS
330
5B2
102
}
330
1F
100
AcDbEntity
  8
LC-009-003-----0
 62
     7
370
    25
100
AcDbBlockReference
  2
LCDIM10
 10
0.0
 20
0.0
 30
0.0
  0
INSERT
  5
326
102
{ACAD_REACTORS
330
5B2
102
}
330
1F
100
AcDbEntity
  8
LC-009-003-----0
 62
     7
370
    25
100
AcDbBlockReference
  2
LCDIM11
 10
0.0
 20
0.0
 30
0.0
  0
INSERT
  5
340
102
{ACAD_REACTORS
330
5AC
102
}
330
1F
100
AcDbEntity
  8
LC-009-003-----0
 62
     7
370
    25
100
AcDbBlockReference
  2
LCDIM12
 10
0.0
 20
0.0
 30
0.0
  0
LINE
  5
341
102
{ACAD_REACTORS
330
5B3
102
}
330
1F
100
AcDbEntity
  8
LC-002-002-----0
 62
     7
370
    25
100
AcDbLine
 10
964.066989
 20
2297.791762
 30
0.0
 11
989.766989
 21
2297.791762
 31
0.0
  0
LINE
  5
342
102
{ACAD_REACTORS
330
5B3
102
}
330
1F
100
AcDbEntity
  8
LC-002-002-----0
 62
     7
370
    25
100
AcDbLine
 10
992.166989
 20
2300.191762
 30
0.0
 11
994.183361
 21
2300.191762
 31
0.0
  0
LINE
  5
343
102
{ACAD_REACTORS
330
5B3
102
}
330
1F
100
AcDbEntity
  8
LC-002-002-----0
 62
     7
370
    25
100
AcDbLine
 10
964.066989
 20
2341.374043
 30
0.0
 11
985.635537
 21
2341.374043
 31
0.0
  0
LINE
  5
344
102
{ACAD_REACTORS
330
5B3
102
}
330
1F
100
AcDbEntity
  8
LC-002-002-----0
 62
     7
370
    25
100
AcDbLine
 10
989.7671
 20
2297.791872
 30
0.0
 11
992.167035
 21
2300.191808
 31
0.0
  0
INSERT
  5
34E
102
{ACAD_REACTORS
330
5B4
102
}
330
1F
100
AcDbEntity
  8
LC-006-100-D00-0
 62
     6
370
    25
100
AcDbBlockReference
  2
POLY1
 10
0.0
 20
0.0
 30
0.0
  0
LINE
  5
34F
102
{ACAD_REACTORS
330
5B4
102
}
330
1F
100
AcDbEntity
  8
LC-002-002-----0
 62
     7
370
    25
100
AcDbLine
 10
1037.850505
 20
2281.353449
 30
0.0
 11
1036.370303
 21
2282.123993
 31
0.0
  0
LINE
  5
350
102
{ACAD_REACTORS
330
5B4
102
}
330
1F
100
AcDbEntity
  8
LC-002-002-----0
 62
     7
370
    25
100
AcDbLine
 10
1037.850617
 20
2282.894269
 30
0.0
 11
1036.370198
 21
2283.664927
 31
0.0
  0
LINE
  5
351
102
{ACAD_REACTORS
330
5B4
102
}
330
1F
100
AcDbEntity
  8
LC-002-002-----0
 62
     7
370
    25
100
AcDbLine
 10
1037.850505
 20
2284.435206
 30
0.0
 11
1036.370518
 21
2285.205638
 31
0.0
  0
LINE
  5
352
102
{ACAD_REACTORS
330
5B4
102
}
330
1F
100
AcDbEntity
  8
LC-002-002-----0
 62
     7
370
    25
100
AcDbLine
 10
1037.850505
 20
2285.976084
 30
0.0
 11
1036.370518
 21
2286.746517
 31
0.0
  0
LINE
  5
353
102
{ACAD_REACTORS
330
5B4
102
}
330
1F
100
AcDbEntity
  8
LC-002-002-----0
 62
     7
370
    25
100
AcDbLine
 10
1037.850505
 20
2287.516963
 30
0.0
 11
1036.370518
 21
2288.287395
 31
0.0
  0
LINE
  5
354
102
{ACAD_REACTORS
330
5B4
102
}
330
1F
100
AcDbEntity
  8
LC-002-002-----0
 62
     7
370
    25
100
AcDbLine
 10
1037.850505
 20
2289.057841
 30
0.0
 11
1036.370518
 21
2289.828274
 31
0.0
  0
LINE
  5
355
102
{ACAD_REACTORS
330
5B4
102
}
330
1F
100
AcDbEntity
  8
LC-002-002-----0
 62
     7
370
    25
100
AcDbLine
 10
1037.850505
 20
2290.59872
 30
0.0
 11
1036.370518
 21
2291.369152
 31
0.0
  0
LINE
  5
356
102
{ACAD_REACTORS
330
5B4
102
}
330
1F
100
AcDbEntity
  8
LC-002-002-----0
 62
     7
370
    25
100
AcDbLine
 10
1037.084435
 20
2293.369178
 30
0.0
 11
1033.970687
 21
2296.482927
 31
0.0
  0
LINE
  5
357
102
{ACAD_REACTORS
330
5B4
102
}
330
1F
100
AcDbEntity
  8
LC-002-002-----0
 62
     7
370
    25
100
AcDbLine
 10
1036.370711
 20
2279.582903
 30
0.0
 11
991.570711
 21
2279.582903
 31
0.0
  0
LINE
  5
358
102
{ACAD_REACTORS
330
5B4
102
}
330
1F
100
AcDbEntity
  8
LC-002-002-----0
 62
     7
370
    25
100
AcDbLine
 10
993.970711
 20
2296.482903
 30
0.0
 11
993.970711
 21
2300.191762
 31
0.0
  0
LINE
  5
359
102
{ACAD_REACTORS
330
5B4
102
}
330
1F
100
AcDbEntity
  8
LC-002-002-----0
 62
     7
370
    25
100
AcDbLine
 10
1037.084435
 20
2293.369178
 30
0.0
 11
1022.937106
 21
2293.369178
 31
0.0
  0
LINE
  5
35A
102
{ACAD_REACTORS
330
5B4
102
}
330
1F
100
AcDbEntity
  8
LC-002-002-----0
 62
     7
370
    25
100
AcDbLine
 10
1033.970711
 20
2296.482903
 30
0.0
 11
1033.970711
 21
2300.411164
 31
0.0
  0
LINE
  5
35B
102
{ACAD_REACTORS
330
5B4
102
}
330
1F
100
AcDbEntity
  8
LC-002-002-----0
 62
     7
370
    25
100
AcDbLine
 10
1036.370711
 20
2279.582903
 30
0.0
 11
1036.370711
 21
2280.582903
 31
0.0
  0
LINE
  5
35C
102
{ACAD_REACTORS
330
5B4
102
}
330
1F
100
AcDbEntity
  8
LC-002-002-----0
 62
     7
370
    25
100
AcDbLine
 10
1036.370711
 20
2291.369052
 30
0.0
 11
1036.370711
 21
2293.369052
 31
0.0
  0
LINE
  5
35D
102
{ACAD_REACTORS
330
5B4
102
}
330
1F
100
AcDbEntity
  8
LC-002-002-----0
 62
     7
370
    25
100
AcDbLine
 10
990.856987
 20
2293.369178
 30
0.0
 11
993.970735
 21
2296.482927
 31
0.0
  0
LINE
  5
35E
102
{ACAD_REACTORS
330
5B4
102
}
330
1F
100
AcDbEntity
  8
LC-002-002-----0
 62
     7
370
    25
100
AcDbLine
 10
1036.370623
 20
2289.828128
 30
0.0
 11
1037.850617
 21
2290.598564
 31
0.0
  0
LINE
  5
35F
102
{ACAD_REACTORS
330
5B4
102
}
330
1F
100
AcDbEntity
  8
LC-002-002-----0
 62
     7
370
    25
100
AcDbLine
 10
1036.370623
 20
2288.287249
 30
0.0
 11
1037.850617
 21
2289.057685
 31
0.0
  0
LINE
  5
360
102
{ACAD_REACTORS
330
5B4
102
}
330
1F
100
AcDbEntity
  8
LC-002-002-----0
 62
     7
370
    25
100
AcDbLine
 10
1036.370623
 20
2286.746371
 30
0.0
 11
1037.850617
 21
2287.516807
 31
0.0
  0
LINE
  5
361
102
{ACAD_REACTORS
330
5B4
102
}
330
1F
100
AcDbEntity
  8
LC-002-002-----0
 62
     7
370
    25
100
AcDbLine
 10
1036.370623
 20
2285.205492
 30
0.0
 11
1037.850617
 21
2285.975928
 31
0.0
  0
LINE
  5
362
102
{ACAD_REACTORS
330
5B4
102
}
330
1F
100
AcDbEntity
  8
LC-002-002-----0
 62
     7
370
    25
100
AcDbLine
 10
1036.370303
 20
2283.664447
 30
0.0
 11
1037.850617
 21
2284.43505
 31
0.0
  0
LINE
  5
363
102
{ACAD_REACTORS
330
5B4
102
}
330
1F
100
AcDbEntity
  8
LC-002-002-----0
 62
     7
370
    25
100
AcDbLine
 10
1036.370198
 20
2282.123514
 30
0.0
 11
1037.850505
 21
2282.894113
 31
0.0
  0
LINE
  5
364
102
{ACAD_REACTORS
330
5B4
102
}
330
1F
100
AcDbEntity
  8
LC-002-002-----0
 62
     7
370
    25
100
AcDbLine
 10
1036.370303
 20
2280.58269
 30
0.0
 11
1037.850617
 21
2281.353293
 31
0.0
  0
LINE
  5
365
102
{ACAD_REACTORS
330
5B4
102
}
330
1F
100
AcDbEntity
  8
LC-002-002-----0
 62
     7
370
    25
100
AcDbLine
 10
990.090917
 20
2281.353449
 30
0.0
 11
991.571119
 21
2282.123993
 31
0.0
  0
LINE
  5
366
102
{ACAD_REACTORS
330
5B4
102
}
330
1F
100
AcDbEntity
  8
LC-002-002-----0
 62
     7
370
    25
100
AcDbLine
 10
990.090804
 20
2282.894269
 30
0.0
 11
991.571224
 21
2283.664927
 31
0.0
  0
LINE
  5
367
102
{ACAD_REACTORS
330
5B4
102
}
330
1F
100
AcDbEntity
  8
LC-002-002-----0
 62
     7
370
    25
100
AcDbLine
 10
990.090917
 20
2284.435206
 30
0.0
 11
991.570904
 21
2285.205638
 31
0.0
  0
LINE
  5
368
102
{ACAD_REACTORS
330
5B4
102
}
330
1F
100
AcDbEntity
  8
LC-002-002-----0
 62
     7
370
    25
100
AcDbLine
 10
990.090917
 20
2285.976084
 30
0.0
 11
991.570904
 21
2286.746517
 31
0.0
  0
LINE
  5
369
102
{ACAD_REACTORS
330
5B4
102
}
330
1F
100
AcDbEntity
  8
LC-002-002-----0
 62
     7
370
    25
100
AcDbLine
 10
990.090917
 20
2287.516963
 30
0.0
 11
991.570904
 21
2288.287395
 31
0.0
  0
LINE
  5
36A
102
{ACAD_REACTORS
330
5B4
102
}
330
1F
100
AcDbEntity
  8
LC-002-002-----0
 62
     7
370
    25
100
AcDbLine
 10
990.090917
 20
2289.057841
 30
0.0
 11
991.570904
 21
2289.828274
 31
0.0
  0
LINE
  5
36B
102
{ACAD_REACTORS
330
5B4
102
}
330
1F
100
AcDbEntity
  8
LC-002-002-----0
 62
     7
370
    25
100
AcDbLine
 10
990.090917
 20
2290.59872
 30
0.0
 11
991.570904
 21
2291.369152
 31
0.0
  0
LINE
  5
36C
102
{ACAD_REACTORS
330
5B4
102
}
330
1F
100
AcDbEntity
  8
LC-002-002-----0
 62
     7
370
    25
100
AcDbLine
 10
991.570711
 20
2279.582903
 30
0.0
 11
991.570711
 21
2280.582903
 31
0.0
  0
LINE
  5
36D
102
{ACAD_REACTORS
330
5B4
102
}
330
1F
100
AcDbEntity
  8
LC-002-002-----0
 62
     7
370
    25
100
AcDbLine
 10
991.570711
 20
2291.369052
 30
0.0
 11
991.570711
 21
2293.369052
 31
0.0
  0
LINE
  5
36E
102
{ACAD_REACTORS
330
5B4
102
}
330
1F
100
AcDbEntity
  8
LC-002-002-----0
 62
     7
370
    25
100
AcDbLine
 10
991.570799
 20
2289.828128
 30
0.0
 11
990.090804
 21
2290.598564
 31
0.0
  0
LINE
  5
36F
102
{ACAD_REACTORS
330
5B4
102
}
330
1F
100
AcDbEntity
  8
LC-002-002-----0
 62
     7
370
    25
100
AcDbLine
 10
991.570799
 20
2288.287249
 30
0.0
 11
990.090804
 21
2289.057685
 31
0.0
  0
LINE
  5
370
102
{ACAD_REACTORS
330
5B4
102
}
330
1F
100
AcDbEntity
  8
LC-002-002-----0
 62
     7
370
    25
100
AcDbLine
 10
991.570799
 20
2286.746371
 30
0.0
 11
990.090804
 21
2287.516807
 31
0.0
  0
LINE
  5
371
102
{ACAD_REACTORS
330
5B4
102
}
330
1F
100
AcDbEntity
  8
LC-002-002-----0
 62
     7
370
    25
100
AcDbLine
 10
991.570799
 20
2285.205492
 30
0.0
 11
990.090804
 21
2285.975928
 31
0.0
  0
LINE
  5
372
102
{ACAD_REACTORS
330
5B4
102
}
330
1F
100
AcDbEntity
  8
LC-002-002-----0
 62
     7
370
    25
100
AcDbLine
 10
991.571119
 20
2283.664447
 30
0.0
 11
990.090804
 21
2284.43505
 31
0.0
  0
LINE
  5
373
102
{ACAD_REACTORS
330
5B4
102
}
330
1F
100
AcDbEntity
  8
LC-002-002-----0
 62
     7
370
    25
100
AcDbLine
 10
991.571224
 20
2282.123514
 30
0.0
 11
990.090917
 21
2282.894113
 31
0.0
  0
LINE
  5
374
102
{ACAD_REACTORS
330
5B4
102
}
330
1F
100
AcDbEntity
  8
LC-002-002-----0
 62
     7
370
    25
100
AcDbLine
 10
991.571119
 20
2280.58269
 30
0.0
 11
990.090804
 21
2281.353293
 31
0.0
  0
LINE
  5
375
102
{ACAD_REACTORS
330
5B3
102
}
330
1F
100
AcDbEntity
  8
LC-002-002-----0
 62
     7
370
    25
100
AcDbLine
 10
961.566989
 20
2291.878109
 30
0.0
 11
964.066989
 21
2291.878109
 31
0.0
  0
LINE
  5
376
102
{ACAD_REACTORS
330
5B3
102
}
330
1F
100
AcDbEntity
  8
LC-002-002-----0
 62
     7
370
    25
100
AcDbLine
 10
960.566989
 20
2292.628109
 30
0.0
 11
960.816989
 21
2292.628109
 31
0.0
  0
LINE
  5
377
102
{ACAD_REACTORS
330
5B3
102
}
330
1F
100
AcDbEntity
  8
LC-002-002-----0
 62
     7
370
    25
100
AcDbLine
 10
960.566989
 20
2293.782903
 30
0.0
 11
947.066989
 21
2293.782903
 31
0.0
  0
LINE
  5
378
102
{ACAD_REACTORS
330
5B3
102
}
330
1F
100
AcDbEntity
  8
LC-002-002-----0
 62
     7
370
    25
100
AcDbLine
 10
960.566989
 20
2345.382903
 30
0.0
 11
947.066989
 21
2345.382903
 31
0.0
  0
LINE
  5
379
102
{ACAD_REACTORS
330
5B3
102
}
330
1F
100
AcDbEntity
  8
LC-002-002-----0
 62
     7
370
    25
100
AcDbLine
 10
960.566989
 20
2346.537696
 30
0.0
 11
960.816989
 21
2346.537696
 31
0.0
  0
LINE
  5
37A
102
{ACAD_REACTORS
330
5B3
102
}
330
1F
100
AcDbEntity
  8
LC-002-002-----0
 62
     7
370
    25
100
AcDbLine
 10
961.566989
 20
2347.287696
 30
0.0
 11
964.066989
 21
2347.287696
 31
0.0
  0
LINE
  5
37B
102
{ACAD_REACTORS
330
5B3
102
}
330
1F
100
AcDbEntity
  8
LC-002-002-----0
 62
     7
370
    25
100
AcDbLine
 10
960.816988
 20
2292.62811
 30
0.0
 11
961.566988
 21
2291.87811
 31
0.0
  0
LINE
  5
37C
102
{ACAD_REACTORS
330
5B3
102
}
330
1F
100
AcDbEntity
  8
LC-002-002-----0
 62
     7
370
    25
100
AcDbLine
 10
945.066989
 20
2343.382903
 30
0.0
 11
945.066989
 21
2295.782903
 31
0.0
  0
LINE
  5
37D
102
{ACAD_REACTORS
330
5B3
102
}
330
1F
100
AcDbEntity
  8
LC-002-002-----0
 62
     7
370
    25
100
AcDbLine
 10
960.566989
 20
2346.537678
 30
0.0
 11
960.566989
 21
2345.382903
 31
0.0
  0
LINE
  5
37E
102
{ACAD_REACTORS
330
5B3
102
}
330
1F
100
AcDbEntity
  8
LC-002-002-----0
 62
     7
370
    25
100
AcDbLine
 10
964.066989
 20
2347.287696
 30
0.0
 11
964.066989
 21
2291.878109
 31
0.0
  0
LINE
  5
37F
102
{ACAD_REACTORS
330
5B3
102
}
330
1F
100
AcDbEntity
  8
LC-002-002-----0
 62
     7
370
    25
100
AcDbLine
 10
960.816988
 20
2346.537695
 30
0.0
 11
961.566988
 21
2347.287695
 31
0.0
  0
ARC
  5
380
102
{ACAD_REACTORS
330
5B3
102
}
330
1F
100
AcDbEntity
  8
LC-002-002-----0
 62
     7
370
    25
100
AcDbCircle
 10
947.066989
 20
2343.382903
 30
0.0
 40
2.0
100
AcDbArc
 50
90.0
 51
180.0
  0
ARC
  5
381
102
{ACAD_REACTORS
330
5B3
102
}
330
1F
100
AcDbEntity
  8
LC-002-002-----0
 62
     7
370
    25
100
AcDbCircle
 10
947.066989
 20
2295.782903
 30
0.0
 40
2.0
100
AcDbArc
 50
180.0
 51
270.0
  0
LINE
  5
382
102
{ACAD_REACTORS
330
5B4
102
}
330
1F
100
AcDbEntity
  8
LC-002-002-----0
 62
     7
370
    25
100
AcDbLine
 10
1029.266138
 20
2296.483001
 30
0.0
 11
1033.970613
 21
2296.483001
 31
0.0
  0
LINE
  5
383
102
{ACAD_REACTORS
330
5B4
102
}
330
1F
100
AcDbEntity
  8
LC-002-002-----0
 62
     7
370
    25
100
AcDbLine
 10
1005.004316
 20
2293.369178
 30
0.0
 11
990.856987
 21
2293.369178
 31
0.0
  0
LINE
  5
384
102
{ACAD_REACTORS
330
5B3
102
}
330
1F
100
AcDbEntity
  8
LC-002-002-----0
 62
     7
370
    25
100
AcDbLine
 10
960.566989
 20
2342.795289
 30
0.0
 11
947.066989
 21
2342.795289
 31
0.0
  0
INSERT
  5
394
102
{ACAD_REACTORS
330
5B3
102
}
330
1F
100
AcDbEntity
  8
LC-002-002-----0
 62
     7
370
    25
100
AcDbBlockReference
  2
POLY2
 10
0.0
 20
0.0
 30
0.0
  0
INSERT
  5
3A4
102
{ACAD_REACTORS
330
5B3
102
}
330
1F
100
AcDbEntity
  8
LC-002-002-----0
 62
     7
370
    25
100
AcDbBlockReference
  2
POLY3
 10
0.0
 20
0.0
 30
0.0
  0
LINE
  5
3A5
102
{ACAD_REACTORS
330
5B3
102
}
330
1F
100
AcDbEntity
  8
LC-002-002-----0
 62
     7
370
    25
100
AcDbLine
 10
947.066989
 20
2296.370408
 30
0.0
 11
960.566989
 21
2296.370408
 31
0.0
  0
INSERT
  5
3B5
102
{ACAD_REACTORS
330
5B3
102
}
330
1F
100
AcDbEntity
  8
LC-002-002-----0
 62
     7
370
    25
100
AcDbBlockReference
  2
POLY4
 10
0.0
 20
0.0
 30
0.0
  0
LINE
  5
3B6
102
{ACAD_REACTORS
330
5B3
102
}
330
1F
100
AcDbEntity
  8
LC-002-002-----0
 62
     7
370
    25
100
AcDbLine
 10
960.566989
 20
2319.58145
 30
0.0
 11
947.066989
 21
2319.58145
 31
0.0
  0
ARC
  5
3B7
102
{ACAD_REACTORS
330
5B4
102
}
330
1F
100
AcDbEntity
  8
LC-002-002-----0
 62
     7
370
    25
100
AcDbCircle
 10
1013.970711
 20
2319.582903
 30
0.0
 40
22.0
100
AcDbArc
 50
180.0
 51
0.0
  0
LINE
  5
3B8
102
{ACAD_REACTORS
330
5B4
102
}
330
1F
100
AcDbEntity
  8
LC-002-002-----0
 62
     7
370
    25
100
AcDbLine
 10
991.970711
 20
2319.582903
 30
0.0
 11
991.970711
 21
2333.274087
 31
0.0
  0
LINE
  5
3B9
102
{ACAD_REACTORS
330
5B4
102
}
330
1F
100
AcDbEntity
  8
LC-002-002-----0
 62
     7
370
    25
100
AcDbLine
 10
1035.970711
 20
2319.582903
 30
0.0
 11
1035.970711
 21
2333.274087
 31
0.0
  0
LINE
  5
3BA
102
{ACAD_REACTORS
330
5B4
102
}
330
1F
100
AcDbEntity
  8
LC-002-002-----0
 62
     7
370
    25
100
AcDbLine
 10
1051.470711
 20
2351.54245
 30
0.0
 11
1049.468848
 21
2351.54245
 31
0.0
  0
LINE
  5
3BB
102
{ACAD_REACTORS
330
5B4
102
}
330
1F
100
AcDbEntity
  8
LC-002-002-----0
 62
     7
370
    25
100
AcDbLine
 10
1049.468848
 20
2350.839205
 30
0.0
 11
1049.468848
 21
2351.54245
 31
0.0
  0
LINE
  5
3BC
102
{ACAD_REACTORS
330
5B4
102
}
330
1F
100
AcDbEntity
  8
LC-002-002-----0
 62
     7
370
    25
100
AcDbLine
 10
1051.470711
 20
2354.04245
 30
0.0
 11
1051.470711
 21
2351.54245
 31
0.0
  0
LINE
  5
3BD
102
{ACAD_REACTORS
330
5B4
102
}
330
1F
100
AcDbEntity
  8
LC-002-002-----0
 62
     7
370
    25
100
AcDbLine
 10
1042.25965
 20
2341.084069
 30
0.0
 11
1042.738096
 21
2343.702933
 31
0.0
  0
ARC
  5
3BE
102
{ACAD_REACTORS
330
5B4
102
}
330
1F
100
AcDbEntity
  8
LC-002-002-----0
 62
     7
370
    25
100
AcDbCircle
 10
1035.865486
 20
2342.25226
 30
0.0
 40
6.500000000000005
100
AcDbArc
 50
289.07704
 51
349.645823
  0
ARC
  5
3BF
102
{ACAD_REACTORS
330
5B4
102
}
330
1F
100
AcDbEntity
  8
LC-002-002-----0
 62
     7
370
    25
100
AcDbCircle
 10
1038.970711
 20
2333.274087
 30
0.0
 40
3.000000000000295
100
AcDbArc
 50
109.055448
 51
180.0
  0
ARC
  5
3C0
102
{ACAD_REACTORS
330
5B4
102
}
330
1F
100
AcDbEntity
  8
LC-002-002-----0
 62
     7
370
    25
100
AcDbCircle
 10
1047.468848
 20
2350.839205
 30
0.0
 40
1.999999999999772
100
AcDbArc
 50
334.152631
 51
0.0
  0
ARC
  5
3C1
102
{ACAD_REACTORS
330
5B4
102
}
330
1F
100
AcDbEntity
  8
LC-002-002-----0
 62
     7
370
    25
100
AcDbCircle
 10
1043.868915
 20
2352.582903
 30
0.0
 40
5.999999999999909
100
AcDbArc
 50
286.283517
 51
334.155028
  0
ARC
  5
3C2
102
{ACAD_REACTORS
330
5B4
102
}
330
1F
100
AcDbEntity
  8
LC-002-002-----0
 62
     7
370
    25
100
AcDbCircle
 10
1046.672974
 20
2342.984087
 30
0.0
 40
4.000000000000306
100
AcDbArc
 50
106.281751
 51
169.647048
  0
LINE
  5
3C3
102
{ACAD_REACTORS
330
5B4
102
}
330
1F
100
AcDbEntity
  8
LC-002-002-----0
 62
     7
370
    25
100
AcDbLine
 10
978.472573
 20
2350.839205
 30
0.0
 11
978.472573
 21
2351.54245
 31
0.0
  0
LINE
  5
3C4
102
{ACAD_REACTORS
330
5B4
102
}
330
1F
100
AcDbEntity
  8
LC-002-002-----0
 62
     7
370
    25
100
AcDbLine
 10
976.470711
 20
2354.04245
 30
0.0
 11
976.470711
 21
2351.54245
 31
0.0
  0
LINE
  5
3C5
102
{ACAD_REACTORS
330
5B4
102
}
330
1F
100
AcDbEntity
  8
LC-002-002-----0
 62
     7
370
    25
100
AcDbLine
 10
985.681772
 20
2341.084069
 30
0.0
 11
985.203326
 21
2343.702933
 31
0.0
  0
ARC
  5
3C6
102
{ACAD_REACTORS
330
5B4
102
}
330
1F
100
AcDbEntity
  8
LC-002-002-----0
 62
     7
370
    25
100
AcDbCircle
 10
992.075936
 20
2342.25226
 30
0.0
 40
6.499999999999891
100
AcDbArc
 50
190.354177
 51
250.92296
  0
ARC
  5
3C7
102
{ACAD_REACTORS
330
5B4
102
}
330
1F
100
AcDbEntity
  8
LC-002-002-----0
 62
     7
370
    25
100
AcDbCircle
 10
988.970711
 20
2333.274087
 30
0.0
 40
2.999999995699682
100
AcDbArc
 50
0.0
 51
70.944552
  0
ARC
  5
3C8
102
{ACAD_REACTORS
330
5B4
102
}
330
1F
100
AcDbEntity
  8
LC-002-002-----0
 62
     7
370
    25
100
AcDbCircle
 10
980.472573
 20
2350.839205
 30
0.0
 40
1.999999999999773
100
AcDbArc
 50
180.0
 51
205.847369
  0
ARC
  5
3C9
102
{ACAD_REACTORS
330
5B4
102
}
330
1F
100
AcDbEntity
  8
LC-002-002-----0
 62
     7
370
    25
100
AcDbCircle
 10
984.072507
 20
2352.582903
 30
0.0
 40
5.999999999999802
100
AcDbArc
 50
205.844972
 51
253.716483
  0
ARC
  5
3CA
102
{ACAD_REACTORS
330
5B4
102
}
330
1F
100
AcDbEntity
  8
LC-002-002-----0
 62
     7
370
    25
100
AcDbCircle
 10
981.268448
 20
2342.984087
 30
0.0
 40
3.999999999999939
100
AcDbArc
 50
10.352952
 51
73.718249
  0
ARC
  5
3CB
102
{ACAD_REACTORS
330
5B4
102
}
330
1F
100
AcDbEntity
  8
LC-002-002-----0
 62
     7
370
    25
100
AcDbCircle
 10
1013.970711
 20
2319.582903
 30
0.0
 40
27.70479324130034
100
AcDbArc
 50
145.394244
 51
34.605756
  0
LINE
  5
3CC
102
{ACAD_REACTORS
330
5B4
102
}
330
1F
100
AcDbEntity
  8
LC-002-002-----0
 62
     7
370
    25
100
AcDbLine
 10
958.970711
 20
2394.185131
 30
0.0
 11
1068.970711
 21
2394.185131
 31
0.0
  0
LINE
  5
3CD
102
{ACAD_REACTORS
330
5B4
102
}
330
1F
100
AcDbEntity
  8
LC-002-002-----0
 62
     7
370
    25
100
AcDbLine
 10
1068.970711
 20
2390.185131
 30
0.0
 11
1068.970711
 21
2394.185131
 31
0.0
  0
LINE
  5
3CE
102
{ACAD_REACTORS
330
5B4
102
}
330
1F
100
AcDbEntity
  8
LC-002-002-----0
 62
     7
370
    25
100
AcDbLine
 10
1053.475675
 20
2354.04245
 30
0.0
 11
1051.470711
 21
2354.04245
 31
0.0
  0
LINE
  5
3CF
102
{ACAD_REACTORS
330
5B4
102
}
330
1F
100
AcDbEntity
  8
LC-002-002-----0
 62
     7
370
    25
100
AcDbLine
 10
1056.720101
 20
2358.372224
 30
0.0
 11
1058.470076
 21
2359.382573
 31
0.0
  0
LINE
  5
3D0
102
{ACAD_REACTORS
330
5B4
102
}
330
1F
100
AcDbEntity
  8
LC-002-002-----0
 62
     7
370
    25
100
AcDbLine
 10
1061.470711
 20
2364.579092
 30
0.0
 11
1061.470711
 21
2380.04245
 31
0.0
  0
LINE
  5
3D1
102
{ACAD_REACTORS
330
5B4
102
}
330
1F
100
AcDbEntity
  8
LC-002-002-----0
 62
     7
370
    25
100
AcDbLine
 10
1068.970711
 20
2389.724908
 30
0.0
 11
1068.970711
 21
2390.185131
 31
0.0
  0
ARC
  5
3D2
102
{ACAD_REACTORS
330
5B4
102
}
330
1F
100
AcDbEntity
  8
LC-002-002-----0
 62
     7
370
    25
100
AcDbCircle
 10
1065.470711
 20
2380.04245
 30
0.0
 40
3.999999999999812
100
AcDbArc
 50
104.492147
 51
180.0
  0
ARC
  5
3D3
102
{ACAD_REACTORS
330
5B4
102
}
330
1F
100
AcDbEntity
  8
LC-002-002-----0
 62
     7
370
    25
100
AcDbCircle
 10
1062.970711
 20
2389.724908
 30
0.0
 40
5.999999999999658
100
AcDbArc
 50
284.469452
 51
0.0
  0
ARC
  5
3D4
102
{ACAD_REACTORS
330
5B4
102
}
330
1F
100
AcDbEntity
  8
LC-002-002-----0
 62
     7
370
    25
100
AcDbCircle
 10
1055.470711
 20
2364.579092
 30
0.0
 40
5.999999999999977
100
AcDbArc
 50
299.988476
 51
0.0
  0
ARC
  5
3D5
102
{ACAD_REACTORS
330
5B4
102
}
330
1F
100
AcDbEntity
  8
LC-002-002-----0
 62
     7
370
    25
100
AcDbCircle
 10
1059.220711
 20
2354.04245
 30
0.0
 40
4.999999999999906
100
AcDbArc
 50
120.016153
 51
172.072225
  0
ARC
  5
3D6
102
{ACAD_REACTORS
330
5B4
102
}
330
1F
100
AcDbEntity
  8
LC-002-002-----0
 62
     7
370
    25
100
AcDbCircle
 10
968.720711
 20
2354.04245
 30
0.0
 40
4.999999999999969
100
AcDbArc
 50
7.927775
 51
33.954632
  0
ARC
  5
3D7
102
{ACAD_REACTORS
330
5B4
102
}
330
1F
100
AcDbEntity
  8
LC-002-002-----0
 62
     7
370
    25
100
AcDbCircle
 10
1053.476148
 20
2354.84245
 30
0.0
 40
0.7999999999997272
100
AcDbArc
 50
270.0
 51
352.062606
  0
ARC
  5
3D8
102
{ACAD_REACTORS
330
5B4
102
}
330
1F
100
AcDbEntity
  8
LC-002-002-----0
 62
     7
370
    25
100
AcDbCircle
 10
974.465273
 20
2354.84245
 30
0.0
 40
0.7999999999998813
100
AcDbArc
 50
187.937394
 51
270.0
  0
LINE
  5
3D9
102
{ACAD_REACTORS
330
5B3
102
}
330
1F
100
AcDbEntity
  8
LC-002-002-----0
 62
     7
370
    25
100
AcDbLine
 10
635.058738
 20
2299.582903
 30
0.0
 11
945.066989
 21
2299.582903
 31
0.0
  0
LINE
  5
3DA
102
{ACAD_REACTORS
330
5B3
102
}
330
1F
100
AcDbEntity
  8
LC-002-002-----0
 62
     7
370
    25
100
AcDbLine
 10
643.70837
 20
2339.582903
 30
0.0
 11
945.066989
 21
2339.582903
 31
0.0
  0
ARC
  5
3DB
102
{ACAD_REACTORS
330
5B9
102
}
330
1F
100
AcDbEntity
  8
LC-002-002-----0
 62
     7
370
    25
100
AcDbCircle
 10
615.886999
 20
2319.582903
 30
0.0
 40
22.00000000000023
100
AcDbArc
 50
180.0
 51
0.0
  0
LINE
  5
3DC
102
{ACAD_REACTORS
330
5B9
102
}
330
1F
100
AcDbEntity
  8
LC-002-002-----0
 62
     7
370
    25
100
AcDbLine
 10
593.886999
 20
2319.582903
 30
0.0
 11
593.886999
 21
2333.274087
 31
0.0
  0
LINE
  5
3DD
102
{ACAD_REACTORS
330
5B9
102
}
330
1F
100
AcDbEntity
  8
LC-002-002-----0
 62
     7
370
    25
100
AcDbLine
 10
637.886999
 20
2319.582903
 30
0.0
 11
637.886999
 21
2333.274087
 31
0.0
  0
LINE
  5
3DE
102
{ACAD_REACTORS
330
5B9
102
}
330
1F
100
AcDbEntity
  8
LC-002-002-----0
 62
     7
370
    25
100
AcDbLine
 10
560.886999
 20
2394.185131
 30
0.0
 11
670.886999
 21
2394.185131
 31
0.0
  0
LINE
  5
3DF
102
{ACAD_REACTORS
330
5B9
102
}
330
1F
100
AcDbEntity
  8
LC-002-002-----0
 62
     7
370
    25
100
AcDbLine
 10
670.886999
 20
2390.185131
 30
0.0
 11
670.886999
 21
2394.185131
 31
0.0
  0
LINE
  5
3E0
102
{ACAD_REACTORS
330
5B9
102
}
330
1F
100
AcDbEntity
  8
LC-002-002-----0
 62
     7
370
    25
100
AcDbLine
 10
653.386999
 20
2351.54245
 30
0.0
 11
651.385137
 21
2351.54245
 31
0.0
  0
LINE
  5
3E1
102
{ACAD_REACTORS
330
5B9
102
}
330
1F
100
AcDbEntity
  8
LC-002-002-----0
 62
     7
370
    25
100
AcDbLine
 10
655.391963
 20
2354.04245
 30
0.0
 11
653.386999
 21
2354.04245
 31
0.0
  0
LINE
  5
3E2
102
{ACAD_REACTORS
330
5B9
102
}
330
1F
100
AcDbEntity
  8
LC-002-002-----0
 62
     7
370
    25
100
AcDbLine
 10
658.636389
 20
2358.372224
 30
0.0
 11
660.386364
 21
2359.382573
 31
0.0
  0
LINE
  5
3E3
102
{ACAD_REACTORS
330
5B9
102
}
330
1F
100
AcDbEntity
  8
LC-002-002-----0
 62
     7
370
    25
100
AcDbLine
 10
651.385137
 20
2350.839205
 30
0.0
 11
651.385137
 21
2351.54245
 31
0.0
  0
LINE
  5
3E4
102
{ACAD_REACTORS
330
5B9
102
}
330
1F
100
AcDbEntity
  8
LC-002-002-----0
 62
     7
370
    25
100
AcDbLine
 10
653.386999
 20
2354.04245
 30
0.0
 11
653.386999
 21
2351.54245
 31
0.0
  0
LINE
  5
3E5
102
{ACAD_REACTORS
330
5B9
102
}
330
1F
100
AcDbEntity
  8
LC-002-002-----0
 62
     7
370
    25
100
AcDbLine
 10
663.386999
 20
2364.579092
 30
0.0
 11
663.386999
 21
2380.04245
 31
0.0
  0
LINE
  5
3E6
102
{ACAD_REACTORS
330
5B9
102
}
330
1F
100
AcDbEntity
  8
LC-002-002-----0
 62
     7
370
    25
100
AcDbLine
 10
644.175938
 20
2341.084069
 30
0.0
 11
644.654385
 21
2343.702933
 31
0.0
  0
LINE
  5
3E7
102
{ACAD_REACTORS
330
5B9
102
}
330
1F
100
AcDbEntity
  8
LC-002-002-----0
 62
     7
370
    25
100
AcDbLine
 10
670.886999
 20
2389.724908
 30
0.0
 11
670.886999
 21
2390.185131
 31
0.0
  0
ARC
  5
3E8
102
{ACAD_REACTORS
330
5B9
102
}
330
1F
100
AcDbEntity
  8
LC-002-002-----0
 62
     7
370
    25
100
AcDbCircle
 10
667.386999
 20
2380.04245
 30
0.0
 40
3.999999999999372
100
AcDbArc
 50
104.492147
 51
180.0
  0
ARC
  5
3E9
102
{ACAD_REACTORS
330
5B9
102
}
330
1F
100
AcDbEntity
  8
LC-002-002-----0
 62
     7
370
    25
100
AcDbCircle
 10
664.886999
 20
2389.724908
 30
0.0
 40
6.000000000000098
100
AcDbArc
 50
284.469452
 51
0.0
  0
ARC
  5
3EA
102
{ACAD_REACTORS
330
5B9
102
}
330
1F
100
AcDbEntity
  8
LC-002-002-----0
 62
     7
370
    25
100
AcDbCircle
 10
657.386999
 20
2364.579092
 30
0.0
 40
5.999999999999977
100
AcDbArc
 50
299.988476
 51
0.0
  0
ARC
  5
3EB
102
{ACAD_REACTORS
330
5B9
102
}
330
1F
100
AcDbEntity
  8
LC-002-002-----0
 62
     7
370
    25
100
AcDbCircle
 10
661.136999
 20
2354.04245
 30
0.0
 40
5.0000000000003
100
AcDbArc
 50
120.016153
 51
172.072225
  0
ARC
  5
3EC
102
{ACAD_REACTORS
330
5B9
102
}
330
1F
100
AcDbEntity
  8
LC-002-002-----0
 62
     7
370
    25
100
AcDbCircle
 10
655.392437
 20
2354.84245
 30
0.0
 40
0.7999999999997272
100
AcDbArc
 50
270.0
 51
352.062606
  0
ARC
  5
3ED
102
{ACAD_REACTORS
330
5B9
102
}
330
1F
100
AcDbEntity
  8
LC-002-002-----0
 62
     7
370
    25
100
AcDbCircle
 10
637.781775
 20
2342.25226
 30
0.0
 40
6.499999999999931
100
AcDbArc
 50
289.07704
 51
349.645823
  0
ARC
  5
3EE
102
{ACAD_REACTORS
330
5B9
102
}
330
1F
100
AcDbEntity
  8
LC-002-002-----0
 62
     7
370
    25
100
AcDbCircle
 10
640.886999
 20
2333.274087
 30
0.0
 40
3.00000000000037
100
AcDbArc
 50
109.055448
 51
180.0
  0
ARC
  5
3EF
102
{ACAD_REACTORS
330
5B9
102
}
330
1F
100
AcDbEntity
  8
LC-002-002-----0
 62
     7
370
    25
100
AcDbCircle
 10
649.385137
 20
2350.839205
 30
0.0
 40
1.999999999999766
100
AcDbArc
 50
334.152631
 51
360.0
  0
ARC
  5
3F0
102
{ACAD_REACTORS
330
5B9
102
}
330
1F
100
AcDbEntity
  8
LC-002-002-----0
 62
     7
370
    25
100
AcDbCircle
 10
645.785204
 20
2352.582903
 30
0.0
 40
5.999999999999909
100
AcDbArc
 50
286.283517
 51
334.155028
  0
ARC
  5
3F1
102
{ACAD_REACTORS
330
5B9
102
}
330
1F
100
AcDbEntity
  8
LC-002-002-----0
 62
     7
370
    25
100
AcDbCircle
 10
648.589262
 20
2342.984087
 30
0.0
 40
4.000000000000306
100
AcDbArc
 50
106.281751
 51
169.647048
  0
LINE
  5
3F2
102
{ACAD_REACTORS
330
5B9
102
}
330
1F
100
AcDbEntity
  8
LC-002-002-----0
 62
     7
370
    25
100
AcDbLine
 10
560.886999
 20
2390.185131
 30
0.0
 11
560.886999
 21
2394.185131
 31
0.0
  0
LINE
  5
3F3
102
{ACAD_REACTORS
330
5B9
102
}
330
1F
100
AcDbEntity
  8
LC-002-002-----0
 62
     7
370
    25
100
AcDbLine
 10
573.13761
 20
2358.372224
 30
0.0
 11
571.387635
 21
2359.382573
 31
0.0
  0
LINE
  5
3F4
102
{ACAD_REACTORS
330
5B9
102
}
330
1F
100
AcDbEntity
  8
LC-002-002-----0
 62
     7
370
    25
100
AcDbLine
 10
580.388862
 20
2350.839205
 30
0.0
 11
580.388862
 21
2351.54245
 31
0.0
  0
LINE
  5
3F5
102
{ACAD_REACTORS
330
5B9
102
}
330
1F
100
AcDbEntity
  8
LC-002-002-----0
 62
     7
370
    25
100
AcDbLine
 10
578.386999
 20
2354.04245
 30
0.0
 11
578.386999
 21
2351.54245
 31
0.0
  0
LINE
  5
3F6
102
{ACAD_REACTORS
330
5B9
102
}
330
1F
100
AcDbEntity
  8
LC-002-002-----0
 62
     7
370
    25
100
AcDbLine
 10
568.386999
 20
2364.579092
 30
0.0
 11
568.386999
 21
2380.04245
 31
0.0
  0
LINE
  5
3F7
102
{ACAD_REACTORS
330
5B9
102
}
330
1F
100
AcDbEntity
  8
LC-002-002-----0
 62
     7
370
    25
100
AcDbLine
 10
587.59806
 20
2341.084069
 30
0.0
 11
587.119614
 21
2343.702933
 31
0.0
  0
LINE
  5
3F8
102
{ACAD_REACTORS
330
5B9
102
}
330
1F
100
AcDbEntity
  8
LC-002-002-----0
 62
     7
370
    25
100
AcDbLine
 10
560.886999
 20
2389.724908
 30
0.0
 11
560.886999
 21
2390.185131
 31
0.0
  0
ARC
  5
3F9
102
{ACAD_REACTORS
330
5B9
102
}
330
1F
100
AcDbEntity
  8
LC-002-002-----0
 62
     7
370
    25
100
AcDbCircle
 10
564.386999
 20
2380.04245
 30
0.0
 40
4.0
100
AcDbArc
 50
0.0
 51
75.507853
  0
ARC
  5
3FA
102
{ACAD_REACTORS
330
5B9
102
}
330
1F
100
AcDbEntity
  8
LC-002-002-----0
 62
     7
370
    25
100
AcDbCircle
 10
566.886999
 20
2389.724908
 30
0.0
 40
6.0
100
AcDbArc
 50
180.0
 51
255.530548
  0
ARC
  5
3FB
102
{ACAD_REACTORS
330
5B9
102
}
330
1F
100
AcDbEntity
  8
LC-002-002-----0
 62
     7
370
    25
100
AcDbCircle
 10
574.386999
 20
2364.579092
 30
0.0
 40
6.0
100
AcDbArc
 50
180.0
 51
240.011524
  0
ARC
  5
3FC
102
{ACAD_REACTORS
330
5B9
102
}
330
1F
100
AcDbEntity
  8
LC-002-002-----0
 62
     7
370
    25
100
AcDbCircle
 10
570.636999
 20
2354.04245
 30
0.0
 40
5.000000000000132
100
AcDbArc
 50
7.927775
 51
59.983847
  0
ARC
  5
3FD
102
{ACAD_REACTORS
330
5B9
102
}
330
1F
100
AcDbEntity
  8
LC-002-002-----0
 62
     7
370
    25
100
AcDbCircle
 10
576.381562
 20
2354.84245
 30
0.0
 40
0.799999999999944
100
AcDbArc
 50
187.937394
 51
270.0
  0
ARC
  5
3FE
102
{ACAD_REACTORS
330
5B9
102
}
330
1F
100
AcDbEntity
  8
LC-002-002-----0
 62
     7
370
    25
100
AcDbCircle
 10
593.992224
 20
2342.25226
 30
0.0
 40
6.499999999999973
100
AcDbArc
 50
190.354177
 51
250.92296
  0
ARC
  5
3FF
102
{ACAD_REACTORS
330
5B9
102
}
330
1F
100
AcDbEntity
  8
LC-002-002-----0
 62
     7
370
    25
100
AcDbCircle
 10
590.886999
 20
2333.274087
 30
0.0
 40
2.999999995699682
100
AcDbArc
 50
0.0
 51
70.944552
  0
ARC
  5
400
102
{ACAD_REACTORS
330
5B9
102
}
330
1F
100
AcDbEntity
  8
LC-002-002-----0
 62
     7
370
    25
100
AcDbCircle
 10
582.388862
 20
2350.839205
 30
0.0
 40
1.999999999999773
100
AcDbArc
 50
180.0
 51
205.847369
  0
ARC
  5
401
102
{ACAD_REACTORS
330
5B9
102
}
330
1F
100
AcDbEntity
  8
LC-002-002-----0
 62
     7
370
    25
100
AcDbCircle
 10
585.988795
 20
2352.582903
 30
0.0
 40
6.000000000000001
100
AcDbArc
 50
205.844972
 51
253.716483
  0
ARC
  5
402
102
{ACAD_REACTORS
330
5B9
102
}
330
1F
100
AcDbEntity
  8
LC-002-002-----0
 62
     7
370
    25
100
AcDbCircle
 10
583.184737
 20
2342.984087
 30
0.0
 40
4.00000000000002
100
AcDbArc
 50
10.352952
 51
73.718249
  0
ARC
  5
403
102
{ACAD_REACTORS
330
5B9
102
}
330
1F
100
AcDbEntity
  8
LC-002-002-----0
 62
     7
370
    25
100
AcDbCircle
 10
615.886999
 20
2319.582903
 30
0.0
 40
27.70479324130015
100
AcDbArc
 50
145.394244
 51
34.605756
  0
LINE
  5
404
102
{ACAD_REACTORS
330
5B3
102
}
330
1F
100
AcDbEntity
  8
LC-002-002-----0
 62
     7
370
    25
100
AcDbLine
 10
960.566989
 20
2293.782903
 30
0.0
 11
960.566989
 21
2292.628127
 31
0.0
  0
LINE
  5
405
102
{ACAD_REACTORS
330
5B9
102
}
330
1F
100
AcDbEntity
  8
LC-002-002-----0
 62
     7
370
    25
100
AcDbLine
 10
578.386999
 20
2354.04245
 30
0.0
 11
576.381562
 21
2354.04245
 31
0.0
  0
LINE
  5
406
102
{ACAD_REACTORS
330
5B9
102
}
330
1F
100
AcDbEntity
  8
LC-002-002-----0
 62
     7
370
    25
100
AcDbLine
 10
580.388862
 20
2351.54245
 30
0.0
 11
578.386999
 21
2351.54245
 31
0.0
  0
LINE
  5
407
102
{ACAD_REACTORS
330
5B4
102
}
330
1F
100
AcDbEntity
  8
LC-002-002-----0
 62
     7
370
    25
100
AcDbLine
 10
976.470711
 20
2354.04245
 30
0.0
 11
974.465747
 21
2354.04245
 31
0.0
  0
LINE
  5
408
102
{ACAD_REACTORS
330
5B4
102
}
330
1F
100
AcDbEntity
  8
LC-002-002-----0
 62
     7
370
    25
100
AcDbLine
 10
978.472573
 20
2351.54245
 30
0.0
 11
976.470711
 21
2351.54245
 31
0.0
  0
LINE
  5
409
102
{ACAD_REACTORS
330
5B4
102
}
330
1F
100
AcDbEntity
  8
LC-002-002-----0
 62
     7
370
    25
100
AcDbLine
 10
958.970711
 20
2390.185131
 30
0.0
 11
958.970711
 21
2394.185131
 31
0.0
  0
LINE
  5
40A
102
{ACAD_REACTORS
330
5B4
102
}
330
1F
100
AcDbEntity
  8
LC-002-002-----0
 62
     7
370
    25
100
AcDbLine
 10
971.221321
 20
2358.372224
 30
0.0
 11
969.471346
 21
2359.382573
 31
0.0
  0
LINE
  5
40B
102
{ACAD_REACTORS
330
5B4
102
}
330
1F
100
AcDbEntity
  8
LC-002-002-----0
 62
     7
370
    25
100
AcDbLine
 10
966.470711
 20
2364.579092
 30
0.0
 11
966.470711
 21
2380.04245
 31
0.0
  0
LINE
  5
40C
102
{ACAD_REACTORS
330
5AF
102
}
330
1F
100
AcDbEntity
  8
LC-002-002-----0
 62
     7
370
    25
100
AcDbLine
 10
958.970711
 20
2264.984908
 30
0.0
 11
958.970711
 21
2265.445131
 31
0.0
  0
ARC
  5
40D
102
{ACAD_REACTORS
330
5B4
102
}
330
1F
100
AcDbEntity
  8
LC-002-002-----0
 62
     7
370
    25
100
AcDbCircle
 10
962.470711
 20
2380.04245
 30
0.0
 40
3.999999999999773
100
AcDbArc
 50
0.0
 51
75.507853
  0
ARC
  5
40E
102
{ACAD_REACTORS
330
5B4
102
}
330
1F
100
AcDbEntity
  8
LC-002-002-----0
 62
     7
370
    25
100
AcDbCircle
 10
964.970711
 20
2389.724908
 30
0.0
 40
5.999999999999659
100
AcDbArc
 50
180.0
 51
255.530548
  0
ARC
  5
40F
102
{ACAD_REACTORS
330
5B4
102
}
330
1F
100
AcDbEntity
  8
LC-002-002-----0
 62
     7
370
    25
100
AcDbCircle
 10
972.470711
 20
2364.579092
 30
0.0
 40
6.0
100
AcDbArc
 50
180.0
 51
240.011524
  0
ARC
  5
410
102
{ACAD_REACTORS
330
5B4
102
}
330
1F
100
AcDbEntity
  8
LC-002-002-----0
 62
     7
370
    25
100
AcDbCircle
 10
968.720711
 20
2354.04245
 30
0.0
 40
4.999999999999856
100
AcDbArc
 50
7.927775
 51
59.983847
  0
LINE
  5
411
102
{ACAD_REACTORS
330
5B0
102
}
330
1F
100
AcDbEntity
  8
LC-002-002-----0
 62
     7
370
    25
100
AcDbLine
 10
1489.025659
 20
2032.765419
 30
0.0
 11
1489.796203
 21
2034.245621
 31
0.0
  0
LINE
  5
412
102
{ACAD_REACTORS
330
5B0
102
}
330
1F
100
AcDbEntity
  8
LC-002-002-----0
 62
     7
370
    25
100
AcDbLine
 10
1490.566479
 20
2032.765307
 30
0.0
 11
1491.337136
 21
2034.245727
 31
0.0
  0
LINE
  5
413
102
{ACAD_REACTORS
330
5B0
102
}
330
1F
100
AcDbEntity
  8
LC-002-002-----0
 62
     7
370
    25
100
AcDbLine
 10
1492.107416
 20
2032.765419
 30
0.0
 11
1492.877848
 21
2034.245406
 31
0.0
  0
LINE
  5
414
102
{ACAD_REACTORS
330
5B0
102
}
330
1F
100
AcDbEntity
  8
LC-002-002-----0
 62
     7
370
    25
100
AcDbLine
 10
1493.648294
 20
2032.765419
 30
0.0
 11
1494.418727
 21
2034.245406
 31
0.0
  0
LINE
  5
415
102
{ACAD_REACTORS
330
5B0
102
}
330
1F
100
AcDbEntity
  8
LC-002-002-----0
 62
     7
370
    25
100
AcDbLine
 10
1495.189173
 20
2032.765419
 30
0.0
 11
1495.959605
 21
2034.245406
 31
0.0
  0
LINE
  5
416
102
{ACAD_REACTORS
330
5B0
102
}
330
1F
100
AcDbEntity
  8
LC-002-002-----0
 62
     7
370
    25
100
AcDbLine
 10
1496.730051
 20
2032.765419
 30
0.0
 11
1497.500484
 21
2034.245406
 31
0.0
  0
LINE
  5
417
102
{ACAD_REACTORS
330
5B0
102
}
330
1F
100
AcDbEntity
  8
LC-002-002-----0
 62
     7
370
    25
100
AcDbLine
 10
1498.270929
 20
2032.765419
 30
0.0
 11
1499.041362
 21
2034.245406
 31
0.0
  0
LINE
  5
418
102
{ACAD_REACTORS
330
5B0
102
}
330
1F
100
AcDbEntity
  8
LC-002-002-----0
 62
     7
370
    25
100
AcDbLine
 10
1501.041388
 20
2033.531489
 30
0.0
 11
1504.155137
 21
2036.645238
 31
0.0
  0
LINE
  5
419
102
{ACAD_REACTORS
330
5B0
102
}
330
1F
100
AcDbEntity
  8
LC-002-002-----0
 62
     7
370
    25
100
AcDbLine
 10
1487.255112
 20
2034.245213
 30
0.0
 11
1487.255112
 21
2079.045213
 31
0.0
  0
LINE
  5
41A
102
{ACAD_REACTORS
330
5B0
102
}
330
1F
100
AcDbEntity
  8
LC-002-002-----0
 62
     7
370
    25
100
AcDbLine
 10
1505.255233
 20
2028.74012
 30
0.0
 11
1507.255137
 21
2030.740024
 31
0.0
  0
LINE
  5
41B
102
{ACAD_REACTORS
330
5B0
102
}
330
1F
100
AcDbEntity
  8
LC-002-002-----0
 62
     7
370
    25
100
AcDbLine
 10
1504.155112
 20
2076.645213
 30
0.0
 11
1507.255112
 21
2076.645213
 31
0.0
  0
LINE
  5
41C
102
{ACAD_REACTORS
330
5B0
102
}
330
1F
100
AcDbEntity
  8
LC-002-002-----0
 62
     7
370
    25
100
AcDbLine
 10
1499.550319
 20
2004.24
 30
0.0
 11
1499.550319
 21
2006.74
 31
0.0
  0
LINE
  5
41D
102
{ACAD_REACTORS
330
5B0
102
}
330
1F
100
AcDbEntity
  8
LC-002-002-----0
 62
     7
370
    25
100
AcDbLine
 10
1500.300319
 20
2003.24
 30
0.0
 11
1500.300319
 21
2003.49
 31
0.0
  0
LINE
  5
41E
102
{ACAD_REACTORS
330
5B0
102
}
330
1F
100
AcDbEntity
  8
LC-002-002-----0
 62
     7
370
    25
100
AcDbLine
 10
1501.041388
 20
2033.531489
 30
0.0
 11
1501.041388
 21
2079.758938
 31
0.0
  0
LINE
  5
41F
102
{ACAD_REACTORS
330
5B0
102
}
330
1F
100
AcDbEntity
  8
LC-002-002-----0
 62
     7
370
    25
100
AcDbLine
 10
1501.455112
 20
2003.24
 30
0.0
 11
1501.455112
 21
1989.74
 31
0.0
  0
LINE
  5
420
102
{ACAD_REACTORS
330
5B0
102
}
330
1F
100
AcDbEntity
  8
LC-002-002-----0
 62
     7
370
    25
100
AcDbLine
 10
1504.855112
 20
2008.74
 30
0.0
 11
1504.855112
 21
2008.526149
 31
0.0
  0
LINE
  5
421
102
{ACAD_REACTORS
330
5B0
102
}
330
1F
100
AcDbEntity
  8
LC-002-002-----0
 62
     7
370
    25
100
AcDbLine
 10
1505.255112
 20
2008.74
 30
0.0
 11
1505.255112
 21
2028.74
 31
0.0
  0
LINE
  5
422
102
{ACAD_REACTORS
330
5B0
102
}
330
1F
100
AcDbEntity
  8
LC-002-002-----0
 62
     7
370
    25
100
AcDbLine
 10
1507.255112
 20
1930.911739
 30
0.0
 11
1507.255112
 21
1987.74
 31
0.0
  0
LINE
  5
423
102
{ACAD_REACTORS
330
5B0
102
}
330
1F
100
AcDbEntity
  8
LC-002-002-----0
 62
     7
370
    25
100
AcDbLine
 10
1507.255112
 20
2036.140598
 30
0.0
 11
1507.255112
 21
2030.74
 31
0.0
  0
LINE
  5
424
102
{ACAD_REACTORS
330
5B0
102
}
330
1F
100
AcDbEntity
  8
LC-002-002-----0
 62
     7
370
    25
100
AcDbLine
 10
1504.8552
 20
2008.526195
 30
0.0
 11
1503.375318
 21
2007.755817
 31
0.0
  0
LINE
  5
425
102
{ACAD_REACTORS
330
5B0
102
}
330
1F
100
AcDbEntity
  8
LC-002-002-----0
 62
     7
370
    25
100
AcDbLine
 10
1504.8552
 20
2006.985317
 30
0.0
 11
1504.383951
 21
2006.74
 31
0.0
  0
LINE
  5
426
102
{ACAD_REACTORS
330
5B0
102
}
330
1F
100
AcDbEntity
  8
LC-002-002-----0
 62
     7
370
    25
100
AcDbLine
 10
1547.255112
 20
1930.911739
 30
0.0
 11
1547.255112
 21
1987.74
 31
0.0
  0
LINE
  5
427
102
{ACAD_REACTORS
330
5B0
102
}
330
1F
100
AcDbEntity
  8
LC-002-002-----0
 62
     7
370
    25
100
AcDbLine
 10
1547.255112
 20
2036.645213
 30
0.0
 11
1547.255112
 21
2030.74
 31
0.0
  0
LINE
  5
428
102
{ACAD_REACTORS
330
5B0
102
}
330
1F
100
AcDbEntity
  8
LC-002-002-----0
 62
     7
370
    25
100
AcDbLine
 10
1549.255112
 20
2008.74
 30
0.0
 11
1549.255112
 21
2028.74
 31
0.0
  0
LINE
  5
429
102
{ACAD_REACTORS
330
5B0
102
}
330
1F
100
AcDbEntity
  8
LC-002-002-----0
 62
     7
370
    25
100
AcDbLine
 10
1549.655112
 20
2008.74
 30
0.0
 11
1549.655112
 21
2008.526149
 31
0.0
  0
LINE
  5
42A
102
{ACAD_REACTORS
330
5B0
102
}
330
1F
100
AcDbEntity
  8
LC-002-002-----0
 62
     7
370
    25
100
AcDbLine
 10
1554.209904
 20
2003.489999
 30
0.0
 11
1554.959904
 21
2004.239999
 31
0.0
  0
LINE
  5
42B
102
{ACAD_REACTORS
330
5B0
102
}
330
1F
100
AcDbEntity
  8
LC-002-002-----0
 62
     7
370
    25
100
AcDbLine
 10
1551.135019
 20
2007.755661
 30
0.0
 11
1549.654919
 21
2006.98517
 31
0.0
  0
LINE
  5
42C
102
{ACAD_REACTORS
330
5B0
102
}
330
1F
100
AcDbEntity
  8
LC-002-002-----0
 62
     7
370
    25
100
AcDbLine
 10
1504.155112
 20
2036.645213
 30
0.0
 11
1506.750497
 21
2036.645213
 31
0.0
  0
LINE
  5
42D
102
{ACAD_REACTORS
330
5B0
102
}
330
1F
100
AcDbEntity
  8
LC-002-002-----0
 62
     7
370
    25
100
AcDbLine
 10
1487.255112
 20
2034.245213
 30
0.0
 11
1488.255112
 21
2034.245213
 31
0.0
  0
LINE
  5
42E
102
{ACAD_REACTORS
330
5B0
102
}
330
1F
100
AcDbEntity
  8
LC-002-002-----0
 62
     7
370
    25
100
AcDbLine
 10
1499.041262
 20
2034.245213
 30
0.0
 11
1501.041262
 21
2034.245213
 31
0.0
  0
LINE
  5
42F
102
{ACAD_REACTORS
330
5B0
102
}
330
1F
100
AcDbEntity
  8
LC-002-002-----0
 62
     7
370
    25
100
AcDbLine
 10
1553.055112
 20
2003.24
 30
0.0
 11
1553.055112
 21
1989.74
 31
0.0
  0
LINE
  5
430
102
{ACAD_REACTORS
330
5B0
102
}
330
1F
100
AcDbEntity
  8
LC-002-002-----0
 62
     7
370
    25
100
AcDbLine
 10
1554.209906
 20
2003.24
 30
0.0
 11
1554.209906
 21
2003.49
 31
0.0
  0
LINE
  5
431
102
{ACAD_REACTORS
330
5B0
102
}
330
1F
100
AcDbEntity
  8
LC-002-002-----0
 62
     7
370
    25
100
AcDbLine
 10
1554.959906
 20
2004.24
 30
0.0
 11
1554.959906
 21
2006.74
 31
0.0
  0
LINE
  5
432
102
{ACAD_REACTORS
330
5B0
102
}
330
1F
100
AcDbEntity
  8
LC-002-002-----0
 62
     7
370
    25
100
AcDbLine
 10
1504.855112
 20
2008.74
 30
0.0
 11
1505.255112
 21
2008.74
 31
0.0
  0
LINE
  5
433
102
{ACAD_REACTORS
330
5B0
102
}
330
1F
100
AcDbEntity
  8
LC-002-002-----0
 62
     7
370
    25
100
AcDbLine
 10
1499.550319
 20
2006.74
 30
0.0
 11
1554.959906
 21
2006.74
 31
0.0
  0
LINE
  5
434
102
{ACAD_REACTORS
330
5B0
102
}
330
1F
100
AcDbEntity
  8
LC-002-002-----0
 62
     7
370
    25
100
AcDbLine
 10
1554.209906
 20
2003.24
 30
0.0
 11
1500.300319
 21
2003.24
 31
0.0
  0
LINE
  5
435
102
{ACAD_REACTORS
330
5B0
102
}
330
1F
100
AcDbEntity
  8
LC-002-002-----0
 62
     7
370
    25
100
AcDbLine
 10
1551.055232
 20
1987.74
 30
0.0
 11
1503.455112
 21
1987.74
 31
0.0
  0
LINE
  5
436
102
{ACAD_REACTORS
330
5B0
102
}
330
1F
100
AcDbEntity
  8
LC-002-002-----0
 62
     7
370
    25
100
AcDbLine
 10
1549.655025
 20
2008.526195
 30
0.0
 11
1551.134907
 21
2007.755817
 31
0.0
  0
LINE
  5
437
102
{ACAD_REACTORS
330
5B0
102
}
330
1F
100
AcDbEntity
  8
LC-002-002-----0
 62
     7
370
    25
100
AcDbLine
 10
1549.655025
 20
2006.985317
 30
0.0
 11
1550.126273
 21
2006.74
 31
0.0
  0
LINE
  5
438
102
{ACAD_REACTORS
330
5B0
102
}
330
1F
100
AcDbEntity
  8
LC-002-002-----0
 62
     7
370
    25
100
AcDbLine
 10
1503.375206
 20
2007.755661
 30
0.0
 11
1504.855305
 21
2006.98517
 31
0.0
  0
LINE
  5
439
102
{ACAD_REACTORS
330
5B0
102
}
330
1F
100
AcDbEntity
  8
LC-002-002-----0
 62
     7
370
    25
100
AcDbLine
 10
1501.041388
 20
2079.758938
 30
0.0
 11
1504.155137
 21
2076.645189
 31
0.0
  0
LINE
  5
43A
102
{ACAD_REACTORS
330
5B0
102
}
330
1F
100
AcDbEntity
  8
LC-002-002-----0
 62
     7
370
    25
100
AcDbLine
 10
1549.254992
 20
2028.74012
 30
0.0
 11
1547.255055
 21
2030.740058
 31
0.0
  0
LINE
  5
43B
102
{ACAD_REACTORS
330
5B0
102
}
330
1F
100
AcDbEntity
  8
LC-002-002-----0
 62
     7
370
    25
100
AcDbLine
 10
1500.30032
 20
2003.489999
 30
0.0
 11
1499.55032
 21
2004.239999
 31
0.0
  0
LINE
  5
43C
102
{ACAD_REACTORS
330
5B0
102
}
330
1F
100
AcDbEntity
  8
LC-002-002-----0
 62
     7
370
    25
100
AcDbLine
 10
1497.500337
 20
2034.245301
 30
0.0
 11
1498.270774
 21
2032.765307
 31
0.0
  0
LINE
  5
43D
102
{ACAD_REACTORS
330
5B0
102
}
330
1F
100
AcDbEntity
  8
LC-002-002-----0
 62
     7
370
    25
100
AcDbLine
 10
1495.959459
 20
2034.245301
 30
0.0
 11
1496.729895
 21
2032.765307
 31
0.0
  0
LINE
  5
43E
102
{ACAD_REACTORS
330
5B0
102
}
330
1F
100
AcDbEntity
  8
LC-002-002-----0
 62
     7
370
    25
100
AcDbLine
 10
1494.41858
 20
2034.245301
 30
0.0
 11
1495.189017
 21
2032.765307
 31
0.0
  0
LINE
  5
43F
102
{ACAD_REACTORS
330
5B0
102
}
330
1F
100
AcDbEntity
  8
LC-002-002-----0
 62
     7
370
    25
100
AcDbLine
 10
1492.877702
 20
2034.245301
 30
0.0
 11
1493.648138
 21
2032.765307
 31
0.0
  0
LINE
  5
440
102
{ACAD_REACTORS
330
5B0
102
}
330
1F
100
AcDbEntity
  8
LC-002-002-----0
 62
     7
370
    25
100
AcDbLine
 10
1491.336657
 20
2034.245621
 30
0.0
 11
1492.10726
 21
2032.765307
 31
0.0
  0
LINE
  5
441
102
{ACAD_REACTORS
330
5B0
102
}
330
1F
100
AcDbEntity
  8
LC-002-002-----0
 62
     7
370
    25
100
AcDbLine
 10
1489.795724
 20
2034.245727
 30
0.0
 11
1490.566323
 21
2032.765419
 31
0.0
  0
LINE
  5
442
102
{ACAD_REACTORS
330
5B0
102
}
330
1F
100
AcDbEntity
  8
LC-002-002-----0
 62
     7
370
    25
100
AcDbLine
 10
1488.2549
 20
2034.245621
 30
0.0
 11
1489.025503
 21
2032.765307
 31
0.0
  0
ARC
  5
443
102
{ACAD_REACTORS
330
5B0
102
}
330
1F
100
AcDbEntity
  8
LC-002-002-----0
 62
     7
370
    25
100
AcDbCircle
 10
1507.255112
 20
2036.645213
 30
0.0
 40
39.99972357249999
100
AcDbArc
 50
0.0
 51
90.0
  0
ARC
  5
444
102
{ACAD_REACTORS
330
5B0
102
}
330
1F
100
AcDbEntity
  8
LC-002-002-----0
 62
     7
370
    25
100
AcDbCircle
 10
1503.455112
 20
1989.74
 30
0.0
 40
2.0
100
AcDbArc
 50
180.0
 51
270.0
  0
ARC
  5
445
102
{ACAD_REACTORS
330
5B0
102
}
330
1F
100
AcDbEntity
  8
LC-002-002-----0
 62
     7
370
    25
100
AcDbCircle
 10
1551.055112
 20
1989.74
 30
0.0
 40
2.0
100
AcDbArc
 50
270.0
 51
360.0
  0
LINE
  5
446
102
{ACAD_REACTORS
330
5B0
102
}
330
1F
100
AcDbEntity
  8
LC-002-002-----0
 62
     7
370
    25
100
AcDbLine
 10
1506.750497
 20
2036.645213
 30
0.0
 11
1507.108666
 21
2036.498767
 31
0.0
  0
LINE
  5
447
102
{ACAD_REACTORS
330
5B0
102
}
330
1F
100
AcDbEntity
  8
LC-002-002-----0
 62
     7
370
    25
100
AcDbLine
 10
1507.108666
 20
2036.498767
 30
0.0
 11
1507.255112
 21
2036.140598
 31
0.0
  0
LINE
  5
448
102
{ACAD_REACTORS
330
5B0
102
}
330
1F
100
AcDbEntity
  8
LC-002-002-----0
 62
     7
370
    25
100
AcDbLine
 10
1489.025659
 20
2080.525008
 30
0.0
 11
1489.796203
 21
2079.044805
 31
0.0
  0
LINE
  5
449
102
{ACAD_REACTORS
330
5B0
102
}
330
1F
100
AcDbEntity
  8
LC-002-002-----0
 62
     7
370
    25
100
AcDbLine
 10
1490.566479
 20
2080.52512
 30
0.0
 11
1491.337136
 21
2079.0447
 31
0.0
  0
LINE
  5
44A
102
{ACAD_REACTORS
330
5B0
102
}
330
1F
100
AcDbEntity
  8
LC-002-002-----0
 62
     7
370
    25
100
AcDbLine
 10
1492.107416
 20
2080.525008
 30
0.0
 11
1492.877848
 21
2079.04502
 31
0.0
  0
LINE
  5
44B
102
{ACAD_REACTORS
330
5B0
102
}
330
1F
100
AcDbEntity
  8
LC-002-002-----0
 62
     7
370
    25
100
AcDbLine
 10
1493.648294
 20
2080.525008
 30
0.0
 11
1494.418727
 21
2079.04502
 31
0.0
  0
LINE
  5
44C
102
{ACAD_REACTORS
330
5B0
102
}
330
1F
100
AcDbEntity
  8
LC-002-002-----0
 62
     7
370
    25
100
AcDbLine
 10
1495.189173
 20
2080.525008
 30
0.0
 11
1495.959605
 21
2079.04502
 31
0.0
  0
LINE
  5
44D
102
{ACAD_REACTORS
330
5B0
102
}
330
1F
100
AcDbEntity
  8
LC-002-002-----0
 62
     7
370
    25
100
AcDbLine
 10
1496.730051
 20
2080.525008
 30
0.0
 11
1497.500484
 21
2079.04502
 31
0.0
  0
LINE
  5
44E
102
{ACAD_REACTORS
330
5B0
102
}
330
1F
100
AcDbEntity
  8
LC-002-002-----0
 62
     7
370
    25
100
AcDbLine
 10
1498.270929
 20
2080.525008
 30
0.0
 11
1499.041362
 21
2079.04502
 31
0.0
  0
LINE
  5
44F
102
{ACAD_REACTORS
330
5B0
102
}
330
1F
100
AcDbEntity
  8
LC-002-002-----0
 62
     7
370
    25
100
AcDbLine
 10
1487.255112
 20
2079.045213
 30
0.0
 11
1488.255112
 21
2079.045213
 31
0.0
  0
LINE
  5
450
102
{ACAD_REACTORS
330
5B0
102
}
330
1F
100
AcDbEntity
  8
LC-002-002-----0
 62
     7
370
    25
100
AcDbLine
 10
1499.041262
 20
2079.045213
 30
0.0
 11
1501.041262
 21
2079.045213
 31
0.0
  0
LINE
  5
451
102
{ACAD_REACTORS
330
5B0
102
}
330
1F
100
AcDbEntity
  8
LC-002-002-----0
 62
     7
370
    25
100
AcDbLine
 10
1497.500337
 20
2079.045126
 30
0.0
 11
1498.270774
 21
2080.52512
 31
0.0
  0
LINE
  5
452
102
{ACAD_REACTORS
330
5B0
102
}
330
1F
100
AcDbEntity
  8
LC-002-002-----0
 62
     7
370
    25
100
AcDbLine
 10
1495.959459
 20
2079.045126
 30
0.0
 11
1496.729895
 21
2080.52512
 31
0.0
  0
LINE
  5
453
102
{ACAD_REACTORS
330
5B0
102
}
330
1F
100
AcDbEntity
  8
LC-002-002-----0
 62
     7
370
    25
100
AcDbLine
 10
1494.41858
 20
2079.045126
 30
0.0
 11
1495.189017
 21
2080.52512
 31
0.0
  0
LINE
  5
454
102
{ACAD_REACTORS
330
5B0
102
}
330
1F
100
AcDbEntity
  8
LC-002-002-----0
 62
     7
370
    25
100
AcDbLine
 10
1492.877702
 20
2079.045126
 30
0.0
 11
1493.648138
 21
2080.52512
 31
0.0
  0
LINE
  5
455
102
{ACAD_REACTORS
330
5B0
102
}
330
1F
100
AcDbEntity
  8
LC-002-002-----0
 62
     7
370
    25
100
AcDbLine
 10
1491.336657
 20
2079.044805
 30
0.0
 11
1492.10726
 21
2080.52512
 31
0.0
  0
LINE
  5
456
102
{ACAD_REACTORS
330
5B0
102
}
330
1F
100
AcDbEntity
  8
LC-002-002-----0
 62
     7
370
    25
100
AcDbLine
 10
1489.795724
 20
2079.0447
 30
0.0
 11
1490.566323
 21
2080.525008
 31
0.0
  0
LINE
  5
457
102
{ACAD_REACTORS
330
5B0
102
}
330
1F
100
AcDbEntity
  8
LC-002-002-----0
 62
     7
370
    25
100
AcDbLine
 10
1488.2549
 20
2079.044805
 30
0.0
 11
1489.025503
 21
2080.52512
 31
0.0
  0
LINE
  5
458
102
{ACAD_REACTORS
330
5B0
102
}
330
1F
100
AcDbEntity
  8
LC-002-002-----0
 62
     7
370
    25
100
AcDbLine
 10
1550.467499
 20
2003.24
 30
0.0
 11
1550.467499
 21
1989.74
 31
0.0
  0
INSERT
  5
468
102
{ACAD_REACTORS
330
5B0
102
}
330
1F
100
AcDbEntity
  8
LC-002-002-----0
 62
     7
370
    25
100
AcDbBlockReference
  2
POLY5
 10
0.0
 20
0.0
 30
0.0
  0
LINE
  5
469
102
{ACAD_REACTORS
330
5B0
102
}
330
1F
100
AcDbEntity
  8
LC-002-002-----0
 62
     7
370
    25
100
AcDbLine
 10
1527.25366
 20
2003.24
 30
0.0
 11
1527.25366
 21
1989.74
 31
0.0
  0
INSERT
  5
479
102
{ACAD_REACTORS
330
5B0
102
}
330
1F
100
AcDbEntity
  8
LC-002-002-----0
 62
     7
370
    25
100
AcDbBlockReference
  2
POLY6
 10
0.0
 20
0.0
 30
0.0
  0
LINE
  5
47A
102
{ACAD_REACTORS
330
5B0
102
}
330
1F
100
AcDbEntity
  8
LC-002-002-----0
 62
     7
370
    25
100
AcDbLine
 10
1504.042618
 20
1989.74
 30
0.0
 11
1504.042618
 21
2003.24
 31
0.0
  0
INSERT
  5
48A
102
{ACAD_REACTORS
330
5B0
102
}
330
1F
100
AcDbEntity
  8
LC-002-002-----0
 62
     7
370
    25
100
AcDbBlockReference
  2
POLY7
 10
0.0
 20
0.0
 30
0.0
  0
LINE
  5
48B
102
{ACAD_REACTORS
330
5B6
102
}
330
1F
100
AcDbEntity
  8
LC-002-002-----0
 62
     7
370
    25
100
AcDbLine
 10
1504.855112
 20
1813.24
 30
0.0
 11
1504.855112
 21
1836.74
 31
0.0
  0
LINE
  5
48C
102
{ACAD_REACTORS
330
5B1
102
}
330
1F
100
AcDbEntity
  8
LC-002-002-----0
 62
     7
370
    25
100
AcDbLine
 10
1507.255112
 20
1855.74
 30
0.0
 11
1507.255112
 21
1911.74
 31
0.0
  0
LINE
  5
48D
102
{ACAD_REACTORS
330
5B1
102
}
330
1F
100
AcDbEntity
  8
LC-002-002-----0
 62
     7
370
    25
100
AcDbLine
 10
1547.255112
 20
1855.74
 30
0.0
 11
1547.255112
 21
1911.74
 31
0.0
  0
LINE
  5
48E
102
{ACAD_REACTORS
330
5B6
102
}
330
1F
100
AcDbEntity
  8
LC-002-002-----0
 62
     7
370
    25
100
AcDbLine
 10
1549.655112
 20
1815.193149
 30
0.0
 11
1549.655112
 21
1836.74
 31
0.0
  0
ARC
  5
48F
102
{ACAD_REACTORS
330
5B1
102
}
330
1F
100
AcDbEntity
  8
LC-002-002-----0
 62
     7
370
    25
100
AcDbCircle
 10
1527.255112
 20
1911.74
 30
0.0
 40
20.0
100
AcDbArc
 50
0.0
 51
180.0
  0
LINE
  5
490
102
{ACAD_REACTORS
330
5B6
102
}
330
1F
100
AcDbEntity
  8
LC-002-002-----0
 62
     7
370
    25
100
AcDbLine
 10
1499.550319
 20
1839.24
 30
0.0
 11
1499.550319
 21
1836.74
 31
0.0
  0
LINE
  5
491
102
{ACAD_REACTORS
330
5B6
102
}
330
1F
100
AcDbEntity
  8
LC-002-002-----0
 62
     7
370
    25
100
AcDbLine
 10
1500.300319
 20
1840.24
 30
0.0
 11
1500.300319
 21
1839.99
 31
0.0
  0
LINE
  5
492
102
{ACAD_REACTORS
330
5B6
102
}
330
1F
100
AcDbEntity
  8
LC-002-002-----0
 62
     7
370
    25
100
AcDbLine
 10
1501.455112
 20
1840.24
 30
0.0
 11
1501.455112
 21
1853.74
 31
0.0
  0
LINE
  5
493
102
{ACAD_REACTORS
330
5B6
102
}
330
1F
100
AcDbEntity
  8
LC-002-002-----0
 62
     7
370
    25
100
AcDbLine
 10
1553.055112
 20
1840.24
 30
0.0
 11
1553.055112
 21
1853.74
 31
0.0
  0
LINE
  5
494
102
{ACAD_REACTORS
330
5B6
102
}
330
1F
100
AcDbEntity
  8
LC-002-002-----0
 62
     7
370
    25
100
AcDbLine
 10
1554.209906
 20
1840.24
 30
0.0
 11
1554.209906
 21
1839.99
 31
0.0
  0
LINE
  5
495
102
{ACAD_REACTORS
330
5B6
102
}
330
1F
100
AcDbEntity
  8
LC-002-002-----0
 62
     7
370
    25
100
AcDbLine
 10
1554.959906
 20
1839.24
 30
0.0
 11
1554.959906
 21
1836.74
 31
0.0
  0
LINE
  5
496
102
{ACAD_REACTORS
330
5B6
102
}
330
1F
100
AcDbEntity
  8
LC-002-002-----0
 62
     7
370
    25
100
AcDbLine
 10
1500.30032
 20
1839.990001
 30
0.0
 11
1499.55032
 21
1839.240001
 31
0.0
  0
LINE
  5
497
102
{ACAD_REACTORS
330
5B6
102
}
330
1F
100
AcDbEntity
  8
LC-002-002-----0
 62
     7
370
    25
100
AcDbLine
 10
1551.055112
 20
1855.74
 30
0.0
 11
1503.455112
 21
1855.74
 31
0.0
  0
LINE
  5
498
102
{ACAD_REACTORS
330
5B6
102
}
330
1F
100
AcDbEntity
  8
LC-002-002-----0
 62
     7
370
    25
100
AcDbLine
 10
1554.209888
 20
1840.24
 30
0.0
 11
1553.055112
 21
1840.24
 31
0.0
  0
LINE
  5
499
102
{ACAD_REACTORS
330
5B6
102
}
330
1F
100
AcDbEntity
  8
LC-002-002-----0
 62
     7
370
    25
100
AcDbLine
 10
1554.959906
 20
1836.74
 30
0.0
 11
1499.550319
 21
1836.74
 31
0.0
  0
LINE
  5
49A
102
{ACAD_REACTORS
330
5B6
102
}
330
1F
100
AcDbEntity
  8
LC-002-002-----0
 62
     7
370
    25
100
AcDbLine
 10
1554.209904
 20
1839.990001
 30
0.0
 11
1554.959904
 21
1839.240001
 31
0.0
  0
ARC
  5
49B
102
{ACAD_REACTORS
330
5B6
102
}
330
1F
100
AcDbEntity
  8
LC-002-002-----0
 62
     7
370
    25
100
AcDbCircle
 10
1551.055112
 20
1853.74
 30
0.0
 40
2.0
100
AcDbArc
 50
0.0
 51
90.0
  0
ARC
  5
49C
102
{ACAD_REACTORS
330
5B6
102
}
330
1F
100
AcDbEntity
  8
LC-002-002-----0
 62
     7
370
    25
100
AcDbCircle
 10
1503.455112
 20
1853.74
 30
0.0
 40
2.0
100
AcDbArc
 50
90.0
 51
180.0
  0
LINE
  5
49D
102
{ACAD_REACTORS
330
5B6
102
}
330
1F
100
AcDbEntity
  8
LC-002-002-----0
 62
     7
370
    25
100
AcDbLine
 10
1550.467499
 20
1840.24
 30
0.0
 11
1550.467499
 21
1853.74
 31
0.0
  0
INSERT
  5
4AD
102
{ACAD_REACTORS
330
5B6
102
}
330
1F
100
AcDbEntity
  8
LC-002-002-----0
 62
     7
370
    25
100
AcDbBlockReference
  2
POLY8
 10
0.0
 20
0.0
 30
0.0
  0
LINE
  5
4AE
102
{ACAD_REACTORS
330
5B6
102
}
330
1F
100
AcDbEntity
  8
LC-002-002-----0
 62
     7
370
    25
100
AcDbLine
 10
1527.25366
 20
1840.24
 30
0.0
 11
1527.25366
 21
1853.74
 31
0.0
  0
INSERT
  5
4BE
102
{ACAD_REACTORS
330
5B6
102
}
330
1F
100
AcDbEntity
  8
LC-002-002-----0
 62
     7
370
    25
100
AcDbBlockReference
  2
POLY9
 10
0.0
 20
0.0
 30
0.0
  0
LINE
  5
4BF
102
{ACAD_REACTORS
330
5B6
102
}
330
1F
100
AcDbEntity
  8
LC-002-002-----0
 62
     7
370
    25
100
AcDbLine
 10
1504.042618
 20
1853.74
 30
0.0
 11
1504.042618
 21
1840.24
 31
0.0
  0
INSERT
  5
4CF
102
{ACAD_REACTORS
330
5B6
102
}
330
1F
100
AcDbEntity
  8
LC-002-002-----0
 62
     7
370
    25
100
AcDbBlockReference
  2
POLY10
 10
0.0
 20
0.0
 30
0.0
  0
ARC
  5
4D0
102
{ACAD_REACTORS
330
5B1
102
}
330
1F
100
AcDbEntity
  8
LC-002-002-----0
 62
     7
370
    25
100
AcDbCircle
 10
1527.255112
 20
1911.74
 30
0.0
 40
27.70479324130114
100
AcDbArc
 50
316.211302
 51
223.788698
  0
LINE
  5
4D1
102
{ACAD_REACTORS
330
5B6
102
}
330
1F
100
AcDbEntity
  8
LC-002-002-----0
 62
     7
370
    25
100
AcDbLine
 10
1505.255112
 20
1786.74
 30
0.0
 11
1505.255112
 21
1812.84
 31
0.0
  0
ARC
  5
4D2
102
{ACAD_REACTORS
330
5B6
102
}
330
1F
100
AcDbEntity
  8
LC-004-002-RND-0
 62
     7
370
    25
100
AcDbCircle
 10
1527.255112
 20
1786.74
 30
0.0
 40
22.0
100
AcDbArc
 50
180.0
 51
270.0
  0
LINE
  5
4D3
102
{ACAD_REACTORS
330
5B6
102
}
330
1F
100
AcDbEntity
  8
LC-002-002-----0
 62
     7
370
    25
100
AcDbLine
 10
1559.214659
 20
1749.24
 30
0.0
 11
1559.214659
 21
1751.241863
 31
0.0
  0
LINE
  5
4D4
102
{ACAD_REACTORS
330
5B6
102
}
330
1F
100
AcDbEntity
  8
LC-002-002-----0
 62
     7
370
    25
100
AcDbLine
 10
1549.655112
 20
1815.193149
 30
0.0
 11
1551.375143
 21
1815.507385
 31
0.0
  0
LINE
  5
4D5
102
{ACAD_REACTORS
330
5B6
102
}
330
1F
100
AcDbEntity
  8
LC-002-002-----0
 62
     7
370
    25
100
AcDbLine
 10
1561.71466
 20
1824.24
 30
0.0
 11
1559.214659
 21
1824.24
 31
0.0
  0
LINE
  5
4D6
102
{ACAD_REACTORS
330
5B6
102
}
330
1F
100
AcDbEntity
  8
LC-002-002-----0
 62
     7
370
    25
100
AcDbLine
 10
1558.511415
 20
1822.238137
 30
0.0
 11
1559.214659
 21
1822.238137
 31
0.0
  0
LINE
  5
4D7
102
{ACAD_REACTORS
330
5B6
102
}
330
1F
100
AcDbEntity
  8
LC-002-002-----0
 62
     7
370
    25
100
AcDbLine
 10
1527.255112
 20
1764.74
 30
0.0
 11
1540.946297
 21
1764.74
 31
0.0
  0
LINE
  5
4D8
102
{ACAD_REACTORS
330
5B6
102
}
330
1F
100
AcDbEntity
  8
LC-002-002-----0
 62
     7
370
    25
100
AcDbLine
 10
1558.511415
 20
1751.241863
 30
0.0
 11
1559.214659
 21
1751.241863
 31
0.0
  0
LINE
  5
4D9
102
{ACAD_REACTORS
330
5B6
102
}
330
1F
100
AcDbEntity
  8
LC-002-002-----0
 62
     7
370
    25
100
AcDbLine
 10
1561.71466
 20
1749.24
 30
0.0
 11
1559.214659
 21
1749.24
 31
0.0
  0
LINE
  5
4DA
102
{ACAD_REACTORS
330
5B6
102
}
330
1F
100
AcDbEntity
  8
LC-002-002-----0
 62
     7
370
    25
100
AcDbLine
 10
1548.756279
 20
1758.451061
 30
0.0
 11
1551.375143
 21
1757.972615
 31
0.0
  0
LINE
  5
4DB
102
{ACAD_REACTORS
330
5B6
102
}
330
1F
100
AcDbEntity
  8
LC-002-002-----0
 62
     7
370
    25
100
AcDbLine
 10
1504.85514
 20
1813.239973
 30
0.0
 11
1505.25522
 21
1812.839892
 31
0.0
  0
ARC
  5
4DC
102
{ACAD_REACTORS
330
5B6
102
}
330
1F
100
AcDbEntity
  8
LC-002-002-----0
 62
     7
370
    25
100
AcDbCircle
 10
1549.924469
 20
1764.845225
 30
0.0
 40
6.500000000000005
100
AcDbArc
 50
199.07704
 51
259.645823
  0
ARC
  5
4DD
102
{ACAD_REACTORS
330
5B6
102
}
330
1F
100
AcDbEntity
  8
LC-002-002-----0
 62
     7
370
    25
100
AcDbCircle
 10
1540.946297
 20
1761.74
 30
0.0
 40
3.000000000000295
100
AcDbArc
 50
19.055448
 51
90.0
  0
ARC
  5
4DE
102
{ACAD_REACTORS
330
5B6
102
}
330
1F
100
AcDbEntity
  8
LC-002-002-----0
 62
     7
370
    25
100
AcDbCircle
 10
1558.511415
 20
1753.241863
 30
0.0
 40
2.000000000000076
100
AcDbArc
 50
244.152631
 51
270.0
  0
ARC
  5
4DF
102
{ACAD_REACTORS
330
5B6
102
}
330
1F
100
AcDbEntity
  8
LC-002-002-----0
 62
     7
370
    25
100
AcDbCircle
 10
1558.511415
 20
1820.238137
 30
0.0
 40
2.0
100
AcDbArc
 50
90.0
 51
115.847369
  0
ARC
  5
4E0
102
{ACAD_REACTORS
330
5B6
102
}
330
1F
100
AcDbEntity
  8
LC-002-002-----0
 62
     7
370
    25
100
AcDbCircle
 10
1560.255112
 20
1756.841796
 30
0.0
 40
5.999999999999973
100
AcDbArc
 50
196.283517
 51
244.155028
  0
ARC
  5
4E1
102
{ACAD_REACTORS
330
5B6
102
}
330
1F
100
AcDbEntity
  8
LC-002-002-----0
 62
     7
370
    25
100
AcDbCircle
 10
1560.255112
 20
1816.638204
 30
0.0
 40
6.000000000000001
100
AcDbArc
 50
115.844972
 51
163.716483
  0
ARC
  5
4E2
102
{ACAD_REACTORS
330
5B6
102
}
330
1F
100
AcDbEntity
  8
LC-002-002-----0
 62
     7
370
    25
100
AcDbCircle
 10
1550.656297
 20
1754.037737
 30
0.0
 40
4.000000000000152
100
AcDbArc
 50
16.281751
 51
79.647048
  0
ARC
  5
4E3
102
{ACAD_REACTORS
330
5B6
102
}
330
1F
100
AcDbEntity
  8
LC-002-002-----0
 62
     7
370
    25
100
AcDbCircle
 10
1550.656297
 20
1819.442263
 30
0.0
 40
4.00000000000002
100
AcDbArc
 50
280.352952
 51
343.718249
  0
LINE
  5
4E4
102
{ACAD_REACTORS
330
5B6
102
}
330
1F
100
AcDbEntity
  8
LC-002-002-----0
 62
     7
370
    25
100
AcDbLine
 10
1601.857341
 20
1841.74
 30
0.0
 11
1601.857341
 21
1731.74
 31
0.0
  0
LINE
  5
4E5
102
{ACAD_REACTORS
330
5B6
102
}
330
1F
100
AcDbEntity
  8
LC-002-002-----0
 62
     7
370
    25
100
AcDbLine
 10
1597.857341
 20
1731.74
 30
0.0
 11
1601.857341
 21
1731.74
 31
0.0
  0
LINE
  5
4E6
102
{ACAD_REACTORS
330
5B6
102
}
330
1F
100
AcDbEntity
  8
LC-002-002-----0
 62
     7
370
    25
100
AcDbLine
 10
1561.71466
 20
1747.235036
 30
0.0
 11
1561.71466
 21
1749.24
 31
0.0
  0
LINE
  5
4E7
102
{ACAD_REACTORS
330
5B6
102
}
330
1F
100
AcDbEntity
  8
LC-002-002-----0
 62
     7
370
    25
100
AcDbLine
 10
1566.044434
 20
1743.99061
 30
0.0
 11
1567.054783
 21
1742.240635
 31
0.0
  0
LINE
  5
4E8
102
{ACAD_REACTORS
330
5B6
102
}
330
1F
100
AcDbEntity
  8
LC-002-002-----0
 62
     7
370
    25
100
AcDbLine
 10
1572.251302
 20
1739.24
 30
0.0
 11
1587.714659
 21
1739.24
 31
0.0
  0
LINE
  5
4E9
102
{ACAD_REACTORS
330
5B6
102
}
330
1F
100
AcDbEntity
  8
LC-002-002-----0
 62
     7
370
    25
100
AcDbLine
 10
1597.397118
 20
1731.74
 30
0.0
 11
1597.857341
 21
1731.74
 31
0.0
  0
ARC
  5
4EA
102
{ACAD_REACTORS
330
5B6
102
}
330
1F
100
AcDbEntity
  8
LC-002-002-----0
 62
     7
370
    25
100
AcDbCircle
 10
1587.714659
 20
1735.24
 30
0.0
 40
3.999999999999755
100
AcDbArc
 50
14.492147
 51
90.0
  0
ARC
  5
4EB
102
{ACAD_REACTORS
330
5B6
102
}
330
1F
100
AcDbEntity
  8
LC-002-002-----0
 62
     7
370
    25
100
AcDbCircle
 10
1597.397118
 20
1737.74
 30
0.0
 40
5.999999999999878
100
AcDbArc
 50
194.469452
 51
270.0
  0
ARC
  5
4EC
102
{ACAD_REACTORS
330
5B6
102
}
330
1F
100
AcDbEntity
  8
LC-002-002-----0
 62
     7
370
    25
100
AcDbCircle
 10
1572.251302
 20
1745.24
 30
0.0
 40
6.000000000000091
100
AcDbArc
 50
209.988476
 51
270.0
  0
ARC
  5
4ED
102
{ACAD_REACTORS
330
5B6
102
}
330
1F
100
AcDbEntity
  8
LC-002-002-----0
 62
     7
370
    25
100
AcDbCircle
 10
1561.714659
 20
1741.49
 30
0.0
 40
4.999999999999792
100
AcDbArc
 50
30.016153
 51
82.072225
  0
ARC
  5
4EE
102
{ACAD_REACTORS
330
5B6
102
}
330
1F
100
AcDbEntity
  8
LC-002-002-----0
 62
     7
370
    25
100
AcDbCircle
 10
1562.514659
 20
1747.234563
 30
0.0
 40
0.7999999999997272
100
AcDbArc
 50
180.0
 51
262.062606
  0
LINE
  5
4EF
102
{ACAD_REACTORS
330
5B6
102
}
330
1F
100
AcDbEntity
  8
LC-002-002-----0
 62
     7
370
    25
100
AcDbLine
 10
1597.857341
 20
1841.74
 30
0.0
 11
1601.857341
 21
1841.74
 31
0.0
  0
LINE
  5
4F0
102
{ACAD_REACTORS
330
5B6
102
}
330
1F
100
AcDbEntity
  8
LC-002-002-----0
 62
     7
370
    25
100
AcDbLine
 10
1566.044434
 20
1829.48939
 30
0.0
 11
1567.054783
 21
1831.239365
 31
0.0
  0
LINE
  5
4F1
102
{ACAD_REACTORS
330
5B6
102
}
330
1F
100
AcDbEntity
  8
LC-002-002-----0
 62
     7
370
    25
100
AcDbLine
 10
1572.251302
 20
1834.24
 30
0.0
 11
1587.714659
 21
1834.24
 31
0.0
  0
LINE
  5
4F2
102
{ACAD_REACTORS
330
5B6
102
}
330
1F
100
AcDbEntity
  8
LC-002-002-----0
 62
     7
370
    25
100
AcDbLine
 10
1597.397118
 20
1841.74
 30
0.0
 11
1597.857341
 21
1841.74
 31
0.0
  0
ARC
  5
4F3
102
{ACAD_REACTORS
330
5B6
102
}
330
1F
100
AcDbEntity
  8
LC-002-002-----0
 62
     7
370
    25
100
AcDbCircle
 10
1587.714659
 20
1838.24
 30
0.0
 40
4.0
100
AcDbArc
 50
270.0
 51
345.507853
  0
ARC
  5
4F4
102
{ACAD_REACTORS
330
5B6
102
}
330
1F
100
AcDbEntity
  8
LC-002-002-----0
 62
     7
370
    25
100
AcDbCircle
 10
1597.397118
 20
1835.74
 30
0.0
 40
6.0
100
AcDbArc
 50
90.0
 51
165.530548
  0
ARC
  5
4F5
102
{ACAD_REACTORS
330
5B6
102
}
330
1F
100
AcDbEntity
  8
LC-002-002-----0
 62
     7
370
    25
100
AcDbCircle
 10
1572.251302
 20
1828.24
 30
0.0
 40
6.0
100
AcDbArc
 50
90.0
 51
150.011524
  0
ARC
  5
4F6
102
{ACAD_REACTORS
330
5B6
102
}
330
1F
100
AcDbEntity
  8
LC-002-002-----0
 62
     7
370
    25
100
AcDbCircle
 10
1561.714659
 20
1831.99
 30
0.0
 40
5.000000000000194
100
AcDbArc
 50
277.927775
 51
329.983847
  0
ARC
  5
4F7
102
{ACAD_REACTORS
330
5B6
102
}
330
1F
100
AcDbEntity
  8
LC-002-002-----0
 62
     7
370
    25
100
AcDbCircle
 10
1562.514659
 20
1826.245437
 30
0.0
 40
0.7999999999999126
100
AcDbArc
 50
97.937394
 51
180.0
  0
LINE
  5
4F8
102
{ACAD_REACTORS
330
5B0
102
}
330
1F
100
AcDbEntity
  8
LC-002-002-----0
 62
     7
370
    25
100
AcDbLine
 10
1549.255112
 20
2008.74
 30
0.0
 11
1549.655112
 21
2008.74
 31
0.0
  0
LINE
  5
4F9
102
{ACAD_REACTORS
330
5B6
102
}
330
1F
100
AcDbEntity
  8
LC-002-002-----0
 62
     7
370
    25
100
AcDbLine
 10
1501.455112
 20
1840.24
 30
0.0
 11
1500.300337
 21
1840.24
 31
0.0
  0
LINE
  5
4FA
102
{ACAD_REACTORS
330
5B6
102
}
330
1F
100
AcDbEntity
  8
LC-002-002-----0
 62
     7
370
    25
100
AcDbLine
 10
1561.71466
 20
1824.24
 30
0.0
 11
1561.71466
 21
1826.245437
 31
0.0
  0
LINE
  5
4FB
102
{ACAD_REACTORS
330
5B6
102
}
330
1F
100
AcDbEntity
  8
LC-002-002-----0
 62
     7
370
    25
100
AcDbLine
 10
1559.214659
 20
1822.238137
 30
0.0
 11
1559.214659
 21
1824.24
 31
0.0
  0
INSERT
  5
515
102
{ACAD_REACTORS
330
5AD
102
}
330
1F
100
AcDbEntity
  8
LC-009-003-----0
 62
     7
370
    25
100
AcDbBlockReference
  2
LCDIM13
 10
0.0
 20
0.0
 30
0.0
  0
LINE
  5
516
102
{ACAD_REACTORS
330
5AD
102
}
330
1F
100
AcDbEntity
  8
LC-002-002-----0
 62
     7
370
    50
100
AcDbLine
 10
1842.847988
 20
1909.940099
 30
0.0
 11
1637.849391
 21
1892.005045
 31
0.0
  0
LINE
  5
517
102
{ACAD_REACTORS
330
5AD
102
}
330
1F
100
AcDbEntity
  8
LC-002-002-----0
 62
     7
370
    50
100
AcDbLine
 10
1852.347988
 20
1902.740682
 30
0.0
 11
1639.552622
 21
1884.1235
 31
0.0
  0
ARC
  5
518
102
{ACAD_REACTORS
330
5AD
102
}
330
1F
100
AcDbEntity
  8
LC-002-002-----0
 62
     7
370
    50
100
AcDbCircle
 10
1842.41221
 20
1914.921072
 30
0.0
 40
4.99999999999988
100
AcDbArc
 50
275.0
 51
0.0
  0
ARC
  5
519
102
{ACAD_REACTORS
330
5AD
102
}
330
1F
100
AcDbEntity
  8
LC-002-002-----0
 62
     7
370
    50
100
AcDbCircle
 10
1851.91221
 20
1907.721656
 30
0.0
 40
5.000000000000107
100
AcDbArc
 50
275.0
 51
0.0
  0
ARC
  5
51A
102
{ACAD_REACTORS
330
5AD
102
}
330
1F
100
AcDbEntity
  8
LC-002-002-----0
 62
     7
370
    50
100
AcDbCircle
 10
1640.72553
 20
1859.13062
 30
0.0
 40
33.00000000000016
100
AcDbArc
 50
95.0
 51
177.0
  0
ARC
  5
51B
102
{ACAD_REACTORS
330
5AD
102
}
330
1F
100
AcDbEntity
  8
LC-002-002-----0
 62
     7
370
    50
100
AcDbCircle
 10
1641.731515
 20
1859.218633
 30
0.0
 40
24.99999999999986
100
AcDbArc
 50
95.0
 51
177.0
  0
LINE
  5
51C
102
{ACAD_REACTORS
330
5AD
102
}
330
1F
100
AcDbEntity
  8
LC-002-002-----0
 62
     7
370
    50
100
AcDbLine
 10
1615.966804
 20
1845.281714
 30
0.0
 11
1616.765777
 21
1860.527032
 31
0.0
  0
ARC
  5
51D
102
{ACAD_REACTORS
330
5AD
102
}
330
1F
100
AcDbEntity
  8
LC-002-002-----0
 62
     7
370
    50
100
AcDbCircle
 10
1614.768448
 20
1845.344518
 30
0.0
 40
1.199999999999929
100
AcDbArc
 50
275.0
 51
357.0
  0
LINE
  5
51E
102
{ACAD_REACTORS
330
5AD
102
}
330
1F
100
AcDbEntity
  8
LC-002-002-----0
 62
     7
370
    50
100
AcDbLine
 10
1614.676617
 20
1844.1319
 30
0.0
 11
1615.91221
 21
1844.24
 31
0.0
  0
ARC
  5
51F
102
{ACAD_REACTORS
330
5AD
102
}
330
1F
100
AcDbEntity
  8
LC-002-002-----0
 62
     7
370
    50
100
AcDbCircle
 10
1614.763773
 20
1843.135705
 30
0.0
 40
0.9999999999998402
100
AcDbArc
 50
95.0
 51
170.0
  0
LINE
  5
520
102
{ACAD_REACTORS
330
5AD
102
}
330
1F
100
AcDbEntity
  8
LC-002-002-----0
 62
     7
370
    50
100
AcDbLine
 10
1611.738976
 20
1831.74
 30
0.0
 11
1613.778965
 21
1843.309353
 31
0.0
  0
LINE
  5
521
102
{ACAD_REACTORS
330
5AD
102
}
330
1F
100
AcDbEntity
  8
LC-002-002-----0
 62
     7
370
    50
100
AcDbLine
 10
1611.738976
 20
1741.74
 30
0.0
 11
1613.778965
 21
1730.170647
 31
0.0
  0
ARC
  5
522
102
{ACAD_REACTORS
330
5AD
102
}
330
1F
100
AcDbEntity
  8
LC-002-002-----0
 62
     7
370
    50
100
AcDbCircle
 10
1614.763773
 20
1730.344295
 30
0.0
 40
1.000000000000125
100
AcDbArc
 50
190.0
 51
265.0
  0
LINE
  5
523
102
{ACAD_REACTORS
330
5AD
102
}
330
1F
100
AcDbEntity
  8
LC-002-002-----0
 62
     7
370
    50
100
AcDbLine
 10
1614.676617
 20
1729.3481
 30
0.0
 11
1614.873035
 21
1729.330916
 31
0.0
  0
ARC
  5
524
102
{ACAD_REACTORS
330
5AD
102
}
330
1F
100
AcDbEntity
  8
LC-002-002-----0
 62
     7
370
    50
100
AcDbCircle
 10
1614.768448
 20
1728.135482
 30
0.0
 40
1.199999999999707
100
AcDbArc
 50
3.0
 51
85.0
  0
ARC
  5
525
102
{ACAD_REACTORS
330
5AD
102
}
330
1F
100
AcDbEntity
  8
LC-002-002-----0
 62
     7
370
    50
100
AcDbCircle
 10
1601.518541
 20
1717.277717
 30
0.0
 40
5.999999999999874
100
AcDbArc
 50
3.0
 51
65.0
  0
LINE
  5
526
102
{ACAD_REACTORS
330
5AD
102
}
330
1F
100
AcDbEntity
  8
LC-002-002-----0
 62
     7
370
    50
100
AcDbLine
 10
1603.012104
 20
1723.201525
 30
0.0
 11
1604.054251
 21
1722.715564
 31
0.0
  0
ARC
  5
527
102
{ACAD_REACTORS
330
5AD
102
}
330
1F
100
AcDbEntity
  8
LC-002-002-----0
 62
     7
370
    50
100
AcDbCircle
 10
1603.857341
 20
1725.014141
 30
0.0
 40
2.0
100
AcDbArc
 50
180.0
 51
245.0
  0
LINE
  5
528
102
{ACAD_REACTORS
330
5AD
102
}
330
1F
100
AcDbEntity
  8
LC-002-002-----0
 62
     7
370
    50
100
AcDbLine
 10
1601.857341
 20
1725.014141
 30
0.0
 11
1601.857341
 21
1741.74
 31
0.0
  0
ARC
  5
529
102
{ACAD_REACTORS
330
5AD
102
}
330
1F
100
AcDbEntity
  8
LC-002-002-----0
 62
     7
370
    50
100
AcDbCircle
 10
1603.857341
 20
1848.465859
 30
0.0
 40
2.000000000000123
100
AcDbArc
 50
115.0
 51
180.0
  0
LINE
  5
52A
102
{ACAD_REACTORS
330
5AD
102
}
330
1F
100
AcDbEntity
  8
LC-002-002-----0
 62
     7
370
    50
100
AcDbLine
 10
1603.012104
 20
1850.278475
 30
0.0
 11
1604.054251
 21
1850.764436
 31
0.0
  0
ARC
  5
52B
102
{ACAD_REACTORS
330
5AD
102
}
330
1F
100
AcDbEntity
  8
LC-002-002-----0
 62
     7
370
    50
100
AcDbCircle
 10
1601.518541
 20
1856.202283
 30
0.0
 40
5.999999999999779
100
AcDbArc
 50
295.0
 51
357.0
  0
LINE
  5
52C
102
{ACAD_REACTORS
330
5AD
102
}
330
1F
100
AcDbEntity
  8
LC-002-002-----0
 62
     7
370
    50
100
AcDbLine
 10
1607.510318
 20
1855.888267
 30
0.0
 11
1607.770756
 21
1860.857707
 31
0.0
  0
LINE
  5
52D
102
{ACAD_REACTORS
330
5AD
102
}
330
1F
100
AcDbEntity
  8
LC-002-002-----0
 62
     7
370
    50
100
AcDbLine
 10
1607.510318
 20
1717.591733
 30
0.0
 11
1619.827418
 21
1482.567472
 31
0.0
  0
LINE
  5
52E
102
{ACAD_REACTORS
330
5AD
102
}
330
1F
100
AcDbEntity
  8
LC-002-002-----0
 62
     7
370
    50
100
AcDbLine
 10
1615.966804
 20
1728.198286
 30
0.0
 11
1628.822439
 21
1482.898147
 31
0.0
  0
ARC
  5
52F
102
{ACAD_REACTORS
330
5AD
102
}
330
1F
100
AcDbEntity
  8
LC-002-002-----0
 62
     7
370
    50
100
AcDbCircle
 10
1653.788178
 20
1484.206546
 30
0.0
 40
24.99999999999977
100
AcDbArc
 50
183.0
 51
265.0
  0
ARC
  5
530
102
{ACAD_REACTORS
330
5AD
102
}
330
1F
100
AcDbEntity
  8
LC-002-002-----0
 62
     7
370
    50
100
AcDbCircle
 10
1652.782193
 20
1484.294558
 30
0.0
 40
32.99999999999997
100
AcDbArc
 50
183.0
 51
265.0
  0
LINE
  5
531
102
{ACAD_REACTORS
330
5AD
102
}
330
1F
100
AcDbEntity
  8
LC-002-002-----0
 62
     7
370
    50
100
AcDbLine
 10
1601.857341
 20
1831.74
 30
0.0
 11
1601.857341
 21
1848.465859
 31
0.0
  0
LINE
  5
532
102
{ACAD_REACTORS
330
5AC
102
}
330
1F
100
AcDbEntity
  8
LC-002-002-----0
 62
     7
370
    50
100
AcDbLine
 10
1847.41221
 20
1914.921072
 30
0.0
 11
1847.41221
 21
1952.14
 31
0.0
  0
ARC
  5
533
102
{ACAD_REACTORS
330
5B5
102
}
330
1F
100
AcDbEntity
  8
LC-004-002-RND-0
 62
     7
370
    25
100
AcDbCircle
 10
1527.255112
 20
1735.74
 30
0.0
 40
22.0
100
AcDbArc
 50
180.0
 51
270.0
  0
LINE
  5
534
102
{ACAD_REACTORS
330
5B5
102
}
330
1F
100
AcDbEntity
  8
LC-002-002-----0
 62
     7
370
    25
100
AcDbLine
 10
1559.214659
 20
1698.24
 30
0.0
 11
1559.214659
 21
1700.241863
 31
0.0
  0
LINE
  5
535
102
{ACAD_REACTORS
330
5B5
102
}
330
1F
100
AcDbEntity
  8
LC-002-002-----0
 62
     7
370
    25
100
AcDbLine
 10
1527.255112
 20
1713.74
 30
0.0
 11
1540.946297
 21
1713.74
 31
0.0
  0
LINE
  5
536
102
{ACAD_REACTORS
330
5B5
102
}
330
1F
100
AcDbEntity
  8
LC-002-002-----0
 62
     7
370
    25
100
AcDbLine
 10
1558.511415
 20
1700.241863
 30
0.0
 11
1559.214659
 21
1700.241863
 31
0.0
  0
LINE
  5
537
102
{ACAD_REACTORS
330
5B5
102
}
330
1F
100
AcDbEntity
  8
LC-002-002-----0
 62
     7
370
    25
100
AcDbLine
 10
1561.71466
 20
1698.24
 30
0.0
 11
1559.214659
 21
1698.24
 31
0.0
  0
LINE
  5
538
102
{ACAD_REACTORS
330
5B5
102
}
330
1F
100
AcDbEntity
  8
LC-002-002-----0
 62
     7
370
    25
100
AcDbLine
 10
1548.756279
 20
1707.451061
 30
0.0
 11
1551.375143
 21
1706.972615
 31
0.0
  0
ARC
  5
539
102
{ACAD_REACTORS
330
5B5
102
}
330
1F
100
AcDbEntity
  8
LC-002-002-----0
 62
     7
370
    25
100
AcDbCircle
 10
1549.924469
 20
1713.845225
 30
0.0
 40
6.500000000000005
100
AcDbArc
 50
199.07704
 51
259.645823
  0
ARC
  5
53A
102
{ACAD_REACTORS
330
5B5
102
}
330
1F
100
AcDbEntity
  8
LC-002-002-----0
 62
     7
370
    25
100
AcDbCircle
 10
1540.946297
 20
1710.74
 30
0.0
 40
3.000000000000295
100
AcDbArc
 50
19.055448
 51
90.0
  0
ARC
  5
53B
102
{ACAD_REACTORS
330
5B5
102
}
330
1F
100
AcDbEntity
  8
LC-002-002-----0
 62
     7
370
    25
100
AcDbCircle
 10
1558.511415
 20
1702.241863
 30
0.0
 40
2.000000000000076
100
AcDbArc
 50
244.152631
 51
270.0
  0
ARC
  5
53C
102
{ACAD_REACTORS
330
5B5
102
}
330
1F
100
AcDbEntity
  8
LC-002-002-----0
 62
     7
370
    25
100
AcDbCircle
 10
1560.255112
 20
1705.841796
 30
0.0
 40
5.999999999999973
100
AcDbArc
 50
196.283517
 51
244.155028
  0
ARC
  5
53D
102
{ACAD_REACTORS
330
5B5
102
}
330
1F
100
AcDbEntity
  8
LC-002-002-----0
 62
     7
370
    25
100
AcDbCircle
 10
1550.656297
 20
1703.037737
 30
0.0
 40
4.000000000000152
100
AcDbArc
 50
16.281751
 51
79.647048
  0
LINE
  5
53E
102
{ACAD_REACTORS
330
5B5
102
}
330
1F
100
AcDbEntity
  8
LC-002-002-----0
 62
     7
370
    25
100
AcDbLine
 10
1597.857341
 20
1680.74
 30
0.0
 11
1601.857341
 21
1680.74
 31
0.0
  0
LINE
  5
53F
102
{ACAD_REACTORS
330
5B5
102
}
330
1F
100
AcDbEntity
  8
LC-002-002-----0
 62
     7
370
    25
100
AcDbLine
 10
1561.71466
 20
1696.235036
 30
0.0
 11
1561.71466
 21
1698.24
 31
0.0
  0
LINE
  5
540
102
{ACAD_REACTORS
330
5B5
102
}
330
1F
100
AcDbEntity
  8
LC-002-002-----0
 62
     7
370
    25
100
AcDbLine
 10
1566.044434
 20
1692.99061
 30
0.0
 11
1567.054783
 21
1691.240635
 31
0.0
  0
LINE
  5
541
102
{ACAD_REACTORS
330
5B5
102
}
330
1F
100
AcDbEntity
  8
LC-002-002-----0
 62
     7
370
    25
100
AcDbLine
 10
1572.251302
 20
1688.24
 30
0.0
 11
1587.714659
 21
1688.24
 31
0.0
  0
LINE
  5
542
102
{ACAD_REACTORS
330
5B5
102
}
330
1F
100
AcDbEntity
  8
LC-002-002-----0
 62
     7
370
    25
100
AcDbLine
 10
1597.397118
 20
1680.74
 30
0.0
 11
1597.857341
 21
1680.74
 31
0.0
  0
ARC
  5
543
102
{ACAD_REACTORS
330
5B5
102
}
330
1F
100
AcDbEntity
  8
LC-002-002-----0
 62
     7
370
    25
100
AcDbCircle
 10
1587.714659
 20
1684.24
 30
0.0
 40
3.999999999999755
100
AcDbArc
 50
14.492147
 51
90.0
  0
ARC
  5
544
102
{ACAD_REACTORS
330
5B5
102
}
330
1F
100
AcDbEntity
  8
LC-002-002-----0
 62
     7
370
    25
100
AcDbCircle
 10
1597.397118
 20
1686.74
 30
0.0
 40
5.999999999999878
100
AcDbArc
 50
194.469452
 51
270.0
  0
ARC
  5
545
102
{ACAD_REACTORS
330
5B5
102
}
330
1F
100
AcDbEntity
  8
LC-002-002-----0
 62
     7
370
    25
100
AcDbCircle
 10
1572.251302
 20
1694.24
 30
0.0
 40
6.000000000000091
100
AcDbArc
 50
209.988476
 51
270.0
  0
ARC
  5
546
102
{ACAD_REACTORS
330
5B5
102
}
330
1F
100
AcDbEntity
  8
LC-002-002-----0
 62
     7
370
    25
100
AcDbCircle
 10
1561.714659
 20
1690.49
 30
0.0
 40
4.999999999999792
100
AcDbArc
 50
30.016153
 51
82.072225
  0
ARC
  5
547
102
{ACAD_REACTORS
330
5B5
102
}
330
1F
100
AcDbEntity
  8
LC-002-002-----0
 62
     7
370
    25
100
AcDbCircle
 10
1562.514659
 20
1696.234563
 30
0.0
 40
0.7999999999997272
100
AcDbArc
 50
180.0
 51
262.062606
  0
INSERT
  5
561
102
{ACAD_REACTORS
330
5AD
102
}
330
1F
100
AcDbEntity
  8
LC-009-003-----0
 62
     7
370
    25
100
AcDbBlockReference
  2
LCDIM14
 10
0.0
 20
0.0
 30
0.0
  0
LINE
  5
562
102
{ACAD_REACTORS
330
5AB
102
}
330
1F
100
AcDbEntity
  8
LC-002-002-----0
 62
     7
370
    50
100
AcDbLine
 10
805.868428
 20
991.357172
 30
0.0
 11
406.768428
 21
991.357172
 31
0.0
  0
LINE
  5
563
102
{ACAD_REACTORS
330
5AB
102
}
330
1F
100
AcDbEntity
  8
LC-002-002-----0
 62
     7
370
    50
100
AcDbLine
 10
401.768428
 20
986.357172
 30
0.0
 11
401.768428
 21
726.957172
 31
0.0
  0
LINE
  5
564
102
{ACAD_REACTORS
330
5AB
102
}
330
1F
100
AcDbEntity
  8
LC-002-002-----0
 62
     7
370
    50
100
AcDbLine
 10
406.768428
 20
721.957172
 30
0.0
 11
805.868428
 21
721.957172
 31
0.0
  0
LINE
  5
565
102
{ACAD_REACTORS
330
5AB
102
}
330
1F
100
AcDbEntity
  8
LC-002-002-----0
 62
     7
370
    50
100
AcDbLine
 10
810.868428
 20
726.957172
 30
0.0
 11
810.868428
 21
986.357172
 31
0.0
  0
INSERT
  5
57F
102
{ACAD_REACTORS
330
5AB
102
}
330
1F
100
AcDbEntity
  8
LC-009-003-----0
 62
     7
370
    25
100
AcDbBlockReference
  2
LCDIM15
 10
0.0
 20
0.0
 30
0.0
  0
INSERT
  5
599
102
{ACAD_REACTORS
330
5AB
102
}
330
1F
100
AcDbEntity
  8
LC-009-003-----0
 62
     7
370
    25
100
AcDbBlockReference
  2
LCDIM16
 10
0.0
 20
0.0
 30
0.0
  0
INSERT
  5
5A8
102
{ACAD_REACTORS
330
5AB
102
}
330
1F
100
AcDbEntity
  8
LC-009-003-----0
 62
     7
370
    25
100
AcDbBlockReference
  2
LCDIM17
 10
0.0
 20
0.0
 30
0.0
  0
TEXT
  5
5AA
330
1F
100
AcDbEntity
  8
LC-011-004-----0
 62
     7
370
    35
100
AcDbText
 10
416.951389
 20
1064.902215
 30
0.0
 40
35.0
  1
Ausschnitt übergreifend  1:20
 41
0.8
  7
LCTX0-400-0-0pDIN-Schrift
100
AcDbText
  0
ENDSEC
  0
SECTION
  2
OBJECTS
  0
DICTIONARY
  5
C
330
0
100
AcDbDictionary
281
     1
  3
ACAD_GROUP
350
D
  3
ACAD_LAYOUT
350
1A
  3
ACAD_MLINESTYLE
350
17
  3
ACAD_PLOTSETTINGS
350
19
  3
ACAD_PLOTSTYLENAME
350
E
  0
DICTIONARY
  5
D
102
{ACAD_REACTORS
330
C
102
}
330
C
100
AcDbDictionary
281
     1
  3
LCGROUP14
350
5AB
  3
LCGROUP160
350
5B7
  3
LCGROUP20
350
5AE
  3
LCGROUP22
350
5AD
  3
LCGROUP252
350
5B8
  3
LCGROUP293
350
5AC
  3
LCGROUP372
350
5B4
  3
LCGROUP373
350
5B3
  3
LCGROUP541
350
5B9
  3
LCGROUP588
350
5AF
  3
LCGROUP597
350
5B1
  3
LCGROUP598
350
5B0
  3
LCGROUP65
350
5B2
  3
LCGROUP676
350
5B6
  3
LCGROUP919
350
5B5
  0
DICTIONARY
  5
1A
102
{ACAD_REACTORS
330
C
102
}
330
C
100
AcDbDictionary
281
     1
  3
Layout1
350
1E
  3
Layout2
350
26
  3
Model
350
22
  0
DICTIONARY
  5
17
102
{ACAD_REACTORS
330
C
102
}
330
C
100
AcDbDictionary
281
     1
  3
Standard
350
18
  0
DICTIONARY
  5
19
102
{ACAD_REACTORS
330
C
102
}
330
C
100
AcDbDictionary
281
     1
  0
ACDBDICTIONARYWDFLT
  5
E
102
{ACAD_REACTORS
330
C
102
}
330
C
100
AcDbDictionary
281
     1
  3
Normal
350
F
100
AcDbDictionaryWithDefault
340
F
  0
GROUP
  5
5AB
102
{ACAD_REACTORS
330
D
102
}
330
D
100
AcDbGroup
300
Äquidistante
 70
     1
 71
     1
340
113
340
117
340
11E
340
11F
340
562
340
563
340
564
340
565
340
57F
340
599
340
5A8
  0
GROUP
  5
5B7
102
{ACAD_REACTORS
330
D
102
}
330
D
100
AcDbGroup
300
GRP160
 70
     1
 71
     1
340
16C
340
16D
340
16E
340
16F
340
170
340
171
340
172
340
173
340
174
340
175
340
176
340
177
340
178
340
179
340
17A
340
17B
340
17C
340
17D
340
17E
340
17F
340
180
340
181
340
182
340
183
340
184
340
185
340
186
340
187
340
188
340
189
340
18A
340
18B
340
18C
340
18D
340
18E
340
18F
340
190
340
191
340
192
340
193
340
194
340
195
340
196
340
197
340
198
340
199
340
19A
340
19B
340
19C
340
19D
340
19E
340
19F
340
1A0
340
1A1
340
1A2
340
1A3
340
1A4
340
1A5
340
1A6
340
1A7
340
1A8
340
1A9
340
1AA
340
1AB
340
1AC
340
1AD
340
1AE
340
1AF
340
1B0
340
1B1
340
1B2
340
1B3
340
1B4
340
1B5
340
1B6
340
1B7
340
1B8
340
1B9
340
1BA
340
1BB
340
1BC
340
1BD
340
1BE
340
1BF
340
1C0
340
1C1
340
1C2
340
1C3
340
1C4
340
1C5
340
1C6
340
20D
340
227
340
241
  0
GROUP
  5
5AE
102
{ACAD_REACTORS
330
D
102
}
330
D
100
AcDbGroup
300
GRP20
 70
     1
 71
     1
340
107
340
108
340
109
340
10A
340
10B
340
10D
340
10E
340
10F
340
110
340
111
340
242
340
243
340
244
340
245
340
246
340
251
340
252
340
253
340
254
340
255
340
256
340
270
  0
GROUP
  5
5AD
102
{ACAD_REACTORS
330
D
102
}
330
D
100
AcDbGroup
300
GRP22
 70
     1
 71
     1
340
116
340
118
340
119
340
11A
340
11B
340
11C
340
515
340
516
340
517
340
518
340
519
340
51A
340
51B
340
51C
340
51D
340
51E
340
51F
340
520
340
521
340
522
340
523
340
524
340
525
340
526
340
527
340
528
340
529
340
52A
340
52B
340
52C
340
52D
340
52E
340
52F
340
530
340
531
340
561
  0
GROUP
  5
5B8
102
{ACAD_REACTORS
330
D
102
}
330
D
100
AcDbGroup
300
GRP252-LCMaster-LCGROUP293
 70
     1
 71
     1
340
105
340
106
340
1C7
340
1C8
340
1C9
340
1CA
340
1CB
340
1CC
340
1CD
340
1CE
340
1CF
340
1D6
  0
GROUP
  5
5AC
102
{ACAD_REACTORS
330
D
102
}
330
D
100
AcDbGroup
300
GRP293-LCMaster-LCGROUP22
 70
     1
 71
     1
340
11D
340
1D7
340
1D8
340
1D9
340
1DA
340
1DB
340
1DC
340
1DD
340
1DE
340
1DF
340
1E0
340
1E1
340
1E2
340
1E3
340
1E4
340
1E5
340
1E6
340
1E7
340
1E8
340
1E9
340
1EA
340
1EB
340
1EC
340
1ED
340
1EE
340
1EF
340
1F0
340
340
340
532
  0
GROUP
  5
5B4
102
{ACAD_REACTORS
330
D
102
}
330
D
100
AcDbGroup
300
GRP372
 70
     1
 71
     1
340
34E
340
34F
340
350
340
351
340
352
340
353
340
354
340
355
340
356
340
357
340
358
340
359
340
35A
340
35B
340
35C
340
35D
340
35E
340
35F
340
360
340
361
340
362
340
363
340
364
340
365
340
366
340
367
340
368
340
369
340
36A
340
36B
340
36C
340
36D
340
36E
340
36F
340
370
340
371
340
372
340
373
340
374
340
382
340
383
340
3B7
340
3B8
340
3B9
340
3BA
340
3BB
340
3BC
340
3BD
340
3BE
340
3BF
340
3C0
340
3C1
340
3C2
340
3C3
340
3C4
340
3C5
340
3C6
340
3C7
340
3C8
340
3C9
340
3CA
340
3CB
340
3CC
340
3CD
340
3CE
340
3CF
340
3D0
340
3D1
340
3D2
340
3D3
340
3D4
340
3D5
340
3D6
340
3D7
340
3D8
340
407
340
408
340
409
340
40A
340
40B
340
40D
340
40E
340
40F
340
410
  0
GROUP
  5
5B3
102
{ACAD_REACTORS
330
D
102
}
330
D
100
AcDbGroup
300
GRP373-LCMaster-LCGROUP372
 70
     1
 71
     1
340
341
340
342
340
343
340
344
340
375
340
376
340
377
340
378
340
379
340
37A
340
37B
340
37C
340
37D
340
37E
340
37F
340
380
340
381
340
384
340
394
340
3A4
340
3A5
340
3B5
340
3B6
340
3D9
340
3DA
340
404
  0
GROUP
  5
5B9
102
{ACAD_REACTORS
330
D
102
}
330
D
100
AcDbGroup
300
GRP541-LCMaster-LCGROUP373
 70
     1
 71
     1
340
3DB
340
3DC
340
3DD
340
3DE
340
3DF
340
3E0
340
3E1
340
3E2
340
3E3
340
3E4
340
3E5
340
3E6
340
3E7
340
3E8
340
3E9
340
3EA
340
3EB
340
3EC
340
3ED
340
3EE
340
3EF
340
3F0
340
3F1
340
3F2
340
3F3
340
3F4
340
3F5
340
3F6
340
3F7
340
3F8
340
3F9
340
3FA
340
3FB
340
3FC
340
3FD
340
3FE
340
3FF
340
400
340
401
340
402
340
403
340
405
340
406
  0
GROUP
  5
5AF
102
{ACAD_REACTORS
330
D
102
}
330
D
100
AcDbGroup
300
Gruppe 588
 70
     1
 71
     1
340
40C
  0
GROUP
  5
5B1
102
{ACAD_REACTORS
330
D
102
}
330
D
100
AcDbGroup
300
GRP597-LCMaster-LCGROUP676
 70
     1
 71
     1
340
48C
340
48D
340
48F
340
4D0
  0
GROUP
  5
5B0
102
{ACAD_REACTORS
330
D
102
}
330
D
100
AcDbGroup
300
GRP2961-LCMaster-LCGROUP597
 70
     1
 71
     1
340
411
340
412
340
413
340
414
340
415
340
416
340
417
340
418
340
419
340
41A
340
41B
340
41C
340
41D
340
41E
340
41F
340
420
340
421
340
422
340
423
340
424
340
425
340
426
340
427
340
428
340
429
340
42A
340
42B
340
42C
340
42D
340
42E
340
42F
340
430
340
431
340
432
340
433
340
434
340
435
340
436
340
437
340
438
340
439
340
43A
340
43B
340
43C
340
43D
340
43E
340
43F
340
440
340
441
340
442
340
443
340
444
340
445
340
446
340
447
340
448
340
449
340
44A
340
44B
340
44C
340
44D
340
44E
340
44F
340
450
340
451
340
452
340
453
340
454
340
455
340
456
340
457
340
458
340
468
340
469
340
479
340
47A
340
48A
340
4F8
  0
GROUP
  5
5B2
102
{ACAD_REACTORS
330
D
102
}
330
D
100
AcDbGroup
300
GRP65
 70
     1
 71
     1
340
120
340
121
340
122
340
123
340
124
340
125
340
126
340
127
340
128
340
129
340
12A
340
12B
340
12C
340
12D
340
12E
340
12F
340
130
340
131
340
132
340
133
340
134
340
135
340
136
340
137
340
138
340
139
340
13A
340
13B
340
13C
340
13D
340
13E
340
13F
340
140
340
141
340
142
340
143
340
144
340
145
340
146
340
147
340
148
340
149
340
14A
340
14B
340
14C
340
14E
340
14F
340
150
340
151
340
152
340
153
340
154
340
155
340
156
340
157
340
158
340
159
340
15B
340
15C
340
15D
340
15E
340
15F
340
160
340
161
340
162
340
163
340
164
340
165
340
166
340
167
340
168
340
169
340
16A
340
16B
340
28A
340
2A4
340
2BE
340
2D8
340
2F2
340
30C
340
326
  0
GROUP
  5
5B6
102
{ACAD_REACTORS
330
D
102
}
330
D
100
AcDbGroup
300
GRP676
 70
     1
 71
     1
340
48B
340
48E
340
490
340
491
340
492
340
493
340
494
340
495
340
496
340
497
340
498
340
499
340
49A
340
49B
340
49C
340
49D
340
4AD
340
4AE
340
4BE
340
4BF
340
4CF
340
4D1
340
4D2
340
4D3
340
4D4
340
4D5
340
4D6
340
4D7
340
4D8
340
4D9
340
4DA
340
4DB
340
4DC
340
4DD
340
4DE
340
4DF
340
4E0
340
4E1
340
4E2
340
4E3
340
4E4
340
4E5
340
4E6
340
4E7
340
4E8
340
4E9
340
4EA
340
4EB
340
4EC
340
4ED
340
4EE
340
4EF
340
4F0
340
4F1
340
4F2
340
4F3
340
4F4
340
4F5
340
4F6
340
4F7
340
4F9
340
4FA
340
4FB
  0
GROUP
  5
5B5
102
{ACAD_REACTORS
330
D
102
}
330
D
100
AcDbGroup
300
Gruppe 919-LCMaster-LCGROUP676
 70
     1
 71
     1
340
10C
340
533
340
534
340
535
340
536
340
537
340
538
340
539
340
53A
340
53B
340
53C
340
53D
340
53E
340
53F
340
540
340
541
340
542
340
543
340
544
340
545
340
546
340
547
  0
LAYOUT
  5
1E
102
{ACAD_REACTORS
330
1A
102
}
330
1A
100
AcDbPlotSettings
  1

  2

  4

  6

 40
0.0
 41
0.0
 42
0.0
 43
0.0
 44
0.0
 45
0.0
 46
0.0
 47
0.0
 48
0.0
 49
0.0
140
0.0
141
0.0
142
1.0
143
1.0
 70
   688
 72
     0
 73
     0
 74
     5
  7

 75
    16
147
1.0
148
0.0
149
0.0
100
AcDbLayout
  1
Layout1
 70
     1
 71
     1
 10
0.0
 20
0.0
 11
2100.0
 21
2970.0
 12
0.0
 22
0.0
 32
0.0
 14
0.0
 24
0.0
 34
0.0
 15
2100.0
 25
2970.0
 35
0.0
146
0.0
 13
0.0
 23
0.0
 33
0.0
 16
1.0
 26
0.0
 36
0.0
 17
0.0
 27
1.0
 37
0.0
 76
     0
330
1B
  0
LAYOUT
  5
26
102
{ACAD_REACTORS
330
1A
102
}
330
1A
100
AcDbPlotSettings
  1

  2

  4

  6

 40
0.0
 41
0.0
 42
0.0
 43
0.0
 44
0.0
 45
0.0
 46
0.0
 47
0.0
 48
0.0
 49
0.0
140
0.0
141
0.0
142
1.0
143
1.0
 70
   688
 72
     0
 73
     0
 74
     5
  7

 75
    16
147
1.0
148
0.0
149
0.0
100
AcDbLayout
  1
Layout2
 70
     1
 71
     2
 10
0.0
 20
0.0
 11
0.0
 21
0.0
 12
0.0
 22
0.0
 32
0.0
 14
0.0
 24
0.0
 34
0.0
 15
0.0
 25
0.0
 35
0.0
146
0.0
 13
0.0
 23
0.0
 33
0.0
 16
1.0
 26
0.0
 36
0.0
 17
0.0
 27
1.0
 37
0.0
 76
     0
330
23
  0
LAYOUT
  5
22
102
{ACAD_REACTORS
330
1A
102
}
330
1A
100
AcDbPlotSettings
  1

  2

  4

  6

 40
0.0
 41
0.0
 42
0.0
 43
0.0
 44
0.0
 45
0.0
 46
0.0
 47
0.0
 48
0.0
 49
0.0
140
0.0
141
0.0
142
1.0
143
1.0
 70
  1776
 72
     0
 73
     0
 74
     0
  7

 75
     0
147
1.0
148
0.0
149
0.0
100
AcDbLayout
  1
Model
 70
     1
 71
     0
 10
0.0
 20
0.0
 11
2100.0
 21
2970.0
 12
0.0
 22
0.0
 32
0.0
 14
0.0
 24
0.0
 34
0.0
 15
2100.0
 25
2970.0
 35
0.0
146
0.0
 13
0.0
 23
0.0
 33
0.0
 16
1.0
 26
0.0
 36
0.0
 17
0.0
 27
1.0
 37
0.0
 76
     0
330
1F
  0
MLINESTYLE
  5
18
102
{ACAD_REACTORS
330
17
102
}
330
17
100
AcDbMlineStyle
  2
Standard
 70
     0
  3

 62
   256
 51
90.0
 52
90.0
 71
     2
 49
0.5
 62
   256
  6
BYLAYER
 49
-0.5
 62
   256
  6
BYLAYER
  0
ACDBPLACEHOLDER
  5
F
102
{ACAD_REACTORS
330
E
102
}
330
E
  0
ENDSEC
  0
EOF
