  0
SECTION
  2
HEADER
  9
$ACADVER
  1
AC1015
  9
$ACADMAINTVER
 70
     6
  9
$DWGCODEPAGE
  3
ANSI_1252
  9
$INSBASE
 10
0.0
 20
0.0
 30
0.0
  9
$EXTMIN
 10
0.0
 20
0.0
 30
0.0
  9
$EXTMAX
 10
2100.0
 20
2970.0
 30
0.0
  9
$LIMMIN
 10
0.0
 20
0.0
  9
$LIMMAX
 10
2100.0
 20
2970.0
  9
$ORTHOMODE
 70
     0
  9
$REGENMODE
 70
     1
  9
$FILLMODE
 70
     1
  9
$QTEXTMODE
 70
     0
  9
$MIRRTEXT
 70
     1
  9
$LTSCALE
 40
10.0
  9
$ATTMODE
 70
     1
  9
$TEXTSIZE
 40
2.5
  9
$TRACEWID
 40
1.0
  9
$TEXTSTYLE
  7
Standard
  9
$CLAYER
  8
0
  9
$CELTYPE
  6
ByLayer
  9
$CECOLOR
 62
     7
  9
$CELTSCALE
 40
1.0
  9
$DISPSILH
 70
     0
  9
$DIMSCALE
 40
10.0
  9
$DIMASZ
 40
3.5
  9
$DIMEXO
 40
0.625
  9
$DIMDLI
 40
3.75
  9
$DIMRND
 40
0.0
  9
$DIMDLE
 40
0.0
  9
$DIMEXE
 40
1.25
  9
$DIMTP
 40
0.0
  9
$DIMTM
 40
0.0
  9
$DIMTXT
 40
3.5
  9
$DIMCEN
 40
2.5
  9
$DIMTSZ
 40
0.0
  9
$DIMTOL
 70
     0
  9
$DIMLIM
 70
     0
  9
$DIMTIH
 70
     0
  9
$DIMTOH
 70
     0
  9
$DIMSE1
 70
     0
  9
$DIMSE2
 70
     0
  9
$DIMTAD
 70
     1
  9
$DIMZIN
 70
     8
  9
$DIMBLK
  1

  9
$DIMASO
 70
     1
  9
$DIMSHO
 70
     1
  9
$DIMPOST
  1

  9
$DIMAPOST
  1

  9
$DIMALT
 70
     0
  9
$DIMALTD
 70
     3
  9
$DIMALTF
 40
0.03937
  9
$DIMLFAC
 40
1.0
  9
$DIMTOFL
 70
     1
  9
$DIMTVP
 40
0.0
  9
$DIMTIX
 70
     0
  9
$DIMSOXD
 70
     0
  9
$DIMSAH
 70
     0
  9
$DIMBLK1
  1

  9
$DIMBLK2
  1

  9
$DIMSTYLE
  2
ISO-25
  9
$DIMCLRD
 70
     0
  9
$DIMCLRE
 70
     0
  9
$DIMCLRT
 70
     0
  9
$DIMTFAC
 40
1.0
  9
$DIMGAP
 40
0.625
  9
$DIMJUST
 70
     0
  9
$DIMSD1
 70
     0
  9
$DIMSD2
 70
     0
  9
$DIMTOLJ
 70
     0
  9
$DIMTZIN
 70
     8
  9
$DIMALTZ
 70
     0
  9
$DIMALTTZ
 70
     0
  9
$DIMUPT
 70
     0
  9
$DIMDEC
 70
     2
  9
$DIMTDEC
 70
     2
  9
$DIMALTU
 70
     2
  9
$DIMALTTD
 70
     3
  9
$DIMTXSTY
  7
Standard
  9
$DIMAUNIT
 70
     0
  9
$DIMADEC
 70
     0
  9
$DIMALTRND
 40
0.0
  9
$DIMAZIN
 70
     0
  9
$DIMDSEP
 70
    44
  9
$DIMATFIT
 70
     3
  9
$DIMFRAC
 70
     0
  9
$DIMLDRBLK
  1

  9
$DIMLUNIT
 70
     2
  9
$DIMLWD
 70
    -2
  9
$DIMLWE
 70
    -2
  9
$DIMTMOVE
 70
     0
  9
$LUNITS
 70
     2
  9
$LUPREC
 70
     4
  9
$SKETCHINC
 40
1.0
  9
$FILLETRAD
 40
10.0
  9
$AUNITS
 70
     0
  9
$AUPREC
 70
     0
  9
$MENU
  1
.
  9
$ELEVATION
 40
0.0
  9
$PELEVATION
 40
0.0
  9
$THICKNESS
 40
0.0
  9
$LIMCHECK
 70
     0
  9
$CHAMFERA
 40
10.0
  9
$CHAMFERB
 40
10.0
  9
$CHAMFERC
 40
20.0
  9
$CHAMFERD
 40
0.0
  9
$SKPOLY
 70
     0
  9
$TDCREATE
 40
2455505.430062882
  9
$TDUCREATE
 40
2455505.388396215
  9
$TDUPDATE
 40
2455505.430062893
  9
$TDUUPDATE
 40
2455505.388396227
  9
$TDINDWG
 40
0.0000000116
  9
$TDUSRTIMER
 40
0.0000000116
  9
$USRTIMER
 70
     1
  9
$ANGBASE
 50
0.0
  9
$ANGDIR
 70
     0
  9
$PDMODE
 70
     0
  9
$PDSIZE
 40
0.0
  9
$PLINEWID
 40
0.0
  9
$SPLFRAME
 70
     0
  9
$SPLINETYPE
 70
     6
  9
$SPLINESEGS
 70
     8
  9
$HANDSEED
  5
560
  9
$SURFTAB1
 70
     6
  9
$SURFTAB2
 70
     6
  9
$SURFTYPE
 70
     6
  9
$SURFU
 70
     6
  9
$SURFV
 70
     6
  9
$UCSBASE
  2

  9
$UCSNAME
  2

  9
$UCSORG
 10
0.0
 20
0.0
 30
0.0
  9
$UCSXDIR
 10
1.0
 20
0.0
 30
0.0
  9
$UCSYDIR
 10
0.0
 20
1.0
 30
0.0
  9
$UCSORTHOREF
  2

  9
$UCSORTHOVIEW
 70
     0
  9
$UCSORGTOP
 10
0.0
 20
0.0
 30
0.0
  9
$UCSORGBOTTOM
 10
0.0
 20
0.0
 30
0.0
  9
$UCSORGLEFT
 10
0.0
 20
0.0
 30
0.0
  9
$UCSORGRIGHT
 10
0.0
 20
0.0
 30
0.0
  9
$UCSORGFRONT
 10
0.0
 20
0.0
 30
0.0
  9
$UCSORGBACK
 10
0.0
 20
0.0
 30
0.0
  9
$PUCSBASE
  2

  9
$PUCSNAME
  2

  9
$PUCSORG
 10
0.0
 20
0.0
 30
0.0
  9
$PUCSXDIR
 10
1.0
 20
0.0
 30
0.0
  9
$PUCSYDIR
 10
0.0
 20
1.0
 30
0.0
  9
$PUCSORTHOREF
  2

  9
$PUCSORTHOVIEW
 70
     0
  9
$PUCSORGTOP
 10
0.0
 20
0.0
 30
0.0
  9
$PUCSORGBOTTOM
 10
0.0
 20
0.0
 30
0.0
  9
$PUCSORGLEFT
 10
0.0
 20
0.0
 30
0.0
  9
$PUCSORGRIGHT
 10
0.0
 20
0.0
 30
0.0
  9
$PUCSORGFRONT
 10
0.0
 20
0.0
 30
0.0
  9
$PUCSORGBACK
 10
0.0
 20
0.0
 30
0.0
  9
$USERI1
 70
     0
  9
$USERI2
 70
     0
  9
$USERI3
 70
     0
  9
$USERI4
 70
     0
  9
$USERI5
 70
     0
  9
$USERR1
 40
0.0
  9
$USERR2
 40
0.0
  9
$USERR3
 40
0.0
  9
$USERR4
 40
0.0
  9
$USERR5
 40
0.0
  9
$WORLDVIEW
 70
     1
  9
$SHADEDGE
 70
     3
  9
$SHADEDIF
 70
    70
  9
$TILEMODE
 70
     1
  9
$MAXACTVP
 70
    64
  9
$PINSBASE
 10
0.0
 20
0.0
 30
0.0
  9
$PLIMCHECK
 70
     0
  9
$PEXTMIN
 10
0.0
 20
0.0
 30
0.0
  9
$PEXTMAX
 10
2100.0
 20
2970.0
 30
0.0
  9
$PLIMMIN
 10
0.0
 20
0.0
  9
$PLIMMAX
 10
2100.0
 20
2970.0
  9
$UNITMODE
 70
     0
  9
$VISRETAIN
 70
     1
  9
$PLINEGEN
 70
     0
  9
$PSLTSCALE
 70
     1
  9
$TREEDEPTH
 70
  3020
  9
$CMLSTYLE
  2
Standard
  9
$CMLJUST
 70
     0
  9
$CMLSCALE
 40
20.0
  9
$PROXYGRAPHICS
 70
     1
  9
$MEASUREMENT
 70
     1
  9
$CELWEIGHT
370
    -1
  9
$ENDCAPS
280
     0
  9
$JOINSTYLE
280
     0
  9
$LWDISPLAY
290
     0
  9
$INSUNITS
 70
     4
  9
$HYPERLINKBASE
  1

  9
$STYLESHEET
  1

  9
$XEDIT
290
     1
  9
$CEPSNTYPE
380
     0
  9
$PSTYLEMODE
290
     1
  9
$FINGERPRINTGUID
  2
{FAEB1C30-E019-11D5-929B-00C0DF256EC4}
  9
$VERSIONGUID
  2
{FAEB1C32-E019-11D5-929B-00C0DF256EC4}
  9
$EXTNAMES
290
     1
  9
$PSVPSCALE
 40
0.0
  9
$OLESTARTUP
290
     0
  0
ENDSEC
  0
SECTION
  2
CLASSES
  0
CLASS
  1
ACDBDICTIONARYWDFLT
  2
AcDbDictionaryWithDefault
  3
ObjectDBX Classes
 90
        0
280
     0
281
     0
  0
CLASS
  1
ACDBPLACEHOLDER
  2
AcDbPlaceHolder
  3
ObjectDBX Classes
 90
        0
280
     0
281
     0
  0
CLASS
  1
LAYOUT
  2
AcDbLayout
  3
ObjectDBX Classes
 90
        0
280
     0
281
     0
  0
ENDSEC
  0
SECTION
  2
TABLES
  0
TABLE
  2
VPORT
  5
8
330
0
100
AcDbSymbolTable
 70
     2
  0
VPORT
  5
29
330
8
100
AcDbSymbolTableRecord
100
AcDbViewportTableRecord
  2
*ACTIVE
 70
     0
 10
0.0
 20
0.0
 11
1.0
 21
1.0
 12
1050.0
 22
1485.0
 13
0.0
 23
0.0
 14
1.0
 24
1.0
 15
0.0
 25
0.0
 16
0.0
 26
0.0
 36
1.0
 17
0.0
 27
0.0
 37
0.0
 40
2970.0
 41
0.707071
 42
50.0
 43
0.0
 44
0.0
 50
0.0
 51
0.0
 71
    16
 72
   100
 73
     1
 74
     0
 75
     0
 76
     0
 77
     0
 78
     0
281
     0
 65
     0
110
0.0
120
0.0
130
0.0
111
1.0
121
0.0
131
0.0
112
0.0
122
1.0
132
0.0
 79
     0
146
0.0
  0
ENDTAB
  0
TABLE
  2
LTYPE
  5
5
330
0
100
AcDbSymbolTable
 70
     3
  0
LTYPE
  5
14
330
5
100
AcDbSymbolTableRecord
100
AcDbLinetypeTableRecord
  2
ByBlock
 70
     0
  3

 72
    65
 73
     0
 40
0.0
  0
LTYPE
  5
15
330
5
100
AcDbSymbolTableRecord
100
AcDbLinetypeTableRecord
  2
ByLayer
 70
     0
  3

 72
    65
 73
     0
 40
0.0
  0
LTYPE
  5
16
330
5
100
AcDbSymbolTableRecord
100
AcDbLinetypeTableRecord
  2
Continuous
 70
     0
  3
Solid line
 72
    65
 73
     0
 40
0.0
  0
LTYPE
  5
2A
330
5
100
AcDbSymbolTableRecord
100
AcDbLinetypeTableRecord
  2
DASHED
 70
     0
  3
__ __ __ __ __
 72
    65
 73
     2
 40
6.25
 49
5.0
 74
     4
 75
     0
340
0
 46
1.0
 50
0.0
 44
0.0
 45
0.0
 49
-1.25
 74
     4
 75
     0
340
0
 46
1.0
 50
0.0
 44
0.0
 45
0.0
  0
LTYPE
  5
227
330
5
100
AcDbSymbolTableRecord
100
AcDbLinetypeTableRecord
  2
CENTER
 70
     0
  3
__ . __ . __ . __ . __
 72
    65
 73
     4
 40
7.5
 49
5.0
 74
     4
 75
     0
340
0
 46
1.0
 50
0.0
 44
0.0
 45
0.0
 49
-1.25
 74
     4
 75
     0
340
0
 46
1.0
 50
0.0
 44
0.0
 45
0.0
 49
0.0
 74
     4
 75
     0
340
0
 46
1.0
 50
0.0
 44
0.0
 45
0.0
 49
-1.25
 74
     4
 75
     0
340
0
 46
1.0
 50
0.0
 44
0.0
 45
0.0
  0
ENDTAB
  0
TABLE
  2
LAYER
  5
2
330
0
100
AcDbSymbolTable
 70
    15
  0
LAYER
  5
10
330
2
100
AcDbSymbolTableRecord
100
AcDbLayerTableRecord
  2
0
 70
     0
 62
     7
  6
Continuous
370
    -3
390
F
  0
LAYER
  5
2B
330
2
100
AcDbSymbolTableRecord
100
AcDbLayerTableRecord
  2
LC-INFO-1-10-mm-A4H-0
 70
     1
 62
     7
  6
ByBlock
370
    -3
390
F
  0
LAYER
  5
2C
330
2
100
AcDbSymbolTableRecord
100
AcDbLayerTableRecord
  2
LC-CUT-HIDDEN
 70
     0
 62
     7
  6
DASHED
370
    -3
390
F
  0
LAYER
  5
2D
330
2
100
AcDbSymbolTableRecord
100
AcDbLayerTableRecord
  2
LC-VIEWPORT
 70
     0
 62
     7
  6
ByBlock
370
    -3
390
F
  0
LAYER
  5
2E
330
2
100
AcDbSymbolTableRecord
100
AcDbLayerTableRecord
  2
LC-3D-HIDDEN
 70
     0
 62
     9
  6
DASHED
370
    -3
390
F
  0
LAYER
  5
33
330
2
100
AcDbSymbolTableRecord
100
AcDbLayerTableRecord
  2
LC-001-111-----0
 70
     0
 62
   253
  6
ByBlock
370
    -3
390
F
  0
LAYER
  5
A2
330
2
100
AcDbSymbolTableRecord
100
AcDbLayerTableRecord
  2
LC-002-002-----0
 70
     0
 62
     1
  6
ByBlock
370
    -3
390
F
  0
LAYER
  5
104
330
2
100
AcDbSymbolTableRecord
100
AcDbLayerTableRecord
  2
LC-003-230-ZVN-0
 70
     0
 62
     2
  6
ByBlock
370
    -3
390
F
  0
LAYER
  5
107
330
2
100
AcDbSymbolTableRecord
100
AcDbLayerTableRecord
  2
LC-004-002-RND-0
 70
     0
 62
     1
  6
ByBlock
370
    -3
390
F
  0
LAYER
  5
118
330
2
100
AcDbSymbolTableRecord
100
AcDbLayerTableRecord
  2
LC-005-004-----0
 70
     0
 62
     7
  6
ByBlock
370
    -3
390
F
  0
LAYER
  5
11D
330
2
100
AcDbSymbolTableRecord
100
AcDbLayerTableRecord
  2
LC-006-005-----0
 70
     0
 62
     5
  6
ByBlock
370
    -3
390
F
  0
LAYER
  5
228
330
2
100
AcDbSymbolTableRecord
100
AcDbLayerTableRecord
  2
LC-007-006-MLN-0
 70
     0
 62
     2
  6
CENTER
370
    -3
390
F
  0
LAYER
  5
455
330
2
100
AcDbSymbolTableRecord
100
AcDbLayerTableRecord
  2
LC-008-003-MTH-0
 70
     0
 62
     2
  6
ByBlock
370
    -3
390
F
  0
LAYER
  5
458
330
2
100
AcDbSymbolTableRecord
100
AcDbLayerTableRecord
  2
LC-009-003-MTG-0
 70
     0
 62
     2
  6
ByBlock
370
    -3
390
F
  0
LAYER
  5
45A
330
2
100
AcDbSymbolTableRecord
100
AcDbLayerTableRecord
  2
LC-010-003-----0
 70
     0
 62
     2
  6
ByBlock
370
    -3
390
F
  0
ENDTAB
  0
TABLE
  2
STYLE
  5
3
330
0
100
AcDbSymbolTable
 70
     2
  0
STYLE
  5
11
330
3
100
AcDbSymbolTableRecord
100
AcDbTextStyleTableRecord
  2
Standard
 70
     0
 40
0.0
 41
1.0
 50
0.0
 71
     0
 42
2.5
  3
txt
  4

  0
STYLE
  5
2F
330
3
100
AcDbSymbolTableRecord
100
AcDbTextStyleTableRecord
  2
LCTX0-400-0-0pDIN-Schrift
 70
     0
 40
0.0
 41
0.8
 50
0.0
 71
     0
 42
3.5
  3
TXT
  4

  0
ENDTAB
  0
TABLE
  2
VIEW
  5
6
330
0
100
AcDbSymbolTable
 70
     0
  0
ENDTAB
  0
TABLE
  2
UCS
  5
7
330
0
100
AcDbSymbolTable
 70
     0
  0
ENDTAB
  0
TABLE
  2
APPID
  5
9
330
0
100
AcDbSymbolTable
 70
     1
  0
APPID
  5
12
330
9
100
AcDbSymbolTableRecord
100
AcDbRegAppTableRecord
  2
ACAD
 70
     0
  0
ENDTAB
  0
TABLE
  2
DIMSTYLE
  5
A
330
0
100
AcDbSymbolTable
 70
     1
100
AcDbDimStyleTable
  0
DIMSTYLE
105
27
330
A
100
AcDbSymbolTableRecord
100
AcDbDimStyleTableRecord
  2
ISO-25
 70
     0
 41
2.5
 42
0.625
 43
3.75
 44
1.25
 73
     0
 74
     0
 77
     1
 78
     8
140
2.5
141
2.5
143
0.03937
147
0.625
171
     3
172
     1
271
     2
272
     2
274
     3
278
    44
283
     0
284
     8
340
11
  0
ENDTAB
  0
TABLE
  2
BLOCK_RECORD
  5
1
330
0
100
AcDbSymbolTable
 70
    26
  0
BLOCK_RECORD
  5
1F
330
1
100
AcDbSymbolTableRecord
100
AcDbBlockTableRecord
  2
*Model_Space
340
22
  0
BLOCK_RECORD
  5
1B
330
1
100
AcDbSymbolTableRecord
100
AcDbBlockTableRecord
  2
*Paper_Space
340
1E
  0
BLOCK_RECORD
  5
23
330
1
100
AcDbSymbolTableRecord
100
AcDbBlockTableRecord
  2
*Paper_Space0
340
26
  0
BLOCK_RECORD
  5
30
330
1
100
AcDbSymbolTableRecord
100
AcDbBlockTableRecord
  2
SYM1
340
0
102
{BLKREFS
331
105
102
}
  0
BLOCK_RECORD
  5
11A
330
1
100
AcDbSymbolTableRecord
100
AcDbBlockTableRecord
  2
*X12
340
0
102
{BLKREFS
331
208
102
}
  0
BLOCK_RECORD
  5
270
330
1
100
AcDbSymbolTableRecord
100
AcDbBlockTableRecord
  2
*X23
340
0
102
{BLKREFS
331
2BB
102
}
  0
BLOCK_RECORD
  5
2BC
330
1
100
AcDbSymbolTableRecord
100
AcDbBlockTableRecord
  2
*X34
340
0
102
{BLKREFS
331
307
102
}
  0
BLOCK_RECORD
  5
319
330
1
100
AcDbSymbolTableRecord
100
AcDbBlockTableRecord
  2
POLY1
340
0
102
{BLKREFS
331
322
102
}
  0
BLOCK_RECORD
  5
323
330
1
100
AcDbSymbolTableRecord
100
AcDbBlockTableRecord
  2
POLY2
340
0
102
{BLKREFS
331
32C
102
}
  0
BLOCK_RECORD
  5
32D
330
1
100
AcDbSymbolTableRecord
100
AcDbBlockTableRecord
  2
POLY3
340
0
102
{BLKREFS
331
33A
102
}
  0
BLOCK_RECORD
  5
33B
330
1
100
AcDbSymbolTableRecord
100
AcDbBlockTableRecord
  2
POLY4
340
0
102
{BLKREFS
331
348
102
}
  0
BLOCK_RECORD
  5
349
330
1
100
AcDbSymbolTableRecord
100
AcDbBlockTableRecord
  2
POLY5
340
0
102
{BLKREFS
331
358
102
}
  0
BLOCK_RECORD
  5
359
330
1
100
AcDbSymbolTableRecord
100
AcDbBlockTableRecord
  2
POLY6
340
0
102
{BLKREFS
331
366
102
}
  0
BLOCK_RECORD
  5
3A1
330
1
100
AcDbSymbolTableRecord
100
AcDbBlockTableRecord
  2
POLY7
340
0
102
{BLKREFS
331
3A5
102
}
  0
BLOCK_RECORD
  5
3F2
330
1
100
AcDbSymbolTableRecord
100
AcDbBlockTableRecord
  2
POLY8
340
0
102
{BLKREFS
331
3F6
102
}
  0
BLOCK_RECORD
  5
407
330
1
100
AcDbSymbolTableRecord
100
AcDbBlockTableRecord
  2
POLY9
340
0
102
{BLKREFS
331
416
102
}
  0
BLOCK_RECORD
  5
418
330
1
100
AcDbSymbolTableRecord
100
AcDbBlockTableRecord
  2
POLY10
340
0
102
{BLKREFS
331
427
102
}
  0
BLOCK_RECORD
  5
429
330
1
100
AcDbSymbolTableRecord
100
AcDbBlockTableRecord
  2
POLY11
340
0
102
{BLKREFS
331
438
102
}
  0
BLOCK_RECORD
  5
452
330
1
100
AcDbSymbolTableRecord
100
AcDbBlockTableRecord
  2
LCDIM1
340
0
102
{BLKREFS
331
46E
102
}
  0
BLOCK_RECORD
  5
46F
330
1
100
AcDbSymbolTableRecord
100
AcDbBlockTableRecord
  2
LCDIM2
340
0
102
{BLKREFS
331
488
102
}
  0
BLOCK_RECORD
  5
489
330
1
100
AcDbSymbolTableRecord
100
AcDbBlockTableRecord
  2
LCDIM3
340
0
102
{BLKREFS
331
4A2
102
}
  0
BLOCK_RECORD
  5
4A3
330
1
100
AcDbSymbolTableRecord
100
AcDbBlockTableRecord
  2
LCDIM4
340
0
102
{BLKREFS
331
4BC
102
}
  0
BLOCK_RECORD
  5
4C7
330
1
100
AcDbSymbolTableRecord
100
AcDbBlockTableRecord
  2
*X420
340
0
102
{BLKREFS
331
4D4
102
}
  0
BLOCK_RECORD
  5
4D6
330
1
100
AcDbSymbolTableRecord
100
AcDbBlockTableRecord
  2
LCDIM5
340
0
102
{BLKREFS
331
4EF
102
}
  0
BLOCK_RECORD
  5
4F9
330
1
100
AcDbSymbolTableRecord
100
AcDbBlockTableRecord
  2
LCDIM6
340
0
102
{BLKREFS
331
512
102
}
  0
BLOCK_RECORD
  5
513
330
1
100
AcDbSymbolTableRecord
100
AcDbBlockTableRecord
  2
LCDIM7
340
0
102
{BLKREFS
331
521
102
}
  0
BLOCK_RECORD
  5
522
330
1
100
AcDbSymbolTableRecord
100
AcDbBlockTableRecord
  2
LCDIM8
340
0
102
{BLKREFS
331
53B
102
}
  0
BLOCK_RECORD
  5
53C
330
1
100
AcDbSymbolTableRecord
100
AcDbBlockTableRecord
  2
LCDIM9
340
0
102
{BLKREFS
331
555
102
}
  0
ENDTAB
  0
ENDSEC
  0
SECTION
  2
BLOCKS
  0
BLOCK
  5
20
330
1F
100
AcDbEntity
  8
0
100
AcDbBlockBegin
  2
*Model_Space
 70
     0
 71
     0
 10
0.0
 20
0.0
 30
0.0
  3
*Model_Space
  1

  0
ENDBLK
  5
21
330
1F
100
AcDbEntity
  8
0
100
AcDbBlockEnd
  0
BLOCK
  5
1C
330
1B
100
AcDbEntity
 67
     1
  8
0
100
AcDbBlockBegin
  2
*Paper_Space
 70
     0
 71
     0
 10
0.0
 20
0.0
 30
0.0
  3
*Paper_Space
  1

  0
ENDBLK
  5
1D
330
1B
100
AcDbEntity
 67
     1
  8
0
100
AcDbBlockEnd
  0
BLOCK
  5
24
330
23
100
AcDbEntity
  8
0
100
AcDbBlockBegin
  2
*Paper_Space0
 70
     0
 71
     0
 10
0.0
 20
0.0
 30
0.0
  3
*Paper_Space0
  1

  0
ENDBLK
  5
25
330
23
100
AcDbEntity
  8
0
100
AcDbBlockEnd
  0
BLOCK
  5
31
330
30
100
AcDbEntity
  8
0
100
AcDbBlockBegin
  2
SYM1
 70
     0
 71
     0
 10
0.0
 20
0.0
 30
0.0
  3
SYM1
  1

  4
SYM1
  0
LINE
  5
34
330
30
100
AcDbEntity
  8
LC-001-111-----0
 62
   253
370
    50
100
AcDbLine
 10
2050.0
 20
50.0
 30
0.0
 11
2050.0
 21
2920.0
 31
0.0
  0
LINE
  5
35
330
30
100
AcDbEntity
  8
LC-001-111-----0
 62
   253
370
    25
100
AcDbLine
 10
178.0
 20
220.0
 30
0.0
 11
724.0
 21
220.0
 31
0.0
  0
LINE
  5
36
330
30
100
AcDbEntity
  8
LC-001-111-----0
 62
   253
370
    35
100
AcDbLine
 10
724.0
 20
220.0
 30
0.0
 11
2050.0
 21
220.0
 31
0.0
  0
LINE
  5
37
330
30
100
AcDbEntity
  8
LC-001-111-----0
 62
   253
370
    50
100
AcDbLine
 10
178.0
 20
602.5
 30
0.0
 11
2050.0
 21
602.5
 31
0.0
  0
LINE
  5
38
330
30
100
AcDbEntity
  8
LC-001-111-----0
 62
   253
370
    25
100
AcDbLine
 10
178.0
 20
92.5
 30
0.0
 11
2050.0
 21
92.5
 31
0.0
  0
LINE
  5
39
330
30
100
AcDbEntity
  8
LC-001-111-----0
 62
   253
370
    25
100
AcDbLine
 10
178.0
 20
135.0
 30
0.0
 11
724.0
 21
135.0
 31
0.0
  0
LINE
  5
3A
330
30
100
AcDbEntity
  8
LC-001-111-----0
 62
   253
370
    25
100
AcDbLine
 10
178.0
 20
177.5
 30
0.0
 11
724.0
 21
177.5
 31
0.0
  0
LINE
  5
3B
330
30
100
AcDbEntity
  8
LC-001-111-----0
 62
   253
370
    25
100
AcDbLine
 10
178.0
 20
262.5
 30
0.0
 11
1166.0
 21
262.5
 31
0.0
  0
LINE
  5
3C
330
30
100
AcDbEntity
  8
LC-001-111-----0
 62
   253
370
    25
100
AcDbLine
 10
178.0
 20
305.0
 30
0.0
 11
1166.0
 21
305.0
 31
0.0
  0
LINE
  5
3D
330
30
100
AcDbEntity
  8
LC-001-111-----0
 62
   253
370
    25
100
AcDbLine
 10
178.0
 20
347.5
 30
0.0
 11
1166.0
 21
347.5
 31
0.0
  0
LINE
  5
3E
330
30
100
AcDbEntity
  8
LC-001-111-----0
 62
   253
370
    25
100
AcDbLine
 10
178.0
 20
390.0
 30
0.0
 11
1166.0
 21
390.0
 31
0.0
  0
LINE
  5
3F
330
30
100
AcDbEntity
  8
LC-001-111-----0
 62
   253
370
    35
100
AcDbLine
 10
178.0
 20
432.5
 30
0.0
 11
2050.0
 21
432.5
 31
0.0
  0
LINE
  5
40
330
30
100
AcDbEntity
  8
LC-001-111-----0
 62
   253
370
    25
100
AcDbLine
 10
828.0
 20
262.5
 30
0.0
 11
828.0
 21
432.5
 31
0.0
  0
LINE
  5
41
330
30
100
AcDbEntity
  8
LC-001-111-----0
 62
   253
370
    35
100
AcDbLine
 10
1920.0
 20
92.5
 30
0.0
 11
1920.0
 21
220.0
 31
0.0
  0
LINE
  5
42
330
30
100
AcDbEntity
  8
LC-001-111-----0
 62
   253
370
    25
100
AcDbLine
 10
1166.0
 20
538.75
 30
0.0
 11
2050.0
 21
538.75
 31
0.0
  0
LINE
  5
43
330
30
100
AcDbEntity
  8
LC-001-111-----0
 62
   253
370
    25
100
AcDbLine
 10
256.0
 20
50.0
 30
0.0
 11
256.0
 21
432.5
 31
0.0
  0
LINE
  5
44
330
30
100
AcDbEntity
  8
LC-001-111-----0
 62
   253
370
    25
100
AcDbLine
 10
516.0
 20
50.0
 30
0.0
 11
516.0
 21
432.5
 31
0.0
  0
LINE
  5
45
330
30
100
AcDbEntity
  8
LC-001-111-----0
 62
   253
370
    25
100
AcDbLine
 10
646.0
 20
50.0
 30
0.0
 11
646.0
 21
432.5
 31
0.0
  0
LINE
  5
46
330
30
100
AcDbEntity
  8
LC-001-111-----0
 62
   253
370
    35
100
AcDbLine
 10
724.0
 20
50.0
 30
0.0
 11
724.0
 21
602.5
 31
0.0
  0
LINE
  5
47
330
30
100
AcDbEntity
  8
LC-001-111-----0
 62
   253
370
    35
100
AcDbLine
 10
1166.0
 20
50.0
 30
0.0
 11
1166.0
 21
602.5
 31
0.0
  0
LINE
  5
48
330
30
100
AcDbEntity
  8
LC-001-111-----0
 62
   253
370
    25
100
AcDbLine
 10
1920.0
 20
135.0
 30
0.0
 11
2050.0
 21
135.0
 31
0.0
  0
LINE
  5
49
330
30
100
AcDbEntity
  8
LC-001-111-----0
 62
   253
370
    25
100
AcDbLine
 10
984.0
 20
220.0
 30
0.0
 11
984.0
 21
602.5
 31
0.0
  0
LINE
  5
4A
330
30
100
AcDbEntity
  8
LC-001-111-----0
 62
   253
370
    25
100
AcDbLine
 10
1686.0
 20
538.75
 30
0.0
 11
1686.0
 21
602.5
 31
0.0
  0
LINE
  5
4B
330
30
100
AcDbEntity
  8
LC-001-111-----0
 62
   253
370
    25
100
AcDbLine
 10
1608.0
 20
50.0
 30
0.0
 11
1608.0
 21
92.5
 31
0.0
  0
LINE
  5
4C
330
30
100
AcDbEntity
  8
LC-001-111-----0
 62
   253
370
    50
100
AcDbLine
 10
178.0
 20
50.0
 30
0.0
 11
178.0
 21
2920.0
 31
0.0
  0
LINE
  5
4D
330
30
100
AcDbEntity
  8
LC-001-111-----0
 62
   253
370
    50
100
AcDbLine
 10
178.0
 20
2920.0
 30
0.0
 11
2050.0
 21
2920.0
 31
0.0
  0
TEXT
  5
4E
330
30
100
AcDbEntity
  8
LC-001-111-----0
 62
     7
370
    25
100
AcDbText
 10
1471.410714
 20
558.125
 30
0.0
 40
25.0
  1
1:10
 41
0.75
  7
LCTX0-400-0-0pDIN-Schrift
 72
     1
 11
1504.0
 21
558.125
 31
0.0
100
AcDbText
  0
TEXT
  5
4F
330
30
100
AcDbEntity
  8
LC-001-111-----0
 62
     7
370
    25
100
AcDbText
 10
1946.071429
 20
101.25
 30
0.0
 40
25.0
  1
2
 41
0.75
  7
LCTX0-400-0-0pDIN-Schrift
 72
     1
 11
1955.0
 21
101.25
 31
0.0
100
AcDbText
  0
TEXT
  5
50
330
30
100
AcDbEntity
  8
LC-001-111-----0
 62
     7
370
    25
100
AcDbText
 10
740.285714
 20
398.75
 30
0.0
 40
25.0
  1
2010
 41
0.75
  7
LCTX0-400-0-0pDIN-Schrift
 72
     1
 11
776.0
 21
398.75
 31
0.0
100
AcDbText
  0
TEXT
  5
51
330
30
100
AcDbEntity
  8
LC-001-111-----0
 62
     7
370
    25
100
AcDbText
 10
860.464286
 20
356.25
 30
0.0
 40
25.0
  1
10.09.
 41
0.75
  7
LCTX0-400-0-0pDIN-Schrift
 72
     1
 11
906.0
 21
356.25
 31
0.0
100
AcDbText
  0
TEXT
  5
52
330
30
100
AcDbEntity
  8
LC-001-111-----0
 62
     7
370
    25
100
AcDbText
 10
1056.696429
 20
356.25
 30
0.0
 40
25.0
  1
HÄ
 41
0.75
  7
LCTX0-400-0-0pDIN-Schrift
 72
     1
 11
1075.0
 21
356.25
 31
0.0
100
AcDbText
  0
TEXT
  5
53
330
30
100
AcDbEntity
  8
LC-001-111-----0
 62
   253
370
    20
100
AcDbText
 10
1183.923077
 20
560.625
 30
0.0
 40
20.0
  1
Maßstab
 41
0.75
  7
LCTX0-400-0-0pDIN-Schrift
100
AcDbText
  0
TEXT
  5
54
330
30
100
AcDbEntity
  8
LC-001-111-----0
 62
   253
370
    20
100
AcDbText
 10
869.928571
 20
401.25
 30
0.0
 40
20.0
  1
Datum
 41
0.75
  7
LCTX0-400-0-0pDIN-Schrift
 72
     1
 11
906.0
 21
401.25
 31
0.0
100
AcDbText
  0
TEXT
  5
55
330
30
100
AcDbEntity
  8
LC-001-111-----0
 62
   253
370
    20
100
AcDbText
 10
1042.857143
 20
401.25
 30
0.0
 40
20.0
  1
Name
 41
0.75
  7
LCTX0-400-0-0pDIN-Schrift
 72
     1
 11
1075.0
 21
401.25
 31
0.0
100
AcDbText
  0
TEXT
  5
56
330
30
100
AcDbEntity
  8
LC-001-111-----0
 62
   253
370
    20
100
AcDbText
 10
741.923077
 20
358.75
 30
0.0
 40
20.0
  1
Bearb.
 41
0.75
  7
LCTX0-400-0-0pDIN-Schrift
100
AcDbText
  0
TEXT
  5
57
330
30
100
AcDbEntity
  8
LC-001-111-----0
 62
   253
370
    20
100
AcDbText
 10
741.923077
 20
316.25
 30
0.0
 40
20.0
  1
Gepr.
 41
0.75
  7
LCTX0-400-0-0pDIN-Schrift
100
AcDbText
  0
TEXT
  5
58
330
30
100
AcDbEntity
  8
LC-001-111-----0
 62
   253
370
    20
100
AcDbText
 10
741.923077
 20
273.75
 30
0.0
 40
20.0
  1
Norm
 41
0.75
  7
LCTX0-400-0-0pDIN-Schrift
100
AcDbText
  0
TEXT
  5
59
330
30
100
AcDbEntity
  8
LC-001-111-----0
 62
   253
370
    20
100
AcDbText
 10
1937.923077
 20
188.75
 30
0.0
 40
20.0
  1
Blatt
 41
0.75
  7
LCTX0-400-0-0pDIN-Schrift
100
AcDbText
  0
TEXT
  5
5A
330
30
100
AcDbEntity
  8
LC-001-111-----0
 62
   253
370
    20
100
AcDbText
 10
2012.076923
 20
103.75
 30
0.0
 40
20.0
  1
Bl.
 41
0.75
  7
LCTX0-400-0-0pDIN-Schrift
 72
     2
 11
2037.076923
 21
103.75
 31
0.0
100
AcDbText
  0
TEXT
  5
5B
330
30
100
AcDbEntity
  8
LC-001-111-----0
 62
   253
370
    20
100
AcDbText
 10
200.0
 20
61.25
 30
0.0
 40
20.0
  1
Zust.
 41
0.6
  7
LCTX0-400-0-0pDIN-Schrift
 72
     1
 11
222.0
 21
61.25
 31
0.0
100
AcDbText
  0
TEXT
  5
5C
330
30
100
AcDbEntity
  8
LC-001-111-----0
 62
   253
370
    20
100
AcDbText
 10
334.928571
 20
61.25
 30
0.0
 40
20.0
  1
Änderung
 41
0.75
  7
LCTX0-400-0-0pDIN-Schrift
 72
     1
 11
386.0
 21
61.25
 31
0.0
100
AcDbText
  0
TEXT
  5
5D
330
30
100
AcDbEntity
  8
LC-001-111-----0
 62
   253
370
    20
100
AcDbText
 10
544.928571
 20
61.25
 30
0.0
 40
20.0
  1
Datum
 41
0.75
  7
LCTX0-400-0-0pDIN-Schrift
 72
     1
 11
581.0
 21
61.25
 31
0.0
100
AcDbText
  0
TEXT
  5
5E
330
30
100
AcDbEntity
  8
LC-001-111-----0
 62
   253
370
    20
100
AcDbText
 10
652.857143
 20
61.25
 30
0.0
 40
20.0
  1
Name
 41
0.75
  7
LCTX0-400-0-0pDIN-Schrift
 72
     1
 11
685.0
 21
61.25
 31
0.0
100
AcDbText
  0
TEXT
  5
5F
330
30
100
AcDbEntity
  8
LC-001-111-----0
 62
     7
370
    50
100
AcDbText
 10
1363.357143
 20
343.75
 30
0.0
 40
50.0
  1
Montano N100XL
 41
0.75
  7
LCTX0-400-0-0pDIN-Schrift
 72
     1
 11
1608.0
 21
343.75
 31
0.0
100
AcDbText
  0
TEXT
  5
60
330
30
100
AcDbEntity
  8
LC-001-111-----0
 62
     7
370
    35
100
AcDbText
 10
1418.349258
 20
266.25
 30
0.0
 40
35.0
  1
Unterbau undermount
 41
0.75
  7
LCTX0-400-0-0pDIN-Schrift
100
AcDbText
  0
TEXT
  5
61
330
30
100
AcDbEntity
  8
LC-001-111-----0
 62
     7
370
    50
100
AcDbText
 10
1334.071429
 20
131.25
 30
0.0
 40
50.0
  1
4.10.767.04.01
 41
0.75
  7
LCTX0-400-0-0pDIN-Schrift
 72
     1
 11
1543.0
 21
131.25
 31
0.0
100
AcDbText
  0
ARC
  5
62
330
30
100
AcDbEntity
  8
LC-001-111-----0
 62
   253
370
    25
100
AcDbCircle
 10
758.903191
 20
174.567744
 30
0.0
 40
20.81533311668208
100
AcDbArc
 50
62.408264
 51
94.48185
  0
LINE
  5
63
330
30
100
AcDbEntity
  8
LC-001-111-----0
 62
   253
370
    50
100
AcDbLine
 10
178.0
 20
50.0
 30
0.0
 11
2050.0
 21
50.0
 31
0.0
  0
LINE
  5
64
330
30
100
AcDbEntity
  8
LC-001-111-----0
 62
   253
370
    25
100
AcDbLine
 10
50.0
 20
1485.0
 30
0.0
 11
0.0
 21
1485.0
 31
0.0
  0
LINE
  5
65
330
30
100
AcDbEntity
  8
LC-001-111-----0
 62
   253
370
    25
100
AcDbLine
 10
1063.835603
 20
195.169147
 30
0.0
 11
1063.835603
 21
157.149147
 31
0.0
  0
LINE
  5
66
330
30
100
AcDbEntity
  8
LC-001-111-----0
 62
   253
370
    25
100
AcDbLine
 10
2100.0
 20
2970.0
 30
0.0
 11
2100.0
 21
0.0
 31
0.0
  0
LINE
  5
67
330
30
100
AcDbEntity
  8
LC-001-111-----0
 62
   253
370
    25
100
AcDbLine
 10
2100.0
 20
0.0
 30
0.0
 11
0.0
 21
0.0
 31
0.0
  0
LINE
  5
68
330
30
100
AcDbEntity
  8
LC-001-111-----0
 62
   253
370
    25
100
AcDbLine
 10
0.0
 20
0.0
 30
0.0
 11
0.0
 21
2970.0
 31
0.0
  0
LINE
  5
69
330
30
100
AcDbEntity
  8
LC-001-111-----0
 62
   253
370
    25
100
AcDbLine
 10
2100.0
 20
2970.0
 30
0.0
 11
0.0
 21
2970.0
 31
0.0
  0
TEXT
  5
6A
330
30
100
AcDbEntity
  8
LC-001-111-----0
 62
   253
370
    20
100
AcDbText
 10
763.0
 20
111.159147
 30
0.0
 40
20.0
  1
Hofbauerstraße1 · D-94209 REGEN
 41
0.65
  7
LCTX0-400-0-0pDIN-Schrift
 72
     1
 11
945.0
 21
111.159147
 31
0.0
100
AcDbText
  0
ARC
  5
6B
330
30
100
AcDbEntity
  8
LC-001-111-----0
 62
   253
370
    25
100
AcDbCircle
 10
758.032826
 20
185.671748
 30
0.0
 40
9.677270814709853
100
AcDbArc
 50
94.48185
 51
252.731329
  0
ARC
  5
6C
330
30
100
AcDbEntity
  8
LC-001-111-----0
 62
   253
370
    25
100
AcDbCircle
 10
823.845603
 20
176.159147
 30
0.0
 40
19.01000000000008
100
AcDbArc
 50
74.719456
 51
285.280544
  0
LINE
  5
6D
330
30
100
AcDbEntity
  8
LC-001-111-----0
 62
   253
370
    25
100
AcDbLine
 10
828.855603
 20
157.821208
 30
0.0
 11
828.855603
 21
163.204148
 31
0.0
  0
ARC
  5
6E
330
30
100
AcDbEntity
  8
LC-001-111-----0
 62
   253
370
    25
100
AcDbCircle
 10
823.845603
 20
176.159147
 30
0.0
 40
13.88999999999995
100
AcDbArc
 50
68.857352
 51
291.142648
  0
ARC
  5
6F
330
30
100
AcDbEntity
  8
LC-001-111-----0
 62
   253
370
    25
100
AcDbCircle
 10
823.845603
 20
176.159147
 30
0.0
 40
12.39000000000002
100
AcDbArc
 50
58.303227
 51
301.696773
  0
ARC
  5
70
330
30
100
AcDbEntity
  8
LC-001-111-----0
 62
   253
370
    25
100
AcDbCircle
 10
1019.845603
 20
176.159147
 30
0.0
 40
19.01000000000008
100
AcDbArc
 50
74.719456
 51
285.280544
  0
LINE
  5
71
330
30
100
AcDbEntity
  8
LC-001-111-----0
 62
   253
370
    25
100
AcDbLine
 10
830.355603
 20
165.617231
 30
0.0
 11
830.355603
 21
156.709726
 31
0.0
  0
LINE
  5
72
330
30
100
AcDbEntity
  8
LC-001-111-----0
 62
   253
370
    25
100
AcDbLine
 10
755.160101
 20
176.430697
 30
0.0
 11
762.683613
 21
174.091896
 31
0.0
  0
ARC
  5
73
330
30
100
AcDbEntity
  8
LC-001-111-----0
 62
   253
370
    25
100
AcDbCircle
 10
823.845603
 20
176.159147
 30
0.0
 40
20.51000000000012
100
AcDbArc
 50
71.493868
 51
288.506132
  0
LINE
  5
74
330
30
100
AcDbEntity
  8
LC-001-111-----0
 62
   253
370
    25
100
AcDbLine
 10
1024.855603
 20
157.821208
 30
0.0
 11
1024.855603
 21
163.204148
 31
0.0
  0
LINE
  5
75
330
30
100
AcDbEntity
  8
LC-001-111-----0
 62
   253
370
    25
100
AcDbLine
 10
830.355603
 20
195.608569
 30
0.0
 11
830.355603
 21
186.701063
 31
0.0
  0
ARC
  5
76
330
30
100
AcDbEntity
  8
LC-001-111-----0
 62
   253
370
    25
100
AcDbCircle
 10
1019.845603
 20
176.159147
 30
0.0
 40
13.88999999999995
100
AcDbArc
 50
68.857352
 51
291.142648
  0
LINE
  5
77
330
30
100
AcDbEntity
  8
LC-001-111-----0
 62
   253
370
    25
100
AcDbLine
 10
862.835603
 20
155.649147
 30
0.0
 11
862.835603
 21
196.669147
 31
0.0
  0
LINE
  5
78
330
30
100
AcDbEntity
  8
LC-001-111-----0
 62
   253
370
    25
100
AcDbLine
 10
862.835603
 20
196.669147
 30
0.0
 11
872.355603
 21
196.669147
 31
0.0
  0
LINE
  5
79
330
30
100
AcDbEntity
  8
LC-001-111-----0
 62
   253
370
    25
100
AcDbLine
 10
872.355603
 20
196.669147
 30
0.0
 11
872.355603
 21
179.519147
 31
0.0
  0
LINE
  5
7A
330
30
100
AcDbEntity
  8
LC-001-111-----0
 62
   253
370
    25
100
AcDbLine
 10
872.355603
 20
179.519147
 30
0.0
 11
887.335603
 21
179.519147
 31
0.0
  0
LINE
  5
7B
330
30
100
AcDbEntity
  8
LC-001-111-----0
 62
   253
370
    25
100
AcDbLine
 10
887.335603
 20
179.519147
 30
0.0
 11
887.335603
 21
196.669147
 31
0.0
  0
LINE
  5
7C
330
30
100
AcDbEntity
  8
LC-001-111-----0
 62
   253
370
    25
100
AcDbLine
 10
887.335603
 20
196.669147
 30
0.0
 11
896.855603
 21
196.669147
 31
0.0
  0
LINE
  5
7D
330
30
100
AcDbEntity
  8
LC-001-111-----0
 62
   253
370
    25
100
AcDbLine
 10
896.855603
 20
196.669147
 30
0.0
 11
896.855603
 21
155.649147
 31
0.0
  0
LINE
  5
7E
330
30
100
AcDbEntity
  8
LC-001-111-----0
 62
   253
370
    25
100
AcDbLine
 10
896.855603
 20
155.649147
 30
0.0
 11
887.335603
 21
155.649147
 31
0.0
  0
LINE
  5
7F
330
30
100
AcDbEntity
  8
LC-001-111-----0
 62
   253
370
    25
100
AcDbLine
 10
887.335603
 20
155.649147
 30
0.0
 11
887.335603
 21
172.799147
 31
0.0
  0
LINE
  5
80
330
30
100
AcDbEntity
  8
LC-001-111-----0
 62
   253
370
    25
100
AcDbLine
 10
887.335603
 20
172.799147
 30
0.0
 11
872.355603
 21
172.799147
 31
0.0
  0
LINE
  5
81
330
30
100
AcDbEntity
  8
LC-001-111-----0
 62
   253
370
    25
100
AcDbLine
 10
872.355603
 20
172.799147
 30
0.0
 11
872.355603
 21
155.649147
 31
0.0
  0
LINE
  5
82
330
30
100
AcDbEntity
  8
LC-001-111-----0
 62
   253
370
    25
100
AcDbLine
 10
872.355603
 20
155.649147
 30
0.0
 11
862.835603
 21
155.649147
 31
0.0
  0
CIRCLE
  5
83
330
30
100
AcDbEntity
  8
LC-001-111-----0
 62
   253
370
    25
100
AcDbCircle
 10
946.345603
 20
176.159147
 30
0.0
 40
12.39000000000044
  0
CIRCLE
  5
84
330
30
100
AcDbEntity
  8
LC-001-111-----0
 62
   253
370
    25
100
AcDbCircle
 10
946.345603
 20
176.159147
 30
0.0
 40
20.51000000000049
  0
ARC
  5
85
330
30
100
AcDbEntity
  8
LC-001-111-----0
 62
   253
370
    25
100
AcDbCircle
 10
1019.845603
 20
176.159147
 30
0.0
 40
12.39000000000002
100
AcDbArc
 50
58.303227
 51
301.696773
  0
LINE
  5
86
330
30
100
AcDbEntity
  8
LC-001-111-----0
 62
   253
370
    25
100
AcDbLine
 10
864.335603
 20
195.169147
 30
0.0
 11
864.335603
 21
157.149147
 31
0.0
  0
LINE
  5
87
330
30
100
AcDbEntity
  8
LC-001-111-----0
 62
   253
370
    25
100
AcDbLine
 10
1026.355603
 20
165.617231
 30
0.0
 11
1026.355603
 21
156.709726
 31
0.0
  0
LINE
  5
88
330
30
100
AcDbEntity
  8
LC-001-111-----0
 62
   253
370
    25
100
AcDbLine
 10
864.335603
 20
157.149147
 30
0.0
 11
870.855603
 21
157.149147
 31
0.0
  0
LINE
  5
89
330
30
100
AcDbEntity
  8
LC-001-111-----0
 62
   253
370
    25
100
AcDbLine
 10
870.855603
 20
157.149147
 30
0.0
 11
870.855603
 21
174.299147
 31
0.0
  0
LINE
  5
8A
330
30
100
AcDbEntity
  8
LC-001-111-----0
 62
   253
370
    25
100
AcDbLine
 10
870.855603
 20
174.299147
 30
0.0
 11
888.835603
 21
174.299147
 31
0.0
  0
LINE
  5
8B
330
30
100
AcDbEntity
  8
LC-001-111-----0
 62
   253
370
    25
100
AcDbLine
 10
888.835603
 20
174.299147
 30
0.0
 11
888.835603
 21
157.149147
 31
0.0
  0
LINE
  5
8C
330
30
100
AcDbEntity
  8
LC-001-111-----0
 62
   253
370
    25
100
AcDbLine
 10
888.835603
 20
157.149147
 30
0.0
 11
895.355603
 21
157.149147
 31
0.0
  0
LINE
  5
8D
330
30
100
AcDbEntity
  8
LC-001-111-----0
 62
   253
370
    25
100
AcDbLine
 10
895.355603
 20
157.149147
 30
0.0
 11
895.355603
 21
195.169147
 31
0.0
  0
LINE
  5
8E
330
30
100
AcDbEntity
  8
LC-001-111-----0
 62
   253
370
    25
100
AcDbLine
 10
895.355603
 20
195.169147
 30
0.0
 11
888.835603
 21
195.169147
 31
0.0
  0
LINE
  5
8F
330
30
100
AcDbEntity
  8
LC-001-111-----0
 62
   253
370
    25
100
AcDbLine
 10
888.835603
 20
195.169147
 30
0.0
 11
888.835603
 21
178.019147
 31
0.0
  0
LINE
  5
90
330
30
100
AcDbEntity
  8
LC-001-111-----0
 62
   253
370
    25
100
AcDbLine
 10
888.835603
 20
178.019147
 30
0.0
 11
870.855603
 21
178.019147
 31
0.0
  0
LINE
  5
91
330
30
100
AcDbEntity
  8
LC-001-111-----0
 62
   253
370
    25
100
AcDbLine
 10
870.855603
 20
178.019147
 30
0.0
 11
870.855603
 21
195.169147
 31
0.0
  0
CIRCLE
  5
92
330
30
100
AcDbEntity
  8
LC-001-111-----0
 62
   253
370
    25
100
AcDbCircle
 10
946.345603
 20
176.159147
 30
0.0
 40
19.01000000000055
  0
ARC
  5
93
330
30
100
AcDbEntity
  8
LC-001-111-----0
 62
   253
370
    25
100
AcDbCircle
 10
760.836588
 20
168.15034
 30
0.0
 40
6.222024781007809
100
AcDbArc
 50
268.246912
 51
72.731329
  0
ARC
  5
94
330
30
100
AcDbEntity
  8
LC-001-111-----0
 62
   253
370
    25
100
AcDbCircle
 10
761.412387
 20
186.963179
 30
0.0
 40
25.04367341134793
100
AcDbArc
 50
239.19233
 51
268.246912
  0
LINE
  5
95
330
30
100
AcDbEntity
  8
LC-001-111-----0
 62
   253
370
    25
100
AcDbLine
 10
748.586073
 20
165.453385
 30
0.0
 11
748.586073
 21
160.350534
 31
0.0
  0
ARC
  5
96
330
30
100
AcDbEntity
  8
LC-001-111-----0
 62
   253
370
    25
100
AcDbCircle
 10
760.81067
 20
180.45076
 30
0.0
 40
23.52572762426598
100
AcDbArc
 50
238.692783
 51
274.343327
  0
ARC
  5
97
330
30
100
AcDbEntity
  8
LC-001-111-----0
 62
   253
370
    25
100
AcDbCircle
 10
1019.845603
 20
176.159147
 30
0.0
 40
20.51000000000012
100
AcDbArc
 50
71.493868
 51
288.506132
  0
ARC
  5
98
330
30
100
AcDbEntity
  8
LC-001-111-----0
 62
   253
370
    25
100
AcDbCircle
 10
761.779647
 20
167.692822
 30
0.0
 40
10.73104525444839
100
AcDbArc
 50
274.343327
 51
74.255463
  0
LINE
  5
99
330
30
100
AcDbEntity
  8
LC-001-111-----0
 62
   253
370
    25
100
AcDbLine
 10
1026.355603
 20
195.608569
 30
0.0
 11
1026.355603
 21
186.701063
 31
0.0
  0
LINE
  5
9A
330
30
100
AcDbEntity
  8
LC-001-111-----0
 62
   253
370
    25
100
AcDbLine
 10
764.691502
 20
178.02125
 30
0.0
 11
757.135251
 21
180.151556
 31
0.0
  0
LINE
  5
9B
330
30
100
AcDbEntity
  8
LC-001-111-----0
 62
   253
370
    25
100
AcDbLine
 10
1024.855603
 20
189.114146
 30
0.0
 11
1024.855603
 21
194.497086
 31
0.0
  0
ARC
  5
9C
330
30
100
AcDbEntity
  8
LC-001-111-----0
 62
   253
370
    25
100
AcDbCircle
 10
758.632108
 20
185.460948
 30
0.0
 40
5.51636013010035
100
AcDbArc
 50
90.951212
 51
254.255463
  0
ARC
  5
9D
330
30
100
AcDbEntity
  8
LC-001-111-----0
 62
   253
370
    25
100
AcDbCircle
 10
758.906662
 20
168.924866
 30
0.0
 40
22.05472179307849
100
AcDbArc
 50
64.088485
 51
90.951212
  0
LINE
  5
9E
330
30
100
AcDbEntity
  8
LC-001-111-----0
 62
   253
370
    25
100
AcDbLine
 10
768.544191
 20
188.762426
 30
0.0
 11
768.544191
 21
193.015758
 31
0.0
  0
LINE
  5
9F
330
30
100
AcDbEntity
  8
LC-001-111-----0
 62
   253
370
    25
100
AcDbLine
 10
1071.855603
 20
177.513832
 30
0.0
 11
1087.818366
 21
196.669147
 31
0.0
  0
LINE
  5
A0
330
30
100
AcDbEntity
  8
LC-001-111-----0
 62
   253
370
    25
100
AcDbLine
 10
1087.818366
 20
196.669147
 30
0.0
 11
1099.299433
 21
196.669147
 31
0.0
  0
LINE
  5
A1
330
30
100
AcDbEntity
  8
LC-001-111-----0
 62
   253
370
    25
100
AcDbLine
 10
1099.299433
 20
196.669147
 30
0.0
 11
1082.207766
 21
176.159147
 31
0.0
  0
LINE
  5
A3
330
30
100
AcDbEntity
  8
LC-002-002-----0
 62
     1
370
    25
100
AcDbLine
 10
1143.855603
 20
159.963432
 30
0.0
 11
1143.855603
 21
192.354862
 31
0.0
  0
LINE
  5
A4
330
30
100
AcDbEntity
  8
LC-002-002-----0
 62
     1
370
    25
100
AcDbLine
 10
1143.855603
 20
192.354862
 30
0.0
 11
1127.659888
 21
176.159147
 31
0.0
  0
LINE
  5
A5
330
30
100
AcDbEntity
  8
LC-002-002-----0
 62
     1
370
    25
100
AcDbLine
 10
1127.659888
 20
176.159147
 30
0.0
 11
1143.855603
 21
159.963432
 31
0.0
  0
LINE
  5
A6
330
30
100
AcDbEntity
  8
LC-002-002-----0
 62
     1
370
    25
100
AcDbLine
 10
1142.355603
 20
163.584752
 30
0.0
 11
1142.355603
 21
188.733542
 31
0.0
  0
LINE
  5
A7
330
30
100
AcDbEntity
  8
LC-001-111-----0
 62
   253
370
    25
100
AcDbLine
 10
1082.207766
 20
176.159147
 30
0.0
 11
1099.299433
 21
155.649147
 31
0.0
  0
LINE
  5
A8
330
30
100
AcDbEntity
  8
LC-001-111-----0
 62
   253
370
    25
100
AcDbLine
 10
1099.299433
 20
155.649147
 30
0.0
 11
1087.818366
 21
155.649147
 31
0.0
  0
LINE
  5
A9
330
30
100
AcDbEntity
  8
LC-001-111-----0
 62
   253
370
    25
100
AcDbLine
 10
1087.818366
 20
155.649147
 30
0.0
 11
1071.855603
 21
174.804462
 31
0.0
  0
LINE
  5
AA
330
30
100
AcDbEntity
  8
LC-001-111-----0
 62
   253
370
    25
100
AcDbLine
 10
1062.335603
 20
155.649147
 30
0.0
 11
1062.335603
 21
196.669147
 31
0.0
  0
LINE
  5
AB
330
30
100
AcDbEntity
  8
LC-001-111-----0
 62
   253
370
    25
100
AcDbLine
 10
828.855603
 20
189.114146
 30
0.0
 11
828.855603
 21
194.497086
 31
0.0
  0
ARC
  5
AC
330
30
100
AcDbEntity
  8
LC-001-111-----0
 62
   253
370
    25
100
AcDbCircle
 10
758.903191
 20
174.567744
 30
0.0
 40
19.31533311668209
100
AcDbArc
 50
65.072024
 51
94.48185
  0
LINE
  5
AD
330
30
100
AcDbEntity
  8
LC-001-111-----0
 62
   253
370
    25
100
AcDbLine
 10
1063.835603
 20
157.149147
 30
0.0
 11
1070.355603
 21
157.149147
 31
0.0
  0
LINE
  5
AE
330
30
100
AcDbEntity
  8
LC-001-111-----0
 62
   253
370
    25
100
AcDbLine
 10
1070.355603
 20
157.149147
 30
0.0
 11
1070.355603
 21
195.169147
 31
0.0
  0
LINE
  5
AF
330
30
100
AcDbEntity
  8
LC-001-111-----0
 62
   253
370
    25
100
AcDbLine
 10
1070.355603
 20
195.169147
 30
0.0
 11
1063.835603
 21
195.169147
 31
0.0
  0
LINE
  5
B0
330
30
100
AcDbEntity
  8
LC-001-111-----0
 62
   253
370
    25
100
AcDbLine
 10
1065.335603
 20
193.669147
 30
0.0
 11
1065.335603
 21
158.649147
 31
0.0
  0
LINE
  5
B1
330
30
100
AcDbEntity
  8
LC-002-002-----0
 62
     1
370
    25
100
AcDbLine
 10
1142.355603
 20
188.733542
 30
0.0
 11
1129.781208
 21
176.159147
 31
0.0
  0
LINE
  5
B2
330
30
100
AcDbEntity
  8
LC-002-002-----0
 62
     1
370
    25
100
AcDbLine
 10
1129.781208
 20
176.159147
 30
0.0
 11
1142.355603
 21
163.584752
 31
0.0
  0
LINE
  5
B3
330
30
100
AcDbEntity
  8
LC-001-111-----0
 62
   253
370
    25
100
AcDbLine
 10
1062.335603
 20
196.669147
 30
0.0
 11
1071.855603
 21
196.669147
 31
0.0
  0
LINE
  5
B4
330
30
100
AcDbEntity
  8
LC-001-111-----0
 62
   253
370
    25
100
AcDbLine
 10
1071.855603
 20
196.669147
 30
0.0
 11
1071.855603
 21
155.649147
 31
0.0
  0
LINE
  5
B5
330
30
100
AcDbEntity
  8
LC-001-111-----0
 62
   253
370
    25
100
AcDbLine
 10
1071.855603
 20
155.649147
 30
0.0
 11
1062.335603
 21
155.649147
 31
0.0
  0
ARC
  5
B6
330
30
100
AcDbEntity
  8
LC-001-111-----0
 62
   253
370
    25
100
AcDbCircle
 10
758.032826
 20
185.671748
 30
0.0
 40
8.177270814709827
100
AcDbArc
 50
94.48185
 51
252.731329
  0
LINE
  5
B7
330
30
100
AcDbEntity
  8
LC-001-111-----0
 62
   253
370
    25
100
AcDbLine
 10
755.60538
 20
177.863082
 30
0.0
 11
763.128892
 21
175.524281
 31
0.0
  0
ARC
  5
B8
330
30
100
AcDbEntity
  8
LC-001-111-----0
 62
   253
370
    25
100
AcDbCircle
 10
760.836588
 20
168.15034
 30
0.0
 40
7.72202478100773
100
AcDbArc
 50
268.246912
 51
72.731329
  0
LINE
  5
B9
330
30
100
AcDbEntity
  8
LC-001-111-----0
 62
   253
370
    25
100
AcDbLine
 10
827.355603
 20
191.143539
 30
0.0
 11
827.355603
 21
193.313738
 31
0.0
  0
ARC
  5
BA
330
30
100
AcDbEntity
  8
LC-001-111-----0
 62
   253
370
    25
100
AcDbCircle
 10
823.845603
 20
176.159147
 30
0.0
 40
17.50999999999996
100
AcDbArc
 50
78.436322
 51
281.563678
  0
LINE
  5
BB
330
30
100
AcDbEntity
  8
LC-001-111-----0
 62
   253
370
    25
100
AcDbLine
 10
827.355603
 20
159.004556
 30
0.0
 11
827.355603
 21
161.174755
 31
0.0
  0
LINE
  5
BC
330
30
100
AcDbEntity
  8
LC-002-002-----0
 62
     1
370
    25
100
AcDbLine
 10
1145.355603
 20
195.976182
 30
0.0
 11
1145.355603
 21
156.342112
 31
0.0
  0
LINE
  5
BD
330
30
100
AcDbEntity
  8
LC-002-002-----0
 62
     1
370
    25
100
AcDbLine
 10
1145.355603
 20
156.342112
 30
0.0
 11
1125.538568
 21
176.159147
 31
0.0
  0
LINE
  5
BE
330
30
100
AcDbEntity
  8
LC-002-002-----0
 62
     1
370
    25
100
AcDbLine
 10
1125.538568
 20
176.159147
 30
0.0
 11
1145.355603
 21
195.976182
 31
0.0
  0
LINE
  5
BF
330
30
100
AcDbEntity
  8
LC-001-111-----0
 62
   253
370
    25
100
AcDbLine
 10
1065.335603
 20
158.649147
 30
0.0
 11
1068.855603
 21
158.649147
 31
0.0
  0
LINE
  5
C0
330
30
100
AcDbEntity
  8
LC-001-111-----0
 62
   253
370
    25
100
AcDbLine
 10
1068.855603
 20
158.649147
 30
0.0
 11
1068.855603
 21
193.669147
 31
0.0
  0
LINE
  5
C1
330
30
100
AcDbEntity
  8
LC-001-111-----0
 62
   253
370
    25
100
AcDbLine
 10
1068.855603
 20
193.669147
 30
0.0
 11
1065.335603
 21
193.669147
 31
0.0
  0
LINE
  5
C2
330
30
100
AcDbEntity
  8
LC-001-111-----0
 62
   253
370
    25
100
AcDbLine
 10
1067.095603
 20
192.169147
 30
0.0
 11
1067.095603
 21
160.149147
 31
0.0
  0
ARC
  5
C3
330
30
100
AcDbEntity
  8
LC-001-111-----0
 62
   253
370
    25
100
AcDbCircle
 10
823.845603
 20
176.159147
 30
0.0
 40
15.38999999999992
100
AcDbArc
 50
76.816519
 51
283.183481
  0
LINE
  5
C4
330
30
100
AcDbEntity
  8
LC-001-111-----0
 62
   253
370
    25
100
AcDbLine
 10
870.855603
 20
195.169147
 30
0.0
 11
864.335603
 21
195.169147
 31
0.0
  0
LINE
  5
C5
330
30
100
AcDbEntity
  8
LC-001-111-----0
 62
   253
370
    25
100
AcDbLine
 10
1096.09687
 20
195.169147
 30
0.0
 11
1088.520928
 21
195.169147
 31
0.0
  0
LINE
  5
C6
330
30
100
AcDbEntity
  8
LC-001-111-----0
 62
   253
370
    25
100
AcDbLine
 10
865.835603
 20
158.649147
 30
0.0
 11
869.355603
 21
158.649147
 31
0.0
  0
LINE
  5
C7
330
30
100
AcDbEntity
  8
LC-001-111-----0
 62
   253
370
    25
100
AcDbLine
 10
1023.355603
 20
191.143539
 30
0.0
 11
1023.355603
 21
193.313738
 31
0.0
  0
LINE
  5
C8
330
30
100
AcDbEntity
  8
LC-001-111-----0
 62
   253
370
    25
100
AcDbLine
 10
892.095603
 20
192.169147
 30
0.0
 11
892.095603
 21
160.149147
 31
0.0
  0
TEXT
  5
C9
330
30
100
AcDbEntity
  8
LC-001-111-----0
 62
     1
370
    15
100
AcDbText
 10
1871.214286
 20
21.25
 30
0.0
 40
15.0
  1
Montano-N100XL-U
 41
0.75
  7
LCTX0-400-0-0pDIN-Schrift
 72
     1
 11
1958.0
 21
21.25
 31
0.0
100
AcDbText
  0
CIRCLE
  5
CA
330
30
100
AcDbEntity
  8
LC-001-111-----0
 62
   253
370
    25
100
AcDbCircle
 10
946.345603
 20
176.159147
 30
0.0
 40
17.51000000000047
  0
LINE
  5
CB
330
30
100
AcDbEntity
  8
LC-001-111-----0
 62
   253
370
    25
100
AcDbLine
 10
1088.520928
 20
195.169147
 30
0.0
 11
1072.679261
 21
176.159147
 31
0.0
  0
ARC
  5
CC
330
30
100
AcDbEntity
  8
LC-001-111-----0
 62
   253
370
    25
100
AcDbCircle
 10
1019.845603
 20
176.159147
 30
0.0
 40
17.50999999999996
100
AcDbArc
 50
78.436322
 51
281.563678
  0
ARC
  5
CD
330
30
100
AcDbEntity
  8
LC-001-111-----0
 62
   253
370
    25
100
AcDbCircle
 10
761.412387
 20
186.963179
 30
0.0
 40
26.54367341134783
100
AcDbArc
 50
244.741378
 51
268.246912
  0
LINE
  5
CE
330
30
100
AcDbEntity
  8
LC-001-111-----0
 62
   253
370
    25
100
AcDbLine
 10
1023.355603
 20
159.004556
 30
0.0
 11
1023.355603
 21
161.174755
 31
0.0
  0
LINE
  5
CF
330
30
100
AcDbEntity
  8
LC-002-002-----0
 62
     1
370
    25
100
AcDbLine
 10
1140.855603
 20
167.206073
 30
0.0
 11
1140.855603
 21
185.112221
 31
0.0
  0
LINE
  5
D0
330
30
100
AcDbEntity
  8
LC-002-002-----0
 62
     1
370
    25
100
AcDbLine
 10
1140.855603
 20
185.112221
 30
0.0
 11
1131.902529
 21
176.159147
 31
0.0
  0
LINE
  5
D1
330
30
100
AcDbEntity
  8
LC-002-002-----0
 62
     1
370
    25
100
AcDbLine
 10
1131.902529
 20
176.159147
 30
0.0
 11
1140.855603
 21
167.206073
 31
0.0
  0
CIRCLE
  5
D2
330
30
100
AcDbEntity
  8
LC-001-111-----0
 62
   253
370
    25
100
AcDbCircle
 10
946.345603
 20
176.159147
 30
0.0
 40
13.89000000000002
  0
LINE
  5
D3
330
30
100
AcDbEntity
  8
LC-001-111-----0
 62
   253
370
    25
100
AcDbLine
 10
890.335603
 20
158.649147
 30
0.0
 11
893.855603
 21
158.649147
 31
0.0
  0
LINE
  5
D4
330
30
100
AcDbEntity
  8
LC-001-111-----0
 62
   253
370
    25
100
AcDbLine
 10
893.855603
 20
158.649147
 30
0.0
 11
893.855603
 21
193.669147
 31
0.0
  0
ARC
  5
D5
330
30
100
AcDbEntity
  8
LC-001-111-----0
 62
   253
370
    25
100
AcDbCircle
 10
758.906662
 20
168.924866
 30
0.0
 40
20.55472179307891
100
AcDbArc
 50
57.190491
 51
90.951212
  0
ARC
  5
D6
330
30
100
AcDbEntity
  8
LC-001-111-----0
 62
   253
370
    25
100
AcDbCircle
 10
761.779647
 20
167.692822
 30
0.0
 40
12.23104525444841
100
AcDbArc
 50
274.343327
 51
74.255463
  0
LINE
  5
D7
330
30
100
AcDbEntity
  8
LC-001-111-----0
 62
   253
370
    25
100
AcDbLine
 10
893.855603
 20
193.669147
 30
0.0
 11
890.335603
 21
193.669147
 31
0.0
  0
LINE
  5
D8
330
30
100
AcDbEntity
  8
LC-001-111-----0
 62
   253
370
    25
100
AcDbLine
 10
890.335603
 20
193.669147
 30
0.0
 11
890.335603
 21
158.649147
 31
0.0
  0
LINE
  5
D9
330
30
100
AcDbEntity
  8
LC-001-111-----0
 62
   253
370
    25
100
AcDbLine
 10
890.335603
 20
176.159147
 30
0.0
 11
869.355603
 21
176.159147
 31
0.0
  0
TEXT
  5
DA
330
30
100
AcDbEntity
  8
LC-001-111-----0
 62
     7
370
    25
100
AcDbText
 10
1976.071429
 20
143.75
 30
0.0
 40
25.0
  1
2
 41
0.75
  7
LCTX0-400-0-0pDIN-Schrift
 72
     1
 11
1985.0
 21
143.75
 31
0.0
100
AcDbText
  0
LINE
  5
DB
330
30
100
AcDbEntity
  8
LC-001-111-----0
 62
   253
370
    25
100
AcDbLine
 10
869.355603
 20
158.649147
 30
0.0
 11
869.355603
 21
193.669147
 31
0.0
  0
LINE
  5
DC
330
30
100
AcDbEntity
  8
LC-001-111-----0
 62
   253
370
    25
100
AcDbLine
 10
869.355603
 20
193.669147
 30
0.0
 11
865.835603
 21
193.669147
 31
0.0
  0
LINE
  5
DD
330
30
100
AcDbEntity
  8
LC-001-111-----0
 62
   253
370
    25
100
AcDbLine
 10
865.835603
 20
193.669147
 30
0.0
 11
865.835603
 21
158.649147
 31
0.0
  0
LINE
  5
DE
330
30
100
AcDbEntity
  8
LC-001-111-----0
 62
   253
370
    25
100
AcDbLine
 10
867.595603
 20
192.169147
 30
0.0
 11
867.595603
 21
160.149147
 31
0.0
  0
CIRCLE
  5
DF
330
30
100
AcDbEntity
  8
LC-001-111-----0
 62
   253
370
    25
100
AcDbCircle
 10
946.345603
 20
176.159147
 30
0.0
 40
15.38999999999984
  0
LINE
  5
E0
330
30
100
AcDbEntity
  8
LC-001-111-----0
 62
   253
370
    25
100
AcDbLine
 10
1072.679261
 20
176.159147
 30
0.0
 11
1088.520928
 21
157.149147
 31
0.0
  0
LINE
  5
E1
330
30
100
AcDbEntity
  8
LC-001-111-----0
 62
   253
370
    25
100
AcDbLine
 10
1088.520928
 20
157.149147
 30
0.0
 11
1096.09687
 21
157.149147
 31
0.0
  0
LINE
  5
E2
330
30
100
AcDbEntity
  8
LC-001-111-----0
 62
   253
370
    25
100
AcDbLine
 10
1096.09687
 20
157.149147
 30
0.0
 11
1080.255204
 21
176.159147
 31
0.0
  0
LINE
  5
E3
330
30
100
AcDbEntity
  8
LC-001-111-----0
 62
   253
370
    25
100
AcDbLine
 10
770.044191
 20
186.20063
 30
0.0
 11
770.044191
 21
193.903002
 31
0.0
  0
ARC
  5
E4
330
30
100
AcDbEntity
  8
LC-001-111-----0
 62
   253
370
    25
100
AcDbCircle
 10
761.412387
 20
186.963179
 30
0.0
 40
23.54367341134796
100
AcDbArc
 50
232.518913
 51
268.246912
  0
ARC
  5
E5
330
30
100
AcDbEntity
  8
LC-001-111-----0
 62
   253
370
    25
100
AcDbCircle
 10
760.836588
 20
168.15034
 30
0.0
 40
4.722024781007908
100
AcDbArc
 50
268.246912
 51
72.731329
  0
LINE
  5
E6
330
30
100
AcDbEntity
  8
LC-001-111-----0
 62
   253
370
    25
100
AcDbLine
 10
757.542274
 20
181.595277
 30
0.0
 11
765.098525
 21
179.464972
 31
0.0
  0
ARC
  5
E7
330
30
100
AcDbEntity
  8
LC-001-111-----0
 62
   253
370
    25
100
AcDbCircle
 10
758.632108
 20
185.460948
 30
0.0
 40
4.016360130100384
100
AcDbArc
 50
90.951212
 51
254.255463
  0
ARC
  5
E8
330
30
100
AcDbEntity
  8
LC-001-111-----0
 62
   253
370
    25
100
AcDbCircle
 10
758.032826
 20
185.671748
 30
0.0
 40
11.17727081470983
100
AcDbArc
 50
94.48185
 51
252.731329
  0
LINE
  5
E9
330
30
100
AcDbEntity
  8
LC-001-111-----0
 62
   253
370
    25
100
AcDbLine
 10
762.238334
 20
172.659511
 30
0.0
 11
754.714822
 21
174.998312
 31
0.0
  0
LINE
  5
EA
330
30
100
AcDbEntity
  8
LC-001-111-----0
 62
   253
370
    25
100
AcDbLine
 10
747.086073
 20
168.279997
 30
0.0
 11
747.086073
 21
159.524163
 31
0.0
  0
ARC
  5
EB
330
30
100
AcDbEntity
  8
LC-001-111-----0
 62
   253
370
    25
100
AcDbCircle
 10
758.903191
 20
174.567744
 30
0.0
 40
22.31533311668187
100
AcDbArc
 50
60.049399
 51
94.48185
  0
ARC
  5
EC
330
30
100
AcDbEntity
  8
LC-001-111-----0
 62
   253
370
    25
100
AcDbCircle
 10
760.81067
 20
180.45076
 30
0.0
 40
25.02572762426604
100
AcDbArc
 50
236.741348
 51
274.343327
  0
LINE
  5
ED
330
30
100
AcDbEntity
  8
LC-001-111-----0
 62
   253
370
    25
100
AcDbLine
 10
1080.255204
 20
176.159147
 30
0.0
 11
1096.09687
 21
195.169147
 31
0.0
  0
LINE
  5
EE
330
30
100
AcDbEntity
  8
LC-001-111-----0
 62
   253
370
    25
100
AcDbLine
 10
750.086073
 20
162.957321
 30
0.0
 11
750.086073
 21
161.212369
 31
0.0
  0
LINE
  5
EF
330
30
100
AcDbEntity
  8
LC-001-111-----0
 62
   253
370
    25
100
AcDbLine
 10
1078.302641
 20
176.159147
 30
0.0
 11
1092.894308
 21
193.669147
 31
0.0
  0
LINE
  5
F0
330
30
100
AcDbEntity
  8
LC-002-002-----0
 62
     1
370
    25
100
AcDbLine
 10
1139.355603
 20
170.827393
 30
0.0
 11
1139.355603
 21
181.490901
 31
0.0
  0
LINE
  5
F1
330
30
100
AcDbEntity
  8
LC-002-002-----0
 62
     1
370
    25
100
AcDbLine
 10
1139.355603
 20
181.490901
 30
0.0
 11
1134.023849
 21
176.159147
 31
0.0
  0
LINE
  5
F2
330
30
100
AcDbEntity
  8
LC-002-002-----0
 62
     1
370
    25
100
AcDbLine
 10
1134.023849
 20
176.159147
 30
0.0
 11
1139.355603
 21
170.827393
 31
0.0
  0
LINE
  5
F3
330
30
100
AcDbEntity
  8
LC-002-002-----0
 62
     1
370
    25
100
AcDbLine
 10
1137.855603
 20
174.448713
 30
0.0
 11
1137.855603
 21
177.869581
 31
0.0
  0
LINE
  5
F4
330
30
100
AcDbEntity
  8
LC-002-002-----0
 62
     1
370
    25
100
AcDbLine
 10
1137.855603
 20
177.869581
 30
0.0
 11
1136.145169
 21
176.159147
 31
0.0
  0
LINE
  5
F5
330
30
100
AcDbEntity
  8
LC-002-002-----0
 62
     1
370
    25
100
AcDbLine
 10
1136.145169
 20
176.159147
 30
0.0
 11
1137.855603
 21
174.448713
 31
0.0
  0
LINE
  5
F6
330
30
100
AcDbEntity
  8
LC-001-111-----0
 62
   253
370
    25
100
AcDbLine
 10
1092.894308
 20
193.669147
 30
0.0
 11
1089.22349
 21
193.669147
 31
0.0
  0
LINE
  5
F7
330
30
100
AcDbEntity
  8
LC-001-111-----0
 62
   253
370
    25
100
AcDbLine
 10
1089.22349
 20
193.669147
 30
0.0
 11
1074.631824
 21
176.159147
 31
0.0
  0
ARC
  5
F8
330
30
100
AcDbEntity
  8
LC-001-111-----0
 62
   253
370
    25
100
AcDbCircle
 10
1019.845603
 20
176.159147
 30
0.0
 40
15.38999999999992
100
AcDbArc
 50
76.816519
 51
283.183481
  0
LINE
  5
F9
330
30
100
AcDbEntity
  8
LC-001-111-----0
 62
   253
370
    25
100
AcDbLine
 10
1074.631824
 20
176.159147
 30
0.0
 11
1089.22349
 21
158.649147
 31
0.0
  0
LINE
  5
FA
330
30
100
AcDbEntity
  8
LC-001-111-----0
 62
   253
370
    25
100
AcDbLine
 10
1089.22349
 20
158.649147
 30
0.0
 11
1092.894308
 21
158.649147
 31
0.0
  0
LINE
  5
FB
330
30
100
AcDbEntity
  8
LC-001-111-----0
 62
   253
370
    25
100
AcDbLine
 10
1092.894308
 20
158.649147
 30
0.0
 11
1078.302641
 21
176.159147
 31
0.0
  0
LINE
  5
FC
330
30
100
AcDbEntity
  8
LC-001-111-----0
 62
   253
370
    25
100
AcDbLine
 10
1076.467232
 20
176.159147
 30
0.0
 11
1090.098623
 21
192.516815
 31
0.0
  0
LINE
  5
FD
330
30
100
AcDbEntity
  8
LC-001-111-----0
 62
   253
370
    25
100
AcDbLine
 10
1076.467232
 20
176.159147
 30
0.0
 11
1090.098623
 21
159.801479
 31
0.0
  0
ARC
  5
FE
330
30
100
AcDbEntity
  8
LC-001-111-----0
 62
   253
370
    25
100
AcDbCircle
 10
760.81067
 20
180.45076
 30
0.0
 40
22.02572762426587
100
AcDbArc
 50
240.862164
 51
274.343327
  0
ARC
  5
FF
330
30
100
AcDbEntity
  8
LC-001-111-----0
 62
   253
370
    25
100
AcDbCircle
 10
761.779647
 20
167.692822
 30
0.0
 40
9.231045254448425
100
AcDbArc
 50
274.343327
 51
74.255463
  0
LINE
  5
100
330
30
100
AcDbEntity
  8
LC-001-111-----0
 62
   253
370
    25
100
AcDbLine
 10
764.284479
 20
176.577529
 30
0.0
 11
756.728228
 21
178.707834
 31
0.0
  0
ARC
  5
101
330
30
100
AcDbEntity
  8
LC-001-111-----0
 62
   253
370
    25
100
AcDbCircle
 10
758.632108
 20
185.460948
 30
0.0
 40
7.016360130100396
100
AcDbArc
 50
90.951212
 51
254.255463
  0
ARC
  5
102
330
30
100
AcDbEntity
  8
LC-001-111-----0
 62
   253
370
    25
100
AcDbCircle
 10
758.906662
 20
168.924866
 30
0.0
 40
23.55472179307856
100
AcDbArc
 50
69.789306
 51
90.951212
  0
LINE
  5
103
330
30
100
AcDbEntity
  8
LC-001-111-----0
 62
   253
370
    25
100
AcDbLine
 10
767.044191
 20
191.029289
 30
0.0
 11
767.044191
 21
192.083629
 31
0.0
  0
ENDBLK
  5
32
330
30
100
AcDbEntity
  8
0
100
AcDbBlockEnd
  0
BLOCK
  5
11B
330
11A
100
AcDbEntity
  8
0
100
AcDbBlockBegin
  2
*X12
 70
     1
 71
     0
 10
0.0
 20
0.0
 30
0.0
  3
*X12
  1

  4
*X1
  0
LINE
  5
11E
330
11A
100
AcDbEntity
  8
LC-006-005-----0
 62
     7
370
    18
100
AcDbLine
 10
341.874146
 20
2587.783644
 30
0.0
 11
344.954096
 21
2586.271349
 31
0.0
  0
LINE
  5
11F
330
11A
100
AcDbEntity
  8
LC-006-005-----0
 62
     7
370
    18
100
AcDbLine
 10
344.954096
 20
2586.271349
 30
0.0
 11
354.982416
 21
2588.5804
 31
0.0
  0
LINE
  5
120
330
11A
100
AcDbEntity
  8
LC-006-005-----0
 62
     7
370
    18
100
AcDbLine
 10
347.4661
 20
2527.727474
 30
0.0
 11
356.387496
 21
2524.774063
 31
0.0
  0
LINE
  5
121
330
11A
100
AcDbEntity
  8
LC-006-005-----0
 62
     7
370
    18
100
AcDbLine
 10
347.4661
 20
2527.727474
 30
0.0
 11
350.013439
 21
2536.229636
 31
0.0
  0
LINE
  5
122
330
11A
100
AcDbEntity
  8
LC-006-005-----0
 62
     7
370
    18
100
AcDbLine
 10
351.471396
 20
2595.854495
 30
0.0
 11
354.321343
 21
2600.112696
 31
0.0
  0
LINE
  5
123
330
11A
100
AcDbEntity
  8
LC-006-005-----0
 62
     7
370
    18
100
AcDbLine
 10
351.471396
 20
2595.854495
 30
0.0
 11
354.182566
 21
2586.674304
 31
0.0
  0
LINE
  5
124
330
11A
100
AcDbEntity
  8
LC-006-005-----0
 62
     7
370
    18
100
AcDbLine
 10
351.997244
 20
2580.750569
 30
0.0
 11
354.182566
 21
2586.674304
 31
0.0
  0
LINE
  5
125
330
11A
100
AcDbEntity
  8
LC-006-005-----0
 62
     7
370
    18
100
AcDbLine
 10
351.997244
 20
2580.750569
 30
0.0
 11
355.797104
 21
2569.703784
 31
0.0
  0
LINE
  5
126
330
11A
100
AcDbEntity
  8
LC-006-005-----0
 62
     7
370
    18
100
AcDbLine
 10
352.78121
 20
2563.342817
 30
0.0
 11
355.797104
 21
2569.703784
 31
0.0
  0
LINE
  5
127
330
11A
100
AcDbEntity
  8
LC-006-005-----0
 62
     7
370
    18
100
AcDbLine
 10
352.78121
 20
2563.342817
 30
0.0
 11
355.811107
 21
2558.997672
 31
0.0
  0
LINE
  5
128
330
11A
100
AcDbEntity
  8
LC-006-005-----0
 62
     7
370
    18
100
AcDbLine
 10
353.385433
 20
2604.711569
 30
0.0
 11
354.321343
 21
2600.112696
 31
0.0
  0
LINE
  5
129
330
11A
100
AcDbEntity
  8
LC-006-005-----0
 62
     7
370
    18
100
AcDbLine
 10
354.982416
 20
2588.5804
 30
0.0
 11
362.94747
 21
2589.166859
 31
0.0
  0
LINE
  5
12A
330
11A
100
AcDbEntity
  8
LC-006-005-----0
 62
     7
370
    18
100
AcDbLine
 10
355.811107
 20
2558.997672
 30
0.0
 11
360.939382
 21
2554.696417
 31
0.0
  0
LINE
  5
12B
330
11A
100
AcDbEntity
  8
LC-006-005-----0
 62
     7
370
    18
100
AcDbLine
 10
356.387496
 20
2524.774063
 30
0.0
 11
364.402294
 21
2513.963792
 31
0.0
  0
LINE
  5
12C
330
11A
100
AcDbEntity
  8
LC-006-005-----0
 62
     7
370
    18
100
AcDbLine
 10
362.94747
 20
2589.166859
 30
0.0
 11
373.801974
 21
2592.122979
 31
0.0
  0
LINE
  5
12D
330
11A
100
AcDbEntity
  8
LC-006-005-----0
 62
     7
370
    18
100
AcDbLine
 10
364.402294
 20
2513.963792
 30
0.0
 11
374.99412
 21
2510.420033
 31
0.0
  0
LINE
  5
12E
330
11A
100
AcDbEntity
  8
LC-006-005-----0
 62
     7
370
    18
100
AcDbLine
 10
364.735689
 20
2533.78287
 30
0.0
 11
372.490906
 21
2534.36494
 31
0.0
  0
LINE
  5
12F
330
11A
100
AcDbEntity
  8
LC-006-005-----0
 62
     7
370
    18
100
AcDbLine
 10
368.852814
 20
2467.722866
 30
0.0
 11
376.14969
 21
2475.337634
 31
0.0
  0
LINE
  5
130
330
11A
100
AcDbEntity
  8
LC-006-005-----0
 62
     7
370
    18
100
AcDbLine
 10
372.490906
 20
2534.36494
 30
0.0
 11
378.523531
 21
2537.010275
 31
0.0
  0
LINE
  5
131
330
11A
100
AcDbEntity
  8
LC-006-005-----0
 62
     7
370
    18
100
AcDbLine
 10
373.801974
 20
2592.122979
 30
0.0
 11
383.384284
 21
2595.682278
 31
0.0
  0
LINE
  5
132
330
11A
100
AcDbEntity
  8
LC-006-005-----0
 62
     7
370
    18
100
AcDbLine
 10
374.99412
 20
2510.420033
 30
0.0
 11
384.121642
 21
2505.19081
 31
0.0
  0
LINE
  5
133
330
11A
100
AcDbEntity
  8
LC-006-005-----0
 62
     7
370
    18
100
AcDbLine
 10
376.14969
 20
2475.337634
 30
0.0
 11
386.91286
 21
2478.051521
 31
0.0
  0
LINE
  5
134
330
11A
100
AcDbEntity
  8
LC-006-005-----0
 62
     7
370
    18
100
AcDbLine
 10
378.523531
 20
2537.010275
 30
0.0
 11
385.832739
 21
2538.842593
 31
0.0
  0
LINE
  5
135
330
11A
100
AcDbEntity
  8
LC-006-005-----0
 62
     7
370
    18
100
AcDbLine
 10
382.083875
 20
2498.095829
 30
0.0
 11
384.121642
 21
2505.19081
 31
0.0
  0
LINE
  5
136
330
11A
100
AcDbEntity
  8
LC-006-005-----0
 62
     7
370
    18
100
AcDbLine
 10
382.083875
 20
2498.095829
 30
0.0
 11
386.490467
 21
2498.00366
 31
0.0
  0
LINE
  5
137
330
11A
100
AcDbEntity
  8
LC-006-005-----0
 62
     7
370
    18
100
AcDbLine
 10
383.472901
 20
2581.408924
 30
0.0
 11
384.801316
 21
2588.154454
 31
0.0
  0
LINE
  5
138
330
11A
100
AcDbEntity
  8
LC-006-005-----0
 62
     7
370
    18
100
AcDbLine
 10
383.472901
 20
2581.408924
 30
0.0
 11
385.541391
 21
2572.84508
 31
0.0
  0
LINE
  5
139
330
11A
100
AcDbEntity
  8
LC-006-005-----0
 62
     7
370
    18
100
AcDbLine
 10
385.541391
 20
2572.84508
 30
0.0
 11
385.664284
 21
2566.969624
 31
0.0
  0
LINE
  5
13A
330
11A
100
AcDbEntity
  8
LC-006-005-----0
 62
     7
370
    18
100
AcDbLine
 10
385.664284
 20
2566.969624
 30
0.0
 11
385.8179
 21
2559.625304
 31
0.0
  0
LINE
  5
13B
330
11A
100
AcDbEntity
  8
LC-006-005-----0
 62
     7
370
    18
100
AcDbLine
 10
385.8179
 20
2559.625304
 30
0.0
 11
390.504554
 21
2556.364459
 31
0.0
  0
LINE
  5
13C
330
11A
100
AcDbEntity
  8
LC-006-005-----0
 62
     7
370
    18
100
AcDbLine
 10
385.832739
 20
2538.842593
 30
0.0
 11
391.200739
 21
2543.153462
 31
0.0
  0
LINE
  5
13D
330
11A
100
AcDbEntity
  8
LC-006-005-----0
 62
     7
370
    18
100
AcDbLine
 10
386.490467
 20
2498.00366
 30
0.0
 11
392.164028
 21
2488.228232
 31
0.0
  0
LINE
  5
13E
330
11A
100
AcDbEntity
  8
LC-006-005-----0
 62
     7
370
    18
100
AcDbLine
 10
386.91286
 20
2478.051521
 30
0.0
 11
387.307037
 21
2486.860316
 31
0.0
  0
LINE
  5
13F
330
11A
100
AcDbEntity
  8
LC-006-005-----0
 62
     7
370
    18
100
AcDbLine
 10
388.568571
 20
2548.556574
 30
0.0
 11
390.504554
 21
2556.364459
 31
0.0
  0
LINE
  5
140
330
11A
100
AcDbEntity
  8
LC-006-005-----0
 62
     7
370
    18
100
AcDbLine
 10
388.568571
 20
2548.556574
 30
0.0
 11
395.56344
 21
2545.344009
 31
0.0
  0
LINE
  5
141
330
11A
100
AcDbEntity
  8
LC-006-005-----0
 62
     7
370
    18
100
AcDbLine
 10
391.200739
 20
2543.153462
 30
0.0
 11
395.331657
 21
2546.388808
 31
0.0
  0
LINE
  5
142
330
11A
100
AcDbEntity
  8
LC-006-005-----0
 62
     7
370
    18
100
AcDbLine
 10
395.56344
 20
2545.344009
 30
0.0
 11
397.408925
 21
2537.405288
 31
0.0
  0
LINE
  5
143
330
11A
100
AcDbEntity
  8
LC-006-005-----0
 62
     7
370
    18
100
AcDbLine
 10
403.974156
 20
2479.54508
 30
0.0
 11
404.678841
 21
2474.32105
 31
0.0
  0
LINE
  5
144
330
11A
100
AcDbEntity
  8
LC-006-005-----0
 62
     7
370
    18
100
AcDbLine
 10
402.922808
 20
2574.888071
 30
0.0
 11
410.218849
 21
2577.349902
 31
0.0
  0
LINE
  5
145
330
11A
100
AcDbEntity
  8
LC-006-005-----0
 62
     7
370
    18
100
AcDbLine
 10
408.82517
 20
2550.295221
 30
0.0
 11
409.101944
 21
2550.455563
 31
0.0
  0
LINE
  5
146
330
11A
100
AcDbEntity
  8
LC-006-005-----0
 62
     7
370
    18
100
AcDbLine
 10
404.678841
 20
2474.32105
 30
0.0
 11
414.987223
 21
2475.365013
 31
0.0
  0
LINE
  5
147
330
11A
100
AcDbEntity
  8
LC-006-005-----0
 62
     7
370
    18
100
AcDbLine
 10
410.218849
 20
2577.349902
 30
0.0
 11
416.076748
 21
2578.312146
 31
0.0
  0
LINE
  5
148
330
11A
100
AcDbEntity
  8
LC-006-005-----0
 62
     7
370
    18
100
AcDbLine
 10
410.352401
 20
2601.074731
 30
0.0
 11
411.912598
 21
2606.775461
 31
0.0
  0
LINE
  5
149
330
11A
100
AcDbEntity
  8
LC-006-005-----0
 62
     7
370
    18
100
AcDbLine
 10
410.352401
 20
2601.074731
 30
0.0
 11
413.788807
 21
2597.367877
 31
0.0
  0
LINE
  5
14A
330
11A
100
AcDbEntity
  8
LC-006-005-----0
 62
     7
370
    18
100
AcDbLine
 10
413.788807
 20
2597.367877
 30
0.0
 11
413.794032
 21
2587.08144
 31
0.0
  0
LINE
  5
14B
330
11A
100
AcDbEntity
  8
LC-006-005-----0
 62
     7
370
    18
100
AcDbLine
 10
413.794032
 20
2587.08144
 30
0.0
 11
418.043454
 21
2584.651168
 31
0.0
  0
LINE
  5
14C
330
11A
100
AcDbEntity
  8
LC-006-005-----0
 62
     7
370
    18
100
AcDbLine
 10
414.987223
 20
2475.365013
 30
0.0
 11
415.647459
 21
2476.82071
 31
0.0
  0
LINE
  5
14D
330
11A
100
AcDbEntity
  8
LC-006-005-----0
 62
     7
370
    18
100
AcDbLine
 10
416.076748
 20
2578.312146
 30
0.0
 11
419.534264
 21
2583.632703
 31
0.0
  0
LINE
  5
14E
330
11A
100
AcDbEntity
  8
LC-006-005-----0
 62
     7
370
    18
100
AcDbLine
 10
418.043454
 20
2584.651168
 30
0.0
 11
420.226059
 21
2570.631543
 31
0.0
  0
LINE
  5
14F
330
11A
100
AcDbEntity
  8
LC-006-005-----0
 62
     7
370
    18
100
AcDbLine
 10
419.534264
 20
2583.632703
 30
0.0
 11
428.544118
 21
2584.450944
 31
0.0
  0
LINE
  5
150
330
11A
100
AcDbEntity
  8
LC-006-005-----0
 62
     7
370
    18
100
AcDbLine
 10
420.226059
 20
2570.631543
 30
0.0
 11
427.780217
 21
2570.789548
 31
0.0
  0
LINE
  5
151
330
11A
100
AcDbEntity
  8
LC-006-005-----0
 62
     7
370
    18
100
AcDbLine
 10
427.343821
 20
2561.543522
 30
0.0
 11
427.780217
 21
2570.789548
 31
0.0
  0
LINE
  5
152
330
11A
100
AcDbEntity
  8
LC-006-005-----0
 62
     7
370
    18
100
AcDbLine
 10
427.343821
 20
2561.543522
 30
0.0
 11
428.310454
 21
2555.475784
 31
0.0
  0
LINE
  5
153
330
11A
100
AcDbEntity
  8
LC-006-005-----0
 62
     7
370
    18
100
AcDbLine
 10
428.310454
 20
2555.475784
 30
0.0
 11
433.722344
 21
2557.688276
 31
0.0
  0
LINE
  5
154
330
11A
100
AcDbEntity
  8
LC-006-005-----0
 62
     7
370
    18
100
AcDbLine
 10
428.544118
 20
2584.450944
 30
0.0
 11
434.515297
 21
2590.034007
 31
0.0
  0
LINE
  5
155
330
11A
100
AcDbEntity
  8
LC-006-005-----0
 62
     7
370
    18
100
AcDbLine
 10
437.681242
 20
2550.295221
 30
0.0
 11
439.532801
 21
2550.882136
 31
0.0
  0
LINE
  5
156
330
11A
100
AcDbEntity
  8
LC-006-005-----0
 62
     7
370
    18
100
AcDbLine
 10
434.515297
 20
2590.034007
 30
0.0
 11
443.324091
 21
2590.428184
 31
0.0
  0
LINE
  5
157
330
11A
100
AcDbEntity
  8
LC-006-005-----0
 62
     7
370
    18
100
AcDbLine
 10
439.532801
 20
2550.882136
 30
0.0
 11
445.985101
 21
2553.536248
 31
0.0
  0
LINE
  5
158
330
11A
100
AcDbEntity
  8
LC-006-005-----0
 62
     7
370
    18
100
AcDbLine
 10
440.265143
 20
2576.088995
 30
0.0
 11
440.548758
 21
2582.602742
 31
0.0
  0
LINE
  5
159
330
11A
100
AcDbEntity
  8
LC-006-005-----0
 62
     7
370
    18
100
AcDbLine
 10
440.265143
 20
2576.088995
 30
0.0
 11
443.045701
 21
2573.628
 31
0.0
  0
LINE
  5
15A
330
11A
100
AcDbEntity
  8
LC-006-005-----0
 62
     7
370
    18
100
AcDbLine
 10
441.979793
 20
2564.368807
 30
0.0
 11
443.045701
 21
2573.628
 31
0.0
  0
LINE
  5
15B
330
11A
100
AcDbEntity
  8
LC-006-005-----0
 62
     7
370
    18
100
AcDbLine
 10
441.979793
 20
2564.368807
 30
0.0
 11
447.558466
 21
2558.607466
 31
0.0
  0
LINE
  5
15C
330
11A
100
AcDbEntity
  8
LC-006-005-----0
 62
     7
370
    18
100
AcDbLine
 10
443.324091
 20
2590.428184
 30
0.0
 11
448.460308
 21
2595.783853
 31
0.0
  0
LINE
  5
15D
330
11A
100
AcDbEntity
  8
LC-006-005-----0
 62
     7
370
    18
100
AcDbLine
 10
445.985101
 20
2553.536248
 30
0.0
 11
449.442616
 21
2558.856805
 31
0.0
  0
LINE
  5
15E
330
11A
100
AcDbEntity
  8
LC-006-005-----0
 62
     7
370
    18
100
AcDbLine
 10
447.558466
 20
2558.607466
 30
0.0
 11
450.457529
 21
2550.480852
 31
0.0
  0
LINE
  5
15F
330
11A
100
AcDbEntity
  8
LC-006-005-----0
 62
     7
370
    18
100
AcDbLine
 10
449.442616
 20
2558.856805
 30
0.0
 11
459.506048
 21
2559.487154
 31
0.0
  0
LINE
  5
160
330
11A
100
AcDbEntity
  8
LC-006-005-----0
 62
     7
370
    18
100
AcDbLine
 10
458.487792
 20
2608.169503
 30
0.0
 11
460.298165
 21
2601.909484
 31
0.0
  0
LINE
  5
161
330
11A
100
AcDbEntity
  8
LC-006-005-----0
 62
     7
370
    18
100
AcDbLine
 10
459.506048
 20
2559.487154
 30
0.0
 11
461.879263
 21
2566.464467
 31
0.0
  0
LINE
  5
162
330
11A
100
AcDbEntity
  8
LC-006-005-----0
 62
     7
370
    18
100
AcDbLine
 10
460.298165
 20
2601.909484
 30
0.0
 11
465.369382
 21
2600.336119
 31
0.0
  0
LINE
  5
163
330
11A
100
AcDbEntity
  8
LC-006-005-----0
 62
     7
370
    18
100
AcDbLine
 10
461.879263
 20
2566.464467
 30
0.0
 11
469.048857
 21
2564.934992
 31
0.0
  0
LINE
  5
164
330
11A
100
AcDbEntity
  8
LC-006-005-----0
 62
     7
370
    18
100
AcDbLine
 10
464.674869
 20
2593.393918
 30
0.0
 11
465.369382
 21
2600.336119
 31
0.0
  0
LINE
  5
165
330
11A
100
AcDbEntity
  8
LC-006-005-----0
 62
     7
370
    18
100
AcDbLine
 10
464.674869
 20
2593.393918
 30
0.0
 11
467.669655
 21
2590.727474
 31
0.0
  0
LINE
  5
166
330
11A
100
AcDbEntity
  8
LC-006-005-----0
 62
     7
370
    18
100
AcDbLine
 10
467.669655
 20
2590.727474
 30
0.0
 11
468.251725
 21
2582.972257
 31
0.0
  0
LINE
  5
167
330
11A
100
AcDbEntity
  8
LC-006-005-----0
 62
     7
370
    18
100
AcDbLine
 10
468.251725
 20
2582.972257
 30
0.0
 11
476.182503
 21
2575.160819
 31
0.0
  0
LINE
  5
168
330
11A
100
AcDbEntity
  8
LC-006-005-----0
 62
     7
370
    18
100
AcDbLine
 10
469.048857
 20
2564.934992
 30
0.0
 11
471.212234
 21
2571.907916
 31
0.0
  0
LINE
  5
169
330
11A
100
AcDbEntity
  8
LC-006-005-----0
 62
     7
370
    18
100
AcDbLine
 10
471.212234
 20
2571.907916
 30
0.0
 11
482.09746
 21
2573.395172
 31
0.0
  0
LINE
  5
16A
330
11A
100
AcDbEntity
  8
LC-006-005-----0
 62
     7
370
    18
100
AcDbLine
 10
476.182503
 20
2575.160819
 30
0.0
 11
476.751406
 21
2568.035114
 31
0.0
  0
LINE
  5
16B
330
11A
100
AcDbEntity
  8
LC-006-005-----0
 62
     7
370
    18
100
AcDbLine
 10
476.751406
 20
2568.035114
 30
0.0
 11
481.888459
 21
2563.314184
 31
0.0
  0
LINE
  5
16C
330
11A
100
AcDbEntity
  8
LC-006-005-----0
 62
     7
370
    18
100
AcDbLine
 10
482.09746
 20
2573.395172
 30
0.0
 11
484.540899
 21
2577.015082
 31
0.0
  0
LINE
  5
16D
330
11A
100
AcDbEntity
  8
LC-006-005-----0
 62
     7
370
    18
100
AcDbLine
 10
486.973888
 20
2464.412488
 30
0.0
 11
499.577318
 21
2464.778659
 31
0.0
  0
LINE
  5
16E
330
11A
100
AcDbEntity
  8
LC-006-005-----0
 62
     7
370
    18
100
AcDbLine
 10
488.259249
 20
2599.975173
 30
0.0
 11
492.005604
 21
2601.523039
 31
0.0
  0
LINE
  5
16F
330
11A
100
AcDbEntity
  8
LC-006-005-----0
 62
     7
370
    18
100
AcDbLine
 10
492.005565
 20
2536.017503
 30
0.0
 11
495.631569
 21
2528.645685
 31
0.0
  0
LINE
  5
170
330
11A
100
AcDbEntity
  8
LC-006-005-----0
 62
     7
370
    18
100
AcDbLine
 10
492.005604
 20
2601.523039
 30
0.0
 11
500.005771
 21
2600.430796
 31
0.0
  0
LINE
  5
171
330
11A
100
AcDbEntity
  8
LC-006-005-----0
 62
     7
370
    18
100
AcDbLine
 10
494.222276
 20
2545.728154
 30
0.0
 11
501.356758
 21
2545.877381
 31
0.0
  0
LINE
  5
172
330
11A
100
AcDbEntity
  8
LC-006-005-----0
 62
     7
370
    18
100
AcDbLine
 10
495.631569
 20
2528.645685
 30
0.0
 11
504.323606
 21
2527.133269
 31
0.0
  0
LINE
  5
173
330
11A
100
AcDbEntity
  8
LC-006-005-----0
 62
     7
370
    18
100
AcDbLine
 10
497.048606
 20
2571.188741
 30
0.0
 11
499.466547
 21
2565.991078
 31
0.0
  0
LINE
  5
174
330
11A
100
AcDbEntity
  8
LC-006-005-----0
 62
     7
370
    18
100
AcDbLine
 10
497.94606
 20
2608.574966
 30
0.0
 11
501.251631
 21
2601.086644
 31
0.0
  0
LINE
  5
175
330
11A
100
AcDbEntity
  8
LC-006-005-----0
 62
     7
370
    18
100
AcDbLine
 10
499.466547
 20
2565.991078
 30
0.0
 11
501.272531
 21
2559.940896
 31
0.0
  0
LINE
  5
176
330
11A
100
AcDbEntity
  8
LC-006-005-----0
 62
     7
370
    18
100
AcDbLine
 10
499.577318
 20
2464.778659
 30
0.0
 11
505.667837
 21
2474.937814
 31
0.0
  0
LINE
  5
177
330
11A
100
AcDbEntity
  8
LC-006-005-----0
 62
     7
370
    18
100
AcDbLine
 10
500.005771
 20
2600.430796
 30
0.0
 11
506.895304
 21
2602.254336
 31
0.0
  0
LINE
  5
178
330
11A
100
AcDbEntity
  8
LC-006-005-----0
 62
     7
370
    18
100
AcDbLine
 10
501.251631
 20
2601.086644
 30
0.0
 11
507.590652
 21
2599.119938
 31
0.0
  0
LINE
  5
179
330
11A
100
AcDbEntity
  8
LC-006-005-----0
 62
     7
370
    18
100
AcDbLine
 10
501.272531
 20
2559.940896
 30
0.0
 11
508.009283
 21
2559.032157
 31
0.0
  0
LINE
  5
17A
330
11A
100
AcDbEntity
  8
LC-006-005-----0
 62
     7
370
    18
100
AcDbLine
 10
501.356758
 20
2545.877381
 30
0.0
 11
506.895095
 21
2552.081178
 31
0.0
  0
LINE
  5
17B
330
11A
100
AcDbEntity
  8
LC-006-005-----0
 62
     7
370
    18
100
AcDbLine
 10
504.323606
 20
2527.133269
 30
0.0
 11
508.133012
 21
2522.540251
 31
0.0
  0
LINE
  5
17C
330
11A
100
AcDbEntity
  8
LC-006-005-----0
 62
     7
370
    18
100
AcDbLine
 10
505.667837
 20
2474.937814
 30
0.0
 11
516.85946
 21
2478.062598
 31
0.0
  0
LINE
  5
17D
330
11A
100
AcDbEntity
  8
LC-006-005-----0
 62
     7
370
    18
100
AcDbLine
 10
506.522863
 20
2559.840785
 30
0.0
 11
514.295636
 21
2559.583504
 31
0.0
  0
LINE
  5
17E
330
11A
100
AcDbEntity
  8
LC-006-005-----0
 62
     7
370
    18
100
AcDbLine
 10
506.522863
 20
2559.840785
 30
0.0
 11
506.895095
 21
2552.081178
 31
0.0
  0
LINE
  5
17F
330
11A
100
AcDbEntity
  8
LC-006-005-----0
 62
     7
370
    18
100
AcDbLine
 10
506.895304
 20
2602.254336
 30
0.0
 11
515.087752
 21
2602.005833
 31
0.0
  0
LINE
  5
180
330
11A
100
AcDbEntity
  8
LC-006-005-----0
 62
     7
370
    18
100
AcDbLine
 10
507.590652
 20
2599.119938
 30
0.0
 11
508.828569
 21
2590.118861
 31
0.0
  0
LINE
  5
181
330
11A
100
AcDbEntity
  8
LC-006-005-----0
 62
     7
370
    18
100
AcDbLine
 10
508.009283
 20
2559.032157
 30
0.0
 11
509.968047
 21
2555.714255
 31
0.0
  0
LINE
  5
182
330
11A
100
AcDbEntity
  8
LC-006-005-----0
 62
     7
370
    18
100
AcDbLine
 10
508.133012
 20
2522.540251
 30
0.0
 11
520.714496
 21
2521.857233
 31
0.0
  0
LINE
  5
183
330
11A
100
AcDbEntity
  8
LC-006-005-----0
 62
     7
370
    18
100
AcDbLine
 10
508.828569
 20
2590.118861
 30
0.0
 11
515.648713
 21
2585.223206
 31
0.0
  0
LINE
  5
184
330
11A
100
AcDbEntity
  8
LC-006-005-----0
 62
     7
370
    18
100
AcDbLine
 10
512.481423
 20
2494.741703
 30
0.0
 11
517.118413
 21
2490.443023
 31
0.0
  0
LINE
  5
185
330
11A
100
AcDbEntity
  8
LC-006-005-----0
 62
     7
370
    18
100
AcDbLine
 10
509.968047
 20
2555.714255
 30
0.0
 11
518.82951
 21
2553.59038
 31
0.0
  0
LINE
  5
186
330
11A
100
AcDbEntity
  8
LC-006-005-----0
 62
     7
370
    18
100
AcDbLine
 10
514.295636
 20
2559.583504
 30
0.0
 11
515.610884
 21
2566.958547
 31
0.0
  0
LINE
  5
187
330
11A
100
AcDbEntity
  8
LC-006-005-----0
 62
     7
370
    18
100
AcDbLine
 10
515.087752
 20
2602.005833
 30
0.0
 11
516.071105
 21
2605.175344
 31
0.0
  0
LINE
  5
188
330
11A
100
AcDbEntity
  8
LC-006-005-----0
 62
     7
370
    18
100
AcDbLine
 10
515.610884
 20
2566.958547
 30
0.0
 11
522.050017
 21
2570.242172
 31
0.0
  0
LINE
  5
189
330
11A
100
AcDbEntity
  8
LC-006-005-----0
 62
     7
370
    18
100
AcDbLine
 10
515.648713
 20
2585.223206
 30
0.0
 11
515.924386
 21
2582.080029
 31
0.0
  0
LINE
  5
18A
330
11A
100
AcDbEntity
  8
LC-006-005-----0
 62
     7
370
    18
100
AcDbLine
 10
516.071105
 20
2605.175344
 30
0.0
 11
520.705091
 21
2604.432552
 31
0.0
  0
LINE
  5
18B
330
11A
100
AcDbEntity
  8
LC-006-005-----0
 62
     7
370
    18
100
AcDbLine
 10
517.224831
 20
2487.676495
 30
0.0
 11
525.267807
 21
2498.669748
 31
0.0
  0
LINE
  5
18C
330
11A
100
AcDbEntity
  8
LC-006-005-----0
 62
     7
370
    18
100
AcDbLine
 10
516.738678
 20
2479.54508
 30
0.0
 11
516.85946
 21
2478.062598
 31
0.0
  0
LINE
  5
18D
330
11A
100
AcDbEntity
  8
LC-006-005-----0
 62
     7
370
    18
100
AcDbLine
 10
517.118413
 20
2490.443023
 30
0.0
 11
528.182754
 21
2487.482514
 31
0.0
  0
LINE
  5
18E
330
11A
100
AcDbEntity
  8
LC-006-005-----0
 62
     7
370
    18
100
AcDbLine
 10
518.82951
 20
2553.59038
 30
0.0
 11
523.33705
 21
2548.856282
 31
0.0
  0
LINE
  5
18F
330
11A
100
AcDbEntity
  8
LC-006-005-----0
 62
     7
370
    18
100
AcDbLine
 10
520.705091
 20
2604.432552
 30
0.0
 11
526.978277
 21
2605.613412
 31
0.0
  0
LINE
  5
190
330
11A
100
AcDbEntity
  8
LC-006-005-----0
 62
     7
370
    18
100
AcDbLine
 10
520.714496
 20
2521.857233
 30
0.0
 11
525.338868
 21
2512.103751
 31
0.0
  0
LINE
  5
191
330
11A
100
AcDbEntity
  8
LC-006-005-----0
 62
     7
370
    18
100
AcDbLine
 10
522.050017
 20
2570.242172
 30
0.0
 11
522.980702
 21
2575.929736
 31
0.0
  0
LINE
  5
192
330
11A
100
AcDbEntity
  8
LC-006-005-----0
 62
     7
370
    18
100
AcDbLine
 10
522.980702
 20
2575.929736
 30
0.0
 11
530.705196
 21
2577.98067
 31
0.0
  0
LINE
  5
193
330
11A
100
AcDbEntity
  8
LC-006-005-----0
 62
     7
370
    18
100
AcDbLine
 10
523.33705
 20
2548.856282
 30
0.0
 11
530.882429
 21
2549.433963
 31
0.0
  0
LINE
  5
194
330
11A
100
AcDbEntity
  8
LC-006-005-----0
 62
     7
370
    18
100
AcDbLine
 10
525.338868
 20
2512.103751
 30
0.0
 11
535.713085
 21
2516.29528
 31
0.0
  0
LINE
  5
195
330
11A
100
AcDbEntity
  8
LC-006-005-----0
 62
     7
370
    18
100
AcDbLine
 10
526.483894
 20
2612.280484
 30
0.0
 11
527.511232
 21
2610.243008
 31
0.0
  0
LINE
  5
196
330
11A
100
AcDbEntity
  8
LC-006-005-----0
 62
     7
370
    18
100
AcDbLine
 10
526.978277
 20
2605.613412
 30
0.0
 11
535.555289
 21
2607.052388
 31
0.0
  0
LINE
  5
197
330
11A
100
AcDbEntity
  8
LC-006-005-----0
 62
     7
370
    18
100
AcDbLine
 10
527.511232
 20
2610.243008
 30
0.0
 11
533.929256
 21
2604.499224
 31
0.0
  0
LINE
  5
198
330
11A
100
AcDbEntity
  8
LC-006-005-----0
 62
     7
370
    18
100
AcDbLine
 10
528.182754
 20
2487.482514
 30
0.0
 11
537.996847
 21
2484.968014
 31
0.0
  0
LINE
  5
199
330
11A
100
AcDbEntity
  8
LC-006-005-----0
 62
     7
370
    18
100
AcDbLine
 10
530.705196
 20
2577.98067
 30
0.0
 11
532.864183
 21
2585.163431
 31
0.0
  0
LINE
  5
19A
330
11A
100
AcDbEntity
  8
LC-006-005-----0
 62
     7
370
    18
100
AcDbLine
 10
530.882429
 20
2549.433963
 30
0.0
 11
539.814117
 21
2543.952684
 31
0.0
  0
LINE
  5
19B
330
11A
100
AcDbEntity
  8
LC-006-005-----0
 62
     7
370
    18
100
AcDbLine
 10
531.96255
 20
2598.160202
 30
0.0
 11
533.929256
 21
2604.499224
 31
0.0
  0
LINE
  5
19C
330
11A
100
AcDbEntity
  8
LC-006-005-----0
 62
     7
370
    18
100
AcDbLine
 10
531.96255
 20
2598.160202
 30
0.0
 11
537.702782
 21
2594.711465
 31
0.0
  0
LINE
  5
19D
330
11A
100
AcDbEntity
  8
LC-006-005-----0
 62
     7
370
    18
100
AcDbLine
 10
535.555289
 20
2607.052388
 30
0.0
 11
538.650186
 21
2609.636276
 31
0.0
  0
LINE
  5
19E
330
11A
100
AcDbEntity
  8
LC-006-005-----0
 62
     7
370
    18
100
AcDbLine
 10
535.713085
 20
2516.29528
 30
0.0
 11
549.33498
 21
2515.170642
 31
0.0
  0
LINE
  5
19F
330
11A
100
AcDbEntity
  8
LC-006-005-----0
 62
     7
370
    18
100
AcDbLine
 10
537.295855
 20
2571.893495
 30
0.0
 11
541.426774
 21
2568.658149
 31
0.0
  0
LINE
  5
1A0
330
11A
100
AcDbEntity
  8
LC-006-005-----0
 62
     7
370
    18
100
AcDbLine
 10
537.996847
 20
2484.968014
 30
0.0
 11
545.853012
 21
2489.212212
 31
0.0
  0
LINE
  5
1A1
330
11A
100
AcDbEntity
  8
LC-006-005-----0
 62
     7
370
    18
100
AcDbLine
 10
541.426774
 20
2568.658149
 30
0.0
 11
546.74733
 21
2572.115664
 31
0.0
  0
LINE
  5
1A2
330
11A
100
AcDbEntity
  8
LC-006-005-----0
 62
     7
370
    18
100
AcDbLine
 10
545.230396
 20
2519.665014
 30
0.0
 11
552.942559
 21
2527.061167
 31
0.0
  0
LINE
  5
1A3
330
11A
100
AcDbEntity
  8
LC-006-005-----0
 62
     7
370
    18
100
AcDbLine
 10
545.230396
 20
2519.665014
 30
0.0
 11
554.30525
 21
2511.917739
 31
0.0
  0
LINE
  5
1A4
330
11A
100
AcDbEntity
  8
LC-006-005-----0
 62
     7
370
    18
100
AcDbLine
 10
546.281884
 20
2600.046024
 30
0.0
 11
554.635891
 21
2597.981924
 31
0.0
  0
LINE
  5
1A5
330
11A
100
AcDbEntity
  8
LC-006-005-----0
 62
     7
370
    18
100
AcDbLine
 10
546.426304
 20
2496.547754
 30
0.0
 11
548.831077
 21
2501.115904
 31
0.0
  0
LINE
  5
1A6
330
11A
100
AcDbEntity
  8
LC-006-005-----0
 62
     7
370
    18
100
AcDbLine
 10
546.501544
 20
2560.364752
 30
0.0
 11
547.529624
 21
2569.370217
 31
0.0
  0
LINE
  5
1A7
330
11A
100
AcDbEntity
  8
LC-006-005-----0
 62
     7
370
    18
100
AcDbLine
 10
546.501544
 20
2560.364752
 30
0.0
 11
553.115403
 21
2555.398035
 31
0.0
  0
LINE
  5
1A8
330
11A
100
AcDbEntity
  8
LC-006-005-----0
 62
     7
370
    18
100
AcDbLine
 10
546.74733
 20
2572.115664
 30
0.0
 11
549.212714
 21
2569.544943
 31
0.0
  0
LINE
  5
1A9
330
11A
100
AcDbEntity
  8
LC-006-005-----0
 62
     7
370
    18
100
AcDbLine
 10
546.796446
 20
2584.500478
 30
0.0
 11
551.745606
 21
2590.274986
 31
0.0
  0
LINE
  5
1AA
330
11A
100
AcDbEntity
  8
LC-006-005-----0
 62
     7
370
    18
100
AcDbLine
 10
546.796446
 20
2584.500478
 30
0.0
 11
552.067887
 21
2575.573179
 31
0.0
  0
LINE
  5
1AB
330
11A
100
AcDbEntity
  8
LC-006-005-----0
 62
     7
370
    18
100
AcDbLine
 10
547.529624
 20
2569.370217
 30
0.0
 11
552.067887
 21
2575.573179
 31
0.0
  0
LINE
  5
1AC
330
11A
100
AcDbEntity
  8
LC-006-005-----0
 62
     7
370
    18
100
AcDbLine
 10
548.831077
 20
2501.115904
 30
0.0
 11
554.30525
 21
2511.917739
 31
0.0
  0
LINE
  5
1AD
330
11A
100
AcDbEntity
  8
LC-006-005-----0
 62
     7
370
    18
100
AcDbLine
 10
549.212714
 20
2569.544943
 30
0.0
 11
553.427025
 21
2570.296513
 31
0.0
  0
LINE
  5
1AE
330
11A
100
AcDbEntity
  8
LC-006-005-----0
 62
     7
370
    18
100
AcDbLine
 10
549.33498
 20
2515.170642
 30
0.0
 11
560.915556
 21
2516.817784
 31
0.0
  0
LINE
  5
1AF
330
11A
100
AcDbEntity
  8
LC-006-005-----0
 62
     7
370
    18
100
AcDbLine
 10
552.295281
 20
2489.212212
 30
0.0
 11
560.151446
 21
2484.968014
 31
0.0
  0
LINE
  5
1B0
330
11A
100
AcDbEntity
  8
LC-006-005-----0
 62
     7
370
    18
100
AcDbLine
 10
553.427025
 20
2570.296513
 30
0.0
 11
559.328815
 21
2571.432646
 31
0.0
  0
LINE
  5
1B1
330
11A
100
AcDbEntity
  8
LC-006-005-----0
 62
     7
370
    18
100
AcDbLine
 10
559.328815
 20
2571.432646
 30
0.0
 11
562.179598
 21
2577.251045
 31
0.0
  0
LINE
  5
1B2
330
11A
100
AcDbEntity
  8
LC-006-005-----0
 62
     7
370
    18
100
AcDbLine
 10
559.498106
 20
2609.636276
 30
0.0
 11
562.593004
 21
2607.052388
 31
0.0
  0
LINE
  5
1B3
330
11A
100
AcDbEntity
  8
LC-006-005-----0
 62
     7
370
    18
100
AcDbLine
 10
560.445511
 20
2594.711465
 30
0.0
 11
566.185743
 21
2598.160202
 31
0.0
  0
LINE
  5
1B4
330
11A
100
AcDbEntity
  8
LC-006-005-----0
 62
     7
370
    18
100
AcDbLine
 10
560.915556
 20
2516.817784
 30
0.0
 11
564.203571
 21
2523.466755
 31
0.0
  0
LINE
  5
1B5
330
11A
100
AcDbEntity
  8
LC-006-005-----0
 62
     7
370
    18
100
AcDbLine
 10
564.219037
 20
2604.499224
 30
0.0
 11
566.185743
 21
2598.160202
 31
0.0
  0
LINE
  5
1B6
330
11A
100
AcDbEntity
  8
LC-006-005-----0
 62
     7
370
    18
100
AcDbLine
 10
497.94606
 20
2608.574966
 30
0.0
 11
498.247959
 21
2612.280484
 31
0.0
  0
LINE
  5
1B7
330
11A
100
AcDbEntity
  8
LC-006-005-----0
 62
     7
370
    18
100
AcDbLine
 10
387.307037
 20
2486.860316
 30
0.0
 11
399.945165
 21
2489.876418
 31
0.0
  0
LINE
  5
1B8
330
11A
100
AcDbEntity
  8
LC-006-005-----0
 62
     7
370
    18
100
AcDbLine
 10
392.164028
 20
2488.228232
 30
0.0
 11
399.945165
 21
2487.912778
 31
0.0
  0
LINE
  5
1B9
330
11A
100
AcDbEntity
  8
LC-006-005-----0
 62
     7
370
    18
100
AcDbLine
 10
395.331657
 20
2546.388808
 30
0.0
 11
399.945165
 21
2546.735076
 31
0.0
  0
LINE
  5
1BA
330
11A
100
AcDbEntity
  8
LC-006-005-----0
 62
     7
370
    18
100
AcDbLine
 10
397.408925
 20
2537.405288
 30
0.0
 11
399.945165
 21
2536.670564
 31
0.0
  0
LINE
  5
1BB
330
11A
100
AcDbEntity
  8
LC-006-005-----0
 62
     7
370
    18
100
AcDbLine
 10
450.457529
 20
2550.480852
 30
0.0
 11
450.90721
 21
2550.295221
 31
0.0
  0
LINE
  5
1BC
330
11A
100
AcDbEntity
  8
LC-006-005-----0
 62
     7
370
    18
100
AcDbLine
 10
558.334176
 20
2543.952684
 30
0.0
 11
567.008645
 21
2549.276111
 31
0.0
  0
LINE
  5
1BD
330
11A
100
AcDbEntity
  8
LC-006-005-----0
 62
     7
370
    18
100
AcDbLine
 10
560.151446
 20
2484.968014
 30
0.0
 11
567.008645
 21
2486.724919
 31
0.0
  0
LINE
  5
1BE
330
11A
100
AcDbEntity
  8
LC-006-005-----0
 62
     7
370
    18
100
AcDbLine
 10
562.593004
 20
2607.052388
 30
0.0
 11
567.008645
 21
2606.31157
 31
0.0
  0
LINE
  5
1BF
330
11A
100
AcDbEntity
  8
LC-006-005-----0
 62
     7
370
    18
100
AcDbLine
 10
564.203571
 20
2523.466755
 30
0.0
 11
567.008645
 21
2522.183471
 31
0.0
  0
LINE
  5
1C0
330
11A
100
AcDbEntity
  8
LC-006-005-----0
 62
     7
370
    18
100
AcDbLine
 10
564.219037
 20
2604.499224
 30
0.0
 11
567.008645
 21
2606.995772
 31
0.0
  0
LINE
  5
1C1
330
11A
100
AcDbEntity
  8
LC-006-005-----0
 62
     7
370
    18
100
AcDbLine
 10
565.284109
 20
2585.163431
 30
0.0
 11
567.008645
 21
2579.426052
 31
0.0
  0
LINE
  5
1C2
330
11A
100
AcDbEntity
  8
LC-006-005-----0
 62
     7
370
    18
100
AcDbLine
 10
341.874146
 20
2437.40137
 30
0.0
 11
344.954096
 21
2435.889076
 31
0.0
  0
LINE
  5
1C3
330
11A
100
AcDbEntity
  8
LC-006-005-----0
 62
     7
370
    18
100
AcDbLine
 10
344.954096
 20
2435.889076
 30
0.0
 11
354.982416
 21
2438.198126
 31
0.0
  0
LINE
  5
1C4
330
11A
100
AcDbEntity
  8
LC-006-005-----0
 62
     7
370
    18
100
AcDbLine
 10
351.471396
 20
2445.472222
 30
0.0
 11
354.321343
 21
2449.730422
 31
0.0
  0
LINE
  5
1C5
330
11A
100
AcDbEntity
  8
LC-006-005-----0
 62
     7
370
    18
100
AcDbLine
 10
351.471396
 20
2445.472222
 30
0.0
 11
354.182566
 21
2436.292031
 31
0.0
  0
LINE
  5
1C6
330
11A
100
AcDbEntity
  8
LC-006-005-----0
 62
     7
370
    18
100
AcDbLine
 10
351.997244
 20
2430.368296
 30
0.0
 11
354.182566
 21
2436.292031
 31
0.0
  0
LINE
  5
1C7
330
11A
100
AcDbEntity
  8
LC-006-005-----0
 62
     7
370
    18
100
AcDbLine
 10
353.385433
 20
2454.329296
 30
0.0
 11
354.321343
 21
2449.730422
 31
0.0
  0
LINE
  5
1C8
330
11A
100
AcDbEntity
  8
LC-006-005-----0
 62
     7
370
    18
100
AcDbLine
 10
354.982416
 20
2438.198126
 30
0.0
 11
362.94747
 21
2438.784585
 31
0.0
  0
LINE
  5
1C9
330
11A
100
AcDbEntity
  8
LC-006-005-----0
 62
     7
370
    18
100
AcDbLine
 10
362.94747
 20
2438.784585
 30
0.0
 11
373.801974
 21
2441.740705
 31
0.0
  0
LINE
  5
1CA
330
11A
100
AcDbEntity
  8
LC-006-005-----0
 62
     7
370
    18
100
AcDbLine
 10
373.801974
 20
2441.740705
 30
0.0
 11
383.384284
 21
2445.300004
 31
0.0
  0
LINE
  5
1CB
330
11A
100
AcDbEntity
  8
LC-006-005-----0
 62
     7
370
    18
100
AcDbLine
 10
383.472901
 20
2431.026651
 30
0.0
 11
384.801316
 21
2437.772181
 31
0.0
  0
LINE
  5
1CC
330
11A
100
AcDbEntity
  8
LC-006-005-----0
 62
     7
370
    18
100
AcDbLine
 10
383.472901
 20
2431.026651
 30
0.0
 11
385.541391
 21
2422.462806
 31
0.0
  0
LINE
  5
1CD
330
11A
100
AcDbEntity
  8
LC-006-005-----0
 62
     7
370
    18
100
AcDbLine
 10
402.922808
 20
2424.505798
 30
0.0
 11
410.218849
 21
2426.967629
 31
0.0
  0
LINE
  5
1CE
330
11A
100
AcDbEntity
  8
LC-006-005-----0
 62
     7
370
    18
100
AcDbLine
 10
410.218849
 20
2426.967629
 30
0.0
 11
416.076748
 21
2427.929873
 31
0.0
  0
LINE
  5
1CF
330
11A
100
AcDbEntity
  8
LC-006-005-----0
 62
     7
370
    18
100
AcDbLine
 10
410.352401
 20
2450.692457
 30
0.0
 11
411.912598
 21
2456.393188
 31
0.0
  0
LINE
  5
1D0
330
11A
100
AcDbEntity
  8
LC-006-005-----0
 62
     7
370
    18
100
AcDbLine
 10
410.352401
 20
2450.692457
 30
0.0
 11
413.788807
 21
2446.985603
 31
0.0
  0
LINE
  5
1D1
330
11A
100
AcDbEntity
  8
LC-006-005-----0
 62
     7
370
    18
100
AcDbLine
 10
413.788807
 20
2446.985603
 30
0.0
 11
413.794032
 21
2436.699166
 31
0.0
  0
LINE
  5
1D2
330
11A
100
AcDbEntity
  8
LC-006-005-----0
 62
     7
370
    18
100
AcDbLine
 10
413.794032
 20
2436.699166
 30
0.0
 11
418.043454
 21
2434.268894
 31
0.0
  0
LINE
  5
1D3
330
11A
100
AcDbEntity
  8
LC-006-005-----0
 62
     7
370
    18
100
AcDbLine
 10
416.076748
 20
2427.929873
 30
0.0
 11
419.534264
 21
2433.250429
 31
0.0
  0
LINE
  5
1D4
330
11A
100
AcDbEntity
  8
LC-006-005-----0
 62
     7
370
    18
100
AcDbLine
 10
419.534264
 20
2433.250429
 30
0.0
 11
428.544118
 21
2434.068671
 31
0.0
  0
LINE
  5
1D5
330
11A
100
AcDbEntity
  8
LC-006-005-----0
 62
     7
370
    18
100
AcDbLine
 10
428.544118
 20
2434.068671
 30
0.0
 11
434.515297
 21
2439.651733
 31
0.0
  0
LINE
  5
1D6
330
11A
100
AcDbEntity
  8
LC-006-005-----0
 62
     7
370
    18
100
AcDbLine
 10
434.515297
 20
2439.651733
 30
0.0
 11
443.324091
 21
2440.04591
 31
0.0
  0
LINE
  5
1D7
330
11A
100
AcDbEntity
  8
LC-006-005-----0
 62
     7
370
    18
100
AcDbLine
 10
440.265143
 20
2425.706722
 30
0.0
 11
440.548758
 21
2432.220469
 31
0.0
  0
LINE
  5
1D8
330
11A
100
AcDbEntity
  8
LC-006-005-----0
 62
     7
370
    18
100
AcDbLine
 10
440.265143
 20
2425.706722
 30
0.0
 11
443.045701
 21
2423.245726
 31
0.0
  0
LINE
  5
1D9
330
11A
100
AcDbEntity
  8
LC-006-005-----0
 62
     7
370
    18
100
AcDbLine
 10
442.934583
 20
2422.280484
 30
0.0
 11
443.045701
 21
2423.245726
 31
0.0
  0
LINE
  5
1DA
330
11A
100
AcDbEntity
  8
LC-006-005-----0
 62
     7
370
    18
100
AcDbLine
 10
443.324091
 20
2440.04591
 30
0.0
 11
448.460308
 21
2445.401579
 31
0.0
  0
LINE
  5
1DB
330
11A
100
AcDbEntity
  8
LC-006-005-----0
 62
     7
370
    18
100
AcDbLine
 10
458.487792
 20
2457.787229
 30
0.0
 11
460.298165
 21
2451.52721
 31
0.0
  0
LINE
  5
1DC
330
11A
100
AcDbEntity
  8
LC-006-005-----0
 62
     7
370
    18
100
AcDbLine
 10
460.298165
 20
2451.52721
 30
0.0
 11
465.369382
 21
2449.953845
 31
0.0
  0
LINE
  5
1DD
330
11A
100
AcDbEntity
  8
LC-006-005-----0
 62
     7
370
    18
100
AcDbLine
 10
464.674869
 20
2443.011645
 30
0.0
 11
465.369382
 21
2449.953845
 31
0.0
  0
LINE
  5
1DE
330
11A
100
AcDbEntity
  8
LC-006-005-----0
 62
     7
370
    18
100
AcDbLine
 10
464.674869
 20
2443.011645
 30
0.0
 11
467.669655
 21
2440.345201
 31
0.0
  0
LINE
  5
1DF
330
11A
100
AcDbEntity
  8
LC-006-005-----0
 62
     7
370
    18
100
AcDbLine
 10
467.669655
 20
2440.345201
 30
0.0
 11
468.251725
 21
2432.589984
 31
0.0
  0
LINE
  5
1E0
330
11A
100
AcDbEntity
  8
LC-006-005-----0
 62
     7
370
    18
100
AcDbLine
 10
468.251725
 20
2432.589984
 30
0.0
 11
476.182503
 21
2424.778545
 31
0.0
  0
LINE
  5
1E1
330
11A
100
AcDbEntity
  8
LC-006-005-----0
 62
     7
370
    18
100
AcDbLine
 10
476.736915
 20
2422.280484
 30
0.0
 11
482.09746
 21
2423.012899
 31
0.0
  0
LINE
  5
1E2
330
11A
100
AcDbEntity
  8
LC-006-005-----0
 62
     7
370
    18
100
AcDbLine
 10
482.09746
 20
2423.012899
 30
0.0
 11
484.540899
 21
2426.632808
 31
0.0
  0
LINE
  5
1E3
330
11A
100
AcDbEntity
  8
LC-006-005-----0
 62
     7
370
    18
100
AcDbLine
 10
488.259249
 20
2449.592899
 30
0.0
 11
492.005604
 21
2451.140766
 31
0.0
  0
LINE
  5
1E4
330
11A
100
AcDbEntity
  8
LC-006-005-----0
 62
     7
370
    18
100
AcDbLine
 10
492.005604
 20
2451.140766
 30
0.0
 11
500.005771
 21
2450.048523
 31
0.0
  0
LINE
  5
1E5
330
11A
100
AcDbEntity
  8
LC-006-005-----0
 62
     7
370
    18
100
AcDbLine
 10
497.94606
 20
2458.192692
 30
0.0
 11
501.251631
 21
2450.70437
 31
0.0
  0
LINE
  5
1E6
330
11A
100
AcDbEntity
  8
LC-006-005-----0
 62
     7
370
    18
100
AcDbLine
 10
497.94606
 20
2458.192692
 30
0.0
 11
498.291115
 21
2462.427903
 31
0.0
  0
LINE
  5
1E7
330
11A
100
AcDbEntity
  8
LC-006-005-----0
 62
     7
370
    18
100
AcDbLine
 10
500.005771
 20
2450.048523
 30
0.0
 11
506.895304
 21
2451.872063
 31
0.0
  0
LINE
  5
1E8
330
11A
100
AcDbEntity
  8
LC-006-005-----0
 62
     7
370
    18
100
AcDbLine
 10
501.251631
 20
2450.70437
 30
0.0
 11
507.590652
 21
2448.737664
 31
0.0
  0
LINE
  5
1E9
330
11A
100
AcDbEntity
  8
LC-006-005-----0
 62
     7
370
    18
100
AcDbLine
 10
506.895304
 20
2451.872063
 30
0.0
 11
515.087752
 21
2451.62356
 31
0.0
  0
LINE
  5
1EA
330
11A
100
AcDbEntity
  8
LC-006-005-----0
 62
     7
370
    18
100
AcDbLine
 10
507.590652
 20
2448.737664
 30
0.0
 11
508.828569
 21
2439.736588
 31
0.0
  0
LINE
  5
1EB
330
11A
100
AcDbEntity
  8
LC-006-005-----0
 62
     7
370
    18
100
AcDbLine
 10
508.828569
 20
2439.736588
 30
0.0
 11
515.648713
 21
2434.840932
 31
0.0
  0
LINE
  5
1EC
330
11A
100
AcDbEntity
  8
LC-006-005-----0
 62
     7
370
    18
100
AcDbLine
 10
515.087752
 20
2451.62356
 30
0.0
 11
516.071105
 21
2454.793071
 31
0.0
  0
LINE
  5
1ED
330
11A
100
AcDbEntity
  8
LC-006-005-----0
 62
     7
370
    18
100
AcDbLine
 10
515.648713
 20
2434.840932
 30
0.0
 11
515.924386
 21
2431.697755
 31
0.0
  0
LINE
  5
1EE
330
11A
100
AcDbEntity
  8
LC-006-005-----0
 62
     7
370
    18
100
AcDbLine
 10
516.071105
 20
2454.793071
 30
0.0
 11
520.705091
 21
2454.050279
 31
0.0
  0
LINE
  5
1EF
330
11A
100
AcDbEntity
  8
LC-006-005-----0
 62
     7
370
    18
100
AcDbLine
 10
520.705091
 20
2454.050279
 30
0.0
 11
526.978277
 21
2455.231138
 31
0.0
  0
LINE
  5
1F0
330
11A
100
AcDbEntity
  8
LC-006-005-----0
 62
     7
370
    18
100
AcDbLine
 10
522.44611
 20
2422.280484
 30
0.0
 11
522.980702
 21
2425.547462
 31
0.0
  0
LINE
  5
1F1
330
11A
100
AcDbEntity
  8
LC-006-005-----0
 62
     7
370
    18
100
AcDbLine
 10
522.980702
 20
2425.547462
 30
0.0
 11
530.705196
 21
2427.598396
 31
0.0
  0
LINE
  5
1F2
330
11A
100
AcDbEntity
  8
LC-006-005-----0
 62
     7
370
    18
100
AcDbLine
 10
526.216811
 20
2462.427903
 30
0.0
 11
527.511232
 21
2459.860735
 31
0.0
  0
LINE
  5
1F3
330
11A
100
AcDbEntity
  8
LC-006-005-----0
 62
     7
370
    18
100
AcDbLine
 10
526.978277
 20
2455.231138
 30
0.0
 11
535.555289
 21
2456.670115
 31
0.0
  0
LINE
  5
1F4
330
11A
100
AcDbEntity
  8
LC-006-005-----0
 62
     7
370
    18
100
AcDbLine
 10
527.511232
 20
2459.860735
 30
0.0
 11
533.929256
 21
2454.11695
 31
0.0
  0
LINE
  5
1F5
330
11A
100
AcDbEntity
  8
LC-006-005-----0
 62
     7
370
    18
100
AcDbLine
 10
530.705196
 20
2427.598396
 30
0.0
 11
532.864183
 21
2434.781157
 31
0.0
  0
LINE
  5
1F6
330
11A
100
AcDbEntity
  8
LC-006-005-----0
 62
     7
370
    18
100
AcDbLine
 10
531.96255
 20
2447.777928
 30
0.0
 11
533.929256
 21
2454.11695
 31
0.0
  0
LINE
  5
1F7
330
11A
100
AcDbEntity
  8
LC-006-005-----0
 62
     7
370
    18
100
AcDbLine
 10
531.96255
 20
2447.777928
 30
0.0
 11
537.702782
 21
2444.329191
 31
0.0
  0
LINE
  5
1F8
330
11A
100
AcDbEntity
  8
LC-006-005-----0
 62
     7
370
    18
100
AcDbLine
 10
535.555289
 20
2456.670115
 30
0.0
 11
538.650186
 21
2459.254003
 31
0.0
  0
LINE
  5
1F9
330
11A
100
AcDbEntity
  8
LC-006-005-----0
 62
     7
370
    18
100
AcDbLine
 10
546.281884
 20
2449.663751
 30
0.0
 11
554.635891
 21
2447.59965
 31
0.0
  0
LINE
  5
1FA
330
11A
100
AcDbEntity
  8
LC-006-005-----0
 62
     7
370
    18
100
AcDbLine
 10
546.796446
 20
2434.118204
 30
0.0
 11
551.745606
 21
2439.892712
 31
0.0
  0
LINE
  5
1FB
330
11A
100
AcDbEntity
  8
LC-006-005-----0
 62
     7
370
    18
100
AcDbLine
 10
546.796446
 20
2434.118204
 30
0.0
 11
552.067887
 21
2425.190905
 31
0.0
  0
LINE
  5
1FC
330
11A
100
AcDbEntity
  8
LC-006-005-----0
 62
     7
370
    18
100
AcDbLine
 10
549.938539
 20
2422.280484
 30
0.0
 11
552.067887
 21
2425.190905
 31
0.0
  0
LINE
  5
1FD
330
11A
100
AcDbEntity
  8
LC-006-005-----0
 62
     7
370
    18
100
AcDbLine
 10
559.93152
 20
2422.280484
 30
0.0
 11
562.179598
 21
2426.868771
 31
0.0
  0
LINE
  5
1FE
330
11A
100
AcDbEntity
  8
LC-006-005-----0
 62
     7
370
    18
100
AcDbLine
 10
559.498106
 20
2459.254003
 30
0.0
 11
562.593004
 21
2456.670115
 31
0.0
  0
LINE
  5
1FF
330
11A
100
AcDbEntity
  8
LC-006-005-----0
 62
     7
370
    18
100
AcDbLine
 10
560.445511
 20
2444.329191
 30
0.0
 11
566.185743
 21
2447.777928
 31
0.0
  0
LINE
  5
200
330
11A
100
AcDbEntity
  8
LC-006-005-----0
 62
     7
370
    18
100
AcDbLine
 10
564.219037
 20
2454.11695
 30
0.0
 11
566.185743
 21
2447.777928
 31
0.0
  0
LINE
  5
201
330
11A
100
AcDbEntity
  8
LC-006-005-----0
 62
     7
370
    18
100
AcDbLine
 10
351.997244
 20
2430.368296
 30
0.0
 11
354.77928
 21
2422.280484
 31
0.0
  0
LINE
  5
202
330
11A
100
AcDbEntity
  8
LC-006-005-----0
 62
     7
370
    18
100
AcDbLine
 10
385.541391
 20
2422.462806
 30
0.0
 11
385.545204
 21
2422.280484
 31
0.0
  0
LINE
  5
203
330
11A
100
AcDbEntity
  8
LC-006-005-----0
 62
     7
370
    18
100
AcDbLine
 10
418.043454
 20
2434.268894
 30
0.0
 11
419.909835
 21
2422.280484
 31
0.0
  0
LINE
  5
204
330
11A
100
AcDbEntity
  8
LC-006-005-----0
 62
     7
370
    18
100
AcDbLine
 10
476.182503
 20
2424.778545
 30
0.0
 11
476.381944
 21
2422.280484
 31
0.0
  0
LINE
  5
205
330
11A
100
AcDbEntity
  8
LC-006-005-----0
 62
     7
370
    18
100
AcDbLine
 10
562.593004
 20
2456.670115
 30
0.0
 11
567.008645
 21
2455.929297
 31
0.0
  0
LINE
  5
206
330
11A
100
AcDbEntity
  8
LC-006-005-----0
 62
     7
370
    18
100
AcDbLine
 10
564.219037
 20
2454.11695
 30
0.0
 11
567.008645
 21
2456.613499
 31
0.0
  0
LINE
  5
207
330
11A
100
AcDbEntity
  8
LC-006-005-----0
 62
     7
370
    18
100
AcDbLine
 10
565.284109
 20
2434.781157
 30
0.0
 11
567.008645
 21
2429.043779
 31
0.0
  0
ENDBLK
  5
11C
330
11A
100
AcDbEntity
  8
0
100
AcDbBlockEnd
  0
BLOCK
  5
271
330
270
100
AcDbEntity
  8
0
100
AcDbBlockBegin
  2
*X23
 70
     1
 71
     0
 10
0.0
 20
0.0
 30
0.0
  3
*X23
  1

  4
*X2
  0
LINE
  5
273
330
270
100
AcDbEntity
  8
LC-006-005-----0
 62
     7
370
    18
100
AcDbLine
 10
1848.60136
 20
2690.03
 30
0.0
 11
1848.998606
 21
2692.705102
 31
0.0
  0
LINE
  5
274
330
270
100
AcDbEntity
  8
LC-006-005-----0
 62
     7
370
    18
100
AcDbLine
 10
1848.998606
 20
2692.705102
 30
0.0
 11
1846.506738
 21
2697.702787
 31
0.0
  0
LINE
  5
275
330
270
100
AcDbEntity
  8
LC-006-005-----0
 62
     7
370
    18
100
AcDbLine
 10
1862.253309
 20
2710.594822
 30
0.0
 11
1858.501683
 21
2710.514843
 31
0.0
  0
LINE
  5
276
330
270
100
AcDbEntity
  8
LC-006-005-----0
 62
     7
370
    18
100
AcDbLine
 10
1846.506738
 20
2697.702787
 30
0.0
 11
1845.128481
 21
2702.778662
 31
0.0
  0
LINE
  5
277
330
270
100
AcDbEntity
  8
LC-006-005-----0
 62
     7
370
    18
100
AcDbLine
 10
1858.501683
 20
2710.514843
 30
0.0
 11
1853.736824
 21
2713.360695
 31
0.0
  0
LINE
  5
278
330
270
100
AcDbEntity
  8
LC-006-005-----0
 62
     7
370
    18
100
AcDbLine
 10
1835.055912
 20
2690.03
 30
0.0
 11
1832.625815
 21
2691.485925
 31
0.0
  0
LINE
  5
279
330
270
100
AcDbEntity
  8
LC-006-005-----0
 62
     7
370
    18
100
AcDbLine
 10
1848.357395
 20
2704.566658
 30
0.0
 11
1845.128481
 21
2702.778662
 31
0.0
  0
LINE
  5
27A
330
270
100
AcDbEntity
  8
LC-006-005-----0
 62
     7
370
    18
100
AcDbLine
 10
1848.357395
 20
2704.566658
 30
0.0
 11
1846.832016
 21
2706.15721
 31
0.0
  0
LINE
  5
27B
330
270
100
AcDbEntity
  8
LC-006-005-----0
 62
     7
370
    18
100
AcDbLine
 10
1832.625815
 20
2691.485925
 30
0.0
 11
1829.203818
 21
2691.859677
 31
0.0
  0
LINE
  5
27C
330
270
100
AcDbEntity
  8
LC-006-005-----0
 62
     7
370
    18
100
AcDbLine
 10
1846.832016
 20
2706.15721
 30
0.0
 11
1848.282245
 21
2711.619252
 31
0.0
  0
LINE
  5
27D
330
270
100
AcDbEntity
  8
LC-006-005-----0
 62
     7
370
    18
100
AcDbLine
 10
1853.736824
 20
2713.360695
 30
0.0
 11
1850.483082
 21
2710.385678
 31
0.0
  0
LINE
  5
27E
330
270
100
AcDbEntity
  8
LC-006-005-----0
 62
     7
370
    18
100
AcDbLine
 10
1850.483082
 20
2710.385678
 30
0.0
 11
1844.107793
 21
2714.304312
 31
0.0
  0
LINE
  5
27F
330
270
100
AcDbEntity
  8
LC-006-005-----0
 62
     7
370
    18
100
AcDbLine
 10
1827.849439
 20
2690.03
 30
0.0
 11
1826.886895
 21
2692.62765
 31
0.0
  0
LINE
  5
280
330
270
100
AcDbEntity
  8
LC-006-005-----0
 62
     7
370
    18
100
AcDbLine
 10
1829.203818
 20
2691.859677
 30
0.0
 11
1826.59945
 21
2692.17631
 31
0.0
  0
LINE
  5
281
330
270
100
AcDbEntity
  8
LC-006-005-----0
 62
     7
370
    18
100
AcDbLine
 10
1848.282245
 20
2711.619252
 30
0.0
 11
1844.653495
 21
2715.554659
 31
0.0
  0
LINE
  5
282
330
270
100
AcDbEntity
  8
LC-006-005-----0
 62
     7
370
    18
100
AcDbLine
 10
1826.59945
 20
2692.17631
 30
0.0
 11
1823.651774
 21
2694.7124
 31
0.0
  0
LINE
  5
283
330
270
100
AcDbEntity
  8
LC-006-005-----0
 62
     7
370
    18
100
AcDbLine
 10
1826.886895
 20
2692.62765
 30
0.0
 11
1829.041179
 21
2696.086889
 31
0.0
  0
LINE
  5
284
330
270
100
AcDbEntity
  8
LC-006-005-----0
 62
     7
370
    18
100
AcDbLine
 10
1829.041179
 20
2696.086889
 30
0.0
 11
1827.343851
 21
2699.168681
 31
0.0
  0
LINE
  5
285
330
270
100
AcDbEntity
  8
LC-006-005-----0
 62
     7
370
    18
100
AcDbLine
 10
1844.107793
 20
2714.304312
 30
0.0
 11
1839.815408
 21
2711.35102
 31
0.0
  0
LINE
  5
286
330
270
100
AcDbEntity
  8
LC-006-005-----0
 62
     7
370
    18
100
AcDbLine
 10
1844.653495
 20
2715.554659
 30
0.0
 11
1848.774522
 21
2720.960838
 31
0.0
  0
LINE
  5
287
330
270
100
AcDbEntity
  8
LC-006-005-----0
 62
     7
370
    18
100
AcDbLine
 10
1823.651774
 20
2694.7124
 30
0.0
 11
1820.293104
 21
2695.607026
 31
0.0
  0
LINE
  5
288
330
270
100
AcDbEntity
  8
LC-006-005-----0
 62
     7
370
    18
100
AcDbLine
 10
1839.815408
 20
2711.35102
 30
0.0
 11
1833.232774
 21
2712.453581
 31
0.0
  0
LINE
  5
289
330
270
100
AcDbEntity
  8
LC-006-005-----0
 62
     7
370
    18
100
AcDbLine
 10
1848.774522
 20
2720.960838
 30
0.0
 11
1844.760862
 21
2724.236305
 31
0.0
  0
LINE
  5
28A
330
270
100
AcDbEntity
  8
LC-006-005-----0
 62
     7
370
    18
100
AcDbLine
 10
1844.760862
 20
2724.236305
 30
0.0
 11
1844.012767
 21
2723.955067
 31
0.0
  0
LINE
  5
28B
330
270
100
AcDbEntity
  8
LC-006-005-----0
 62
     7
370
    18
100
AcDbLine
 10
1822.211088
 20
2702.420182
 30
0.0
 11
1821.882072
 21
2704.749847
 31
0.0
  0
LINE
  5
28C
330
270
100
AcDbEntity
  8
LC-006-005-----0
 62
     7
370
    18
100
AcDbLine
 10
1807.490474
 20
2690.03
 30
0.0
 11
1809.226849
 21
2692.406709
 31
0.0
  0
LINE
  5
28D
330
270
100
AcDbEntity
  8
LC-006-005-----0
 62
     7
370
    18
100
AcDbLine
 10
1801.918006
 20
2690.03
 30
0.0
 11
1801.400075
 21
2690.46169
 31
0.0
  0
LINE
  5
28E
330
270
100
AcDbEntity
  8
LC-006-005-----0
 62
     7
370
    18
100
AcDbLine
 10
1821.882072
 20
2704.749847
 30
0.0
 11
1823.796977
 21
2708.209786
 31
0.0
  0
LINE
  5
28F
330
270
100
AcDbEntity
  8
LC-006-005-----0
 62
     7
370
    18
100
AcDbLine
 10
1809.226849
 20
2692.406709
 30
0.0
 11
1806.500188
 21
2695.021643
 31
0.0
  0
LINE
  5
290
330
270
100
AcDbEntity
  8
LC-006-005-----0
 62
     7
370
    18
100
AcDbLine
 10
1823.796977
 20
2708.209786
 30
0.0
 11
1826.158872
 21
2711.093126
 31
0.0
  0
LINE
  5
291
330
270
100
AcDbEntity
  8
LC-006-005-----0
 62
     7
370
    18
100
AcDbLine
 10
1826.158872
 20
2711.093126
 30
0.0
 11
1825.067643
 21
2715.964324
 31
0.0
  0
LINE
  5
292
330
270
100
AcDbEntity
  8
LC-006-005-----0
 62
     7
370
    18
100
AcDbLine
 10
1809.923441
 20
2698.136318
 30
0.0
 11
1806.500188
 21
2695.021643
 31
0.0
  0
LINE
  5
293
330
270
100
AcDbEntity
  8
LC-006-005-----0
 62
     7
370
    18
100
AcDbLine
 10
1809.923441
 20
2698.136318
 30
0.0
 11
1811.726954
 21
2700.623344
 31
0.0
  0
LINE
  5
294
330
270
100
AcDbEntity
  8
LC-006-005-----0
 62
     7
370
    18
100
AcDbLine
 10
1811.726954
 20
2700.623344
 30
0.0
 11
1809.031327
 21
2701.754502
 31
0.0
  0
LINE
  5
295
330
270
100
AcDbEntity
  8
LC-006-005-----0
 62
     7
370
    18
100
AcDbLine
 10
1801.400075
 20
2690.46169
 30
0.0
 11
1797.315034
 21
2690.59891
 31
0.0
  0
LINE
  5
296
330
270
100
AcDbEntity
  8
LC-006-005-----0
 62
     7
370
    18
100
AcDbLine
 10
1825.067643
 20
2715.964324
 30
0.0
 11
1825.570487
 21
2722.262616
 31
0.0
  0
LINE
  5
297
330
270
100
AcDbEntity
  8
LC-006-005-----0
 62
     7
370
    18
100
AcDbLine
 10
1812.684906
 20
2704.502888
 30
0.0
 11
1809.383355
 21
2706.215142
 31
0.0
  0
LINE
  5
298
330
270
100
AcDbEntity
  8
LC-006-005-----0
 62
     7
370
    18
100
AcDbLine
 10
1797.315034
 20
2690.59891
 30
0.0
 11
1794.061292
 21
2693.573927
 31
0.0
  0
LINE
  5
299
330
270
100
AcDbEntity
  8
LC-006-005-----0
 62
     7
370
    18
100
AcDbLine
 10
1825.570487
 20
2722.262616
 30
0.0
 11
1824.991237
 21
2726.505345
 31
0.0
  0
LINE
  5
29A
330
270
100
AcDbEntity
  8
LC-006-005-----0
 62
     7
370
    18
100
AcDbLine
 10
1809.383355
 20
2706.215142
 30
0.0
 11
1806.163752
 21
2707.558005
 31
0.0
  0
LINE
  5
29B
330
270
100
AcDbEntity
  8
LC-006-005-----0
 62
     7
370
    18
100
AcDbLine
 10
1800.212462
 20
2697.562094
 30
0.0
 11
1797.809232
 21
2695.35941
 31
0.0
  0
LINE
  5
29C
330
270
100
AcDbEntity
  8
LC-006-005-----0
 62
     7
370
    18
100
AcDbLine
 10
1800.212462
 20
2697.562094
 30
0.0
 11
1800.09948
 21
2699.415263
 31
0.0
  0
LINE
  5
29D
330
270
100
AcDbEntity
  8
LC-006-005-----0
 62
     7
370
    18
100
AcDbLine
 10
1803.749954
 20
2702.312026
 30
0.0
 11
1800.09948
 21
2699.415263
 31
0.0
  0
LINE
  5
29E
330
270
100
AcDbEntity
  8
LC-006-005-----0
 62
     7
370
    18
100
AcDbLine
 10
1803.749954
 20
2702.312026
 30
0.0
 11
1803.814537
 21
2706.321327
 31
0.0
  0
LINE
  5
29F
330
270
100
AcDbEntity
  8
LC-006-005-----0
 62
     7
370
    18
100
AcDbLine
 10
1794.061292
 20
2693.573927
 30
0.0
 11
1790.35185
 21
2693.496339
 31
0.0
  0
LINE
  5
2A0
330
270
100
AcDbEntity
  8
LC-006-005-----0
 62
     7
370
    18
100
AcDbLine
 10
1806.163752
 20
2707.558005
 30
0.0
 11
1803.060235
 21
2706.89932
 31
0.0
  0
LINE
  5
2A1
330
270
100
AcDbEntity
  8
LC-006-005-----0
 62
     7
370
    18
100
AcDbLine
 10
1803.814537
 20
2706.321327
 30
0.0
 11
1805.662755
 21
2710.219492
 31
0.0
  0
LINE
  5
2A2
330
270
100
AcDbEntity
  8
LC-006-005-----0
 62
     7
370
    18
100
AcDbLine
 10
1803.060235
 20
2706.89932
 30
0.0
 11
1799.279412
 21
2710.234419
 31
0.0
  0
LINE
  5
2A3
330
270
100
AcDbEntity
  8
LC-006-005-----0
 62
     7
370
    18
100
AcDbLine
 10
1805.662755
 20
2710.219492
 30
0.0
 11
1804.255975
 21
2713.604247
 31
0.0
  0
LINE
  5
2A4
330
270
100
AcDbEntity
  8
LC-006-005-----0
 62
     7
370
    18
100
AcDbLine
 10
1804.255975
 20
2713.604247
 30
0.0
 11
1805.510683
 21
2717.489998
 31
0.0
  0
LINE
  5
2A5
330
270
100
AcDbEntity
  8
LC-006-005-----0
 62
     7
370
    18
100
AcDbLine
 10
1782.427611
 20
2692.662601
 30
0.0
 11
1784.000798
 21
2695.515916
 31
0.0
  0
LINE
  5
2A6
330
270
100
AcDbEntity
  8
LC-006-005-----0
 62
     7
370
    18
100
AcDbLine
 10
1799.279412
 20
2710.234419
 30
0.0
 11
1795.973502
 21
2708.606624
 31
0.0
  0
LINE
  5
2A7
330
270
100
AcDbEntity
  8
LC-006-005-----0
 62
     7
370
    18
100
AcDbLine
 10
1784.000798
 20
2695.515916
 30
0.0
 11
1782.764121
 21
2697.86513
 31
0.0
  0
LINE
  5
2A8
330
270
100
AcDbEntity
  8
LC-006-005-----0
 62
     7
370
    18
100
AcDbLine
 10
1805.510683
 20
2717.489998
 30
0.0
 11
1804.624777
 21
2720.811426
 31
0.0
  0
LINE
  5
2A9
330
270
100
AcDbEntity
  8
LC-006-005-----0
 62
     7
370
    18
100
AcDbLine
 10
1795.973502
 20
2708.606624
 30
0.0
 11
1793.979418
 21
2711.682209
 31
0.0
  0
LINE
  5
2AA
330
270
100
AcDbEntity
  8
LC-006-005-----0
 62
     7
370
    18
100
AcDbLine
 10
1785.464106
 20
2700.074021
 30
0.0
 11
1782.764121
 21
2697.86513
 31
0.0
  0
LINE
  5
2AB
330
270
100
AcDbEntity
  8
LC-006-005-----0
 62
     7
370
    18
100
AcDbLine
 10
1785.464106
 20
2700.074021
 30
0.0
 11
1785.34802
 21
2702.075568
 31
0.0
  0
LINE
  5
2AC
330
270
100
AcDbEntity
  8
LC-006-005-----0
 62
     7
370
    18
100
AcDbLine
 10
1785.34802
 20
2702.075568
 30
0.0
 11
1787.884111
 21
2705.023244
 31
0.0
  0
LINE
  5
2AD
330
270
100
AcDbEntity
  8
LC-006-005-----0
 62
     7
370
    18
100
AcDbLine
 10
1787.884111
 20
2705.023244
 30
0.0
 11
1787.841918
 21
2710.588958
 31
0.0
  0
LINE
  5
2AE
330
270
100
AcDbEntity
  8
LC-006-005-----0
 62
     7
370
    18
100
AcDbLine
 10
1793.979418
 20
2711.682209
 30
0.0
 11
1790.749248
 21
2709.981778
 31
0.0
  0
LINE
  5
2AF
330
270
100
AcDbEntity
  8
LC-006-005-----0
 62
     7
370
    18
100
AcDbLine
 10
1790.749248
 20
2709.981778
 30
0.0
 11
1786.374915
 21
2713.304462
 31
0.0
  0
LINE
  5
2B0
330
270
100
AcDbEntity
  8
LC-006-005-----0
 62
     7
370
    18
100
AcDbLine
 10
1787.841918
 20
2710.588958
 30
0.0
 11
1790.160097
 21
2713.309413
 31
0.0
  0
LINE
  5
2B1
330
270
100
AcDbEntity
  8
LC-006-005-----0
 62
     7
370
    18
100
AcDbLine
 10
1790.160097
 20
2713.309413
 30
0.0
 11
1790.012976
 21
2716.794736
 31
0.0
  0
LINE
  5
2B2
330
270
100
AcDbEntity
  8
LC-006-005-----0
 62
     7
370
    18
100
AcDbLine
 10
1786.374915
 20
2713.304462
 30
0.0
 11
1784.231197
 21
2712.888517
 31
0.0
  0
LINE
  5
2B3
330
270
100
AcDbEntity
  8
LC-006-005-----0
 62
     7
370
    18
100
AcDbLine
 10
1782.153309
 20
2720.149564
 30
0.0
 11
1782.851758
 21
2722.063104
 31
0.0
  0
LINE
  5
2B4
330
270
100
AcDbEntity
  8
LC-006-005-----0
 62
     7
370
    18
100
AcDbLine
 10
1782.851758
 20
2722.063104
 30
0.0
 11
1784.352308
 21
2724.840678
 31
0.0
  0
LINE
  5
2B5
330
270
100
AcDbEntity
  8
LC-006-005-----0
 62
     7
370
    18
100
AcDbLine
 10
1784.352308
 20
2724.840678
 30
0.0
 11
1782.291795
 21
2727.543767
 31
0.0
  0
LINE
  5
2B6
330
270
100
AcDbEntity
  8
LC-006-005-----0
 62
     7
370
    18
100
AcDbLine
 10
1824.991237
 20
2726.505345
 30
0.0
 11
1825.055596
 21
2728.03
 31
0.0
  0
LINE
  5
2B7
330
270
100
AcDbEntity
  8
LC-006-005-----0
 62
     7
370
    18
100
AcDbLine
 10
1791.869913
 20
2727.373
 30
0.0
 11
1791.184842
 21
2728.03
 31
0.0
  0
LINE
  5
2B8
330
270
100
AcDbEntity
  8
LC-006-005-----0
 62
     7
370
    18
100
AcDbLine
 10
1782.531431
 20
2726.732345
 30
0.0
 11
1783.710286
 21
2728.03
 31
0.0
  0
LINE
  5
2B9
330
270
100
AcDbEntity
  8
LC-006-005-----0
 62
     7
370
    18
100
AcDbLine
 10
1782.291795
 20
2727.543767
 30
0.0
 11
1782.417036
 21
2728.03
 31
0.0
  0
LINE
  5
2BA
330
270
100
AcDbEntity
  8
LC-006-005-----0
 62
     7
370
    18
100
AcDbLine
 10
1782.531431
 20
2726.732345
 30
0.0
 11
1782.153309
 21
2727.136355
 31
0.0
  0
ENDBLK
  5
272
330
270
100
AcDbEntity
  8
0
100
AcDbBlockEnd
  0
BLOCK
  5
2BD
330
2BC
100
AcDbEntity
  8
0
100
AcDbBlockBegin
  2
*X34
 70
     1
 71
     0
 10
0.0
 20
0.0
 30
0.0
  3
*X34
  1

  4
*X3
  0
LINE
  5
2BF
330
2BC
100
AcDbEntity
  8
LC-006-005-----0
 62
     7
370
    18
100
AcDbLine
 10
986.50136
 20
2690.03
 30
0.0
 11
986.898606
 21
2692.705102
 31
0.0
  0
LINE
  5
2C0
330
2BC
100
AcDbEntity
  8
LC-006-005-----0
 62
     7
370
    18
100
AcDbLine
 10
986.898606
 20
2692.705102
 30
0.0
 11
984.406738
 21
2697.702787
 31
0.0
  0
LINE
  5
2C1
330
2BC
100
AcDbEntity
  8
LC-006-005-----0
 62
     7
370
    18
100
AcDbLine
 10
1000.153309
 20
2710.594822
 30
0.0
 11
996.401683
 21
2710.514843
 31
0.0
  0
LINE
  5
2C2
330
2BC
100
AcDbEntity
  8
LC-006-005-----0
 62
     7
370
    18
100
AcDbLine
 10
984.406738
 20
2697.702787
 30
0.0
 11
983.028481
 21
2702.778662
 31
0.0
  0
LINE
  5
2C3
330
2BC
100
AcDbEntity
  8
LC-006-005-----0
 62
     7
370
    18
100
AcDbLine
 10
996.401683
 20
2710.514843
 30
0.0
 11
991.636824
 21
2713.360695
 31
0.0
  0
LINE
  5
2C4
330
2BC
100
AcDbEntity
  8
LC-006-005-----0
 62
     7
370
    18
100
AcDbLine
 10
972.955912
 20
2690.03
 30
0.0
 11
970.525815
 21
2691.485925
 31
0.0
  0
LINE
  5
2C5
330
2BC
100
AcDbEntity
  8
LC-006-005-----0
 62
     7
370
    18
100
AcDbLine
 10
986.257395
 20
2704.566658
 30
0.0
 11
983.028481
 21
2702.778662
 31
0.0
  0
LINE
  5
2C6
330
2BC
100
AcDbEntity
  8
LC-006-005-----0
 62
     7
370
    18
100
AcDbLine
 10
986.257395
 20
2704.566658
 30
0.0
 11
984.732016
 21
2706.15721
 31
0.0
  0
LINE
  5
2C7
330
2BC
100
AcDbEntity
  8
LC-006-005-----0
 62
     7
370
    18
100
AcDbLine
 10
970.525815
 20
2691.485925
 30
0.0
 11
967.103818
 21
2691.859677
 31
0.0
  0
LINE
  5
2C8
330
2BC
100
AcDbEntity
  8
LC-006-005-----0
 62
     7
370
    18
100
AcDbLine
 10
984.732016
 20
2706.15721
 30
0.0
 11
986.182245
 21
2711.619252
 31
0.0
  0
LINE
  5
2C9
330
2BC
100
AcDbEntity
  8
LC-006-005-----0
 62
     7
370
    18
100
AcDbLine
 10
991.636824
 20
2713.360695
 30
0.0
 11
988.383082
 21
2710.385678
 31
0.0
  0
LINE
  5
2CA
330
2BC
100
AcDbEntity
  8
LC-006-005-----0
 62
     7
370
    18
100
AcDbLine
 10
988.383082
 20
2710.385678
 30
0.0
 11
982.007793
 21
2714.304312
 31
0.0
  0
LINE
  5
2CB
330
2BC
100
AcDbEntity
  8
LC-006-005-----0
 62
     7
370
    18
100
AcDbLine
 10
965.749439
 20
2690.03
 30
0.0
 11
964.786895
 21
2692.62765
 31
0.0
  0
LINE
  5
2CC
330
2BC
100
AcDbEntity
  8
LC-006-005-----0
 62
     7
370
    18
100
AcDbLine
 10
967.103818
 20
2691.859677
 30
0.0
 11
964.49945
 21
2692.17631
 31
0.0
  0
LINE
  5
2CD
330
2BC
100
AcDbEntity
  8
LC-006-005-----0
 62
     7
370
    18
100
AcDbLine
 10
986.182245
 20
2711.619252
 30
0.0
 11
982.553495
 21
2715.554659
 31
0.0
  0
LINE
  5
2CE
330
2BC
100
AcDbEntity
  8
LC-006-005-----0
 62
     7
370
    18
100
AcDbLine
 10
964.49945
 20
2692.17631
 30
0.0
 11
961.551774
 21
2694.7124
 31
0.0
  0
LINE
  5
2CF
330
2BC
100
AcDbEntity
  8
LC-006-005-----0
 62
     7
370
    18
100
AcDbLine
 10
964.786895
 20
2692.62765
 30
0.0
 11
966.941179
 21
2696.086889
 31
0.0
  0
LINE
  5
2D0
330
2BC
100
AcDbEntity
  8
LC-006-005-----0
 62
     7
370
    18
100
AcDbLine
 10
966.941179
 20
2696.086889
 30
0.0
 11
965.243851
 21
2699.168681
 31
0.0
  0
LINE
  5
2D1
330
2BC
100
AcDbEntity
  8
LC-006-005-----0
 62
     7
370
    18
100
AcDbLine
 10
982.007793
 20
2714.304312
 30
0.0
 11
977.715408
 21
2711.35102
 31
0.0
  0
LINE
  5
2D2
330
2BC
100
AcDbEntity
  8
LC-006-005-----0
 62
     7
370
    18
100
AcDbLine
 10
982.553495
 20
2715.554659
 30
0.0
 11
986.674522
 21
2720.960838
 31
0.0
  0
LINE
  5
2D3
330
2BC
100
AcDbEntity
  8
LC-006-005-----0
 62
     7
370
    18
100
AcDbLine
 10
961.551774
 20
2694.7124
 30
0.0
 11
958.193104
 21
2695.607026
 31
0.0
  0
LINE
  5
2D4
330
2BC
100
AcDbEntity
  8
LC-006-005-----0
 62
     7
370
    18
100
AcDbLine
 10
977.715408
 20
2711.35102
 30
0.0
 11
971.132774
 21
2712.453581
 31
0.0
  0
LINE
  5
2D5
330
2BC
100
AcDbEntity
  8
LC-006-005-----0
 62
     7
370
    18
100
AcDbLine
 10
986.674522
 20
2720.960838
 30
0.0
 11
982.660862
 21
2724.236305
 31
0.0
  0
LINE
  5
2D6
330
2BC
100
AcDbEntity
  8
LC-006-005-----0
 62
     7
370
    18
100
AcDbLine
 10
982.660862
 20
2724.236305
 30
0.0
 11
981.912767
 21
2723.955067
 31
0.0
  0
LINE
  5
2D7
330
2BC
100
AcDbEntity
  8
LC-006-005-----0
 62
     7
370
    18
100
AcDbLine
 10
960.111088
 20
2702.420182
 30
0.0
 11
959.782072
 21
2704.749847
 31
0.0
  0
LINE
  5
2D8
330
2BC
100
AcDbEntity
  8
LC-006-005-----0
 62
     7
370
    18
100
AcDbLine
 10
945.390474
 20
2690.03
 30
0.0
 11
947.126849
 21
2692.406709
 31
0.0
  0
LINE
  5
2D9
330
2BC
100
AcDbEntity
  8
LC-006-005-----0
 62
     7
370
    18
100
AcDbLine
 10
939.818006
 20
2690.03
 30
0.0
 11
939.300075
 21
2690.46169
 31
0.0
  0
LINE
  5
2DA
330
2BC
100
AcDbEntity
  8
LC-006-005-----0
 62
     7
370
    18
100
AcDbLine
 10
959.782072
 20
2704.749847
 30
0.0
 11
961.696977
 21
2708.209786
 31
0.0
  0
LINE
  5
2DB
330
2BC
100
AcDbEntity
  8
LC-006-005-----0
 62
     7
370
    18
100
AcDbLine
 10
947.126849
 20
2692.406709
 30
0.0
 11
944.400188
 21
2695.021643
 31
0.0
  0
LINE
  5
2DC
330
2BC
100
AcDbEntity
  8
LC-006-005-----0
 62
     7
370
    18
100
AcDbLine
 10
961.696977
 20
2708.209786
 30
0.0
 11
964.058872
 21
2711.093126
 31
0.0
  0
LINE
  5
2DD
330
2BC
100
AcDbEntity
  8
LC-006-005-----0
 62
     7
370
    18
100
AcDbLine
 10
964.058872
 20
2711.093126
 30
0.0
 11
962.967643
 21
2715.964324
 31
0.0
  0
LINE
  5
2DE
330
2BC
100
AcDbEntity
  8
LC-006-005-----0
 62
     7
370
    18
100
AcDbLine
 10
947.823441
 20
2698.136318
 30
0.0
 11
944.400188
 21
2695.021643
 31
0.0
  0
LINE
  5
2DF
330
2BC
100
AcDbEntity
  8
LC-006-005-----0
 62
     7
370
    18
100
AcDbLine
 10
947.823441
 20
2698.136318
 30
0.0
 11
949.626954
 21
2700.623344
 31
0.0
  0
LINE
  5
2E0
330
2BC
100
AcDbEntity
  8
LC-006-005-----0
 62
     7
370
    18
100
AcDbLine
 10
949.626954
 20
2700.623344
 30
0.0
 11
946.931327
 21
2701.754502
 31
0.0
  0
LINE
  5
2E1
330
2BC
100
AcDbEntity
  8
LC-006-005-----0
 62
     7
370
    18
100
AcDbLine
 10
939.300075
 20
2690.46169
 30
0.0
 11
935.215034
 21
2690.59891
 31
0.0
  0
LINE
  5
2E2
330
2BC
100
AcDbEntity
  8
LC-006-005-----0
 62
     7
370
    18
100
AcDbLine
 10
962.967643
 20
2715.964324
 30
0.0
 11
963.470487
 21
2722.262616
 31
0.0
  0
LINE
  5
2E3
330
2BC
100
AcDbEntity
  8
LC-006-005-----0
 62
     7
370
    18
100
AcDbLine
 10
950.584906
 20
2704.502888
 30
0.0
 11
947.283355
 21
2706.215142
 31
0.0
  0
LINE
  5
2E4
330
2BC
100
AcDbEntity
  8
LC-006-005-----0
 62
     7
370
    18
100
AcDbLine
 10
935.215034
 20
2690.59891
 30
0.0
 11
931.961292
 21
2693.573927
 31
0.0
  0
LINE
  5
2E5
330
2BC
100
AcDbEntity
  8
LC-006-005-----0
 62
     7
370
    18
100
AcDbLine
 10
963.470487
 20
2722.262616
 30
0.0
 11
962.891237
 21
2726.505345
 31
0.0
  0
LINE
  5
2E6
330
2BC
100
AcDbEntity
  8
LC-006-005-----0
 62
     7
370
    18
100
AcDbLine
 10
947.283355
 20
2706.215142
 30
0.0
 11
944.063752
 21
2707.558005
 31
0.0
  0
LINE
  5
2E7
330
2BC
100
AcDbEntity
  8
LC-006-005-----0
 62
     7
370
    18
100
AcDbLine
 10
938.112462
 20
2697.562094
 30
0.0
 11
935.709232
 21
2695.35941
 31
0.0
  0
LINE
  5
2E8
330
2BC
100
AcDbEntity
  8
LC-006-005-----0
 62
     7
370
    18
100
AcDbLine
 10
938.112462
 20
2697.562094
 30
0.0
 11
937.99948
 21
2699.415263
 31
0.0
  0
LINE
  5
2E9
330
2BC
100
AcDbEntity
  8
LC-006-005-----0
 62
     7
370
    18
100
AcDbLine
 10
941.649954
 20
2702.312026
 30
0.0
 11
937.99948
 21
2699.415263
 31
0.0
  0
LINE
  5
2EA
330
2BC
100
AcDbEntity
  8
LC-006-005-----0
 62
     7
370
    18
100
AcDbLine
 10
941.649954
 20
2702.312026
 30
0.0
 11
941.714537
 21
2706.321327
 31
0.0
  0
LINE
  5
2EB
330
2BC
100
AcDbEntity
  8
LC-006-005-----0
 62
     7
370
    18
100
AcDbLine
 10
931.961292
 20
2693.573927
 30
0.0
 11
928.25185
 21
2693.496339
 31
0.0
  0
LINE
  5
2EC
330
2BC
100
AcDbEntity
  8
LC-006-005-----0
 62
     7
370
    18
100
AcDbLine
 10
944.063752
 20
2707.558005
 30
0.0
 11
940.960235
 21
2706.89932
 31
0.0
  0
LINE
  5
2ED
330
2BC
100
AcDbEntity
  8
LC-006-005-----0
 62
     7
370
    18
100
AcDbLine
 10
941.714537
 20
2706.321327
 30
0.0
 11
943.562755
 21
2710.219492
 31
0.0
  0
LINE
  5
2EE
330
2BC
100
AcDbEntity
  8
LC-006-005-----0
 62
     7
370
    18
100
AcDbLine
 10
940.960235
 20
2706.89932
 30
0.0
 11
937.179412
 21
2710.234419
 31
0.0
  0
LINE
  5
2EF
330
2BC
100
AcDbEntity
  8
LC-006-005-----0
 62
     7
370
    18
100
AcDbLine
 10
943.562755
 20
2710.219492
 30
0.0
 11
942.155975
 21
2713.604247
 31
0.0
  0
LINE
  5
2F0
330
2BC
100
AcDbEntity
  8
LC-006-005-----0
 62
     7
370
    18
100
AcDbLine
 10
942.155975
 20
2713.604247
 30
0.0
 11
943.410683
 21
2717.489998
 31
0.0
  0
LINE
  5
2F1
330
2BC
100
AcDbEntity
  8
LC-006-005-----0
 62
     7
370
    18
100
AcDbLine
 10
920.327611
 20
2692.662601
 30
0.0
 11
921.900798
 21
2695.515916
 31
0.0
  0
LINE
  5
2F2
330
2BC
100
AcDbEntity
  8
LC-006-005-----0
 62
     7
370
    18
100
AcDbLine
 10
937.179412
 20
2710.234419
 30
0.0
 11
933.873502
 21
2708.606624
 31
0.0
  0
LINE
  5
2F3
330
2BC
100
AcDbEntity
  8
LC-006-005-----0
 62
     7
370
    18
100
AcDbLine
 10
921.900798
 20
2695.515916
 30
0.0
 11
920.664121
 21
2697.86513
 31
0.0
  0
LINE
  5
2F4
330
2BC
100
AcDbEntity
  8
LC-006-005-----0
 62
     7
370
    18
100
AcDbLine
 10
943.410683
 20
2717.489998
 30
0.0
 11
942.524777
 21
2720.811426
 31
0.0
  0
LINE
  5
2F5
330
2BC
100
AcDbEntity
  8
LC-006-005-----0
 62
     7
370
    18
100
AcDbLine
 10
933.873502
 20
2708.606624
 30
0.0
 11
931.879418
 21
2711.682209
 31
0.0
  0
LINE
  5
2F6
330
2BC
100
AcDbEntity
  8
LC-006-005-----0
 62
     7
370
    18
100
AcDbLine
 10
923.364106
 20
2700.074021
 30
0.0
 11
920.664121
 21
2697.86513
 31
0.0
  0
LINE
  5
2F7
330
2BC
100
AcDbEntity
  8
LC-006-005-----0
 62
     7
370
    18
100
AcDbLine
 10
923.364106
 20
2700.074021
 30
0.0
 11
923.24802
 21
2702.075568
 31
0.0
  0
LINE
  5
2F8
330
2BC
100
AcDbEntity
  8
LC-006-005-----0
 62
     7
370
    18
100
AcDbLine
 10
923.24802
 20
2702.075568
 30
0.0
 11
925.784111
 21
2705.023244
 31
0.0
  0
LINE
  5
2F9
330
2BC
100
AcDbEntity
  8
LC-006-005-----0
 62
     7
370
    18
100
AcDbLine
 10
925.784111
 20
2705.023244
 30
0.0
 11
925.741918
 21
2710.588958
 31
0.0
  0
LINE
  5
2FA
330
2BC
100
AcDbEntity
  8
LC-006-005-----0
 62
     7
370
    18
100
AcDbLine
 10
931.879418
 20
2711.682209
 30
0.0
 11
928.649248
 21
2709.981778
 31
0.0
  0
LINE
  5
2FB
330
2BC
100
AcDbEntity
  8
LC-006-005-----0
 62
     7
370
    18
100
AcDbLine
 10
928.649248
 20
2709.981778
 30
0.0
 11
924.274915
 21
2713.304462
 31
0.0
  0
LINE
  5
2FC
330
2BC
100
AcDbEntity
  8
LC-006-005-----0
 62
     7
370
    18
100
AcDbLine
 10
925.741918
 20
2710.588958
 30
0.0
 11
928.060097
 21
2713.309413
 31
0.0
  0
LINE
  5
2FD
330
2BC
100
AcDbEntity
  8
LC-006-005-----0
 62
     7
370
    18
100
AcDbLine
 10
928.060097
 20
2713.309413
 30
0.0
 11
927.912976
 21
2716.794736
 31
0.0
  0
LINE
  5
2FE
330
2BC
100
AcDbEntity
  8
LC-006-005-----0
 62
     7
370
    18
100
AcDbLine
 10
924.274915
 20
2713.304462
 30
0.0
 11
922.131197
 21
2712.888517
 31
0.0
  0
LINE
  5
2FF
330
2BC
100
AcDbEntity
  8
LC-006-005-----0
 62
     7
370
    18
100
AcDbLine
 10
920.053309
 20
2720.149564
 30
0.0
 11
920.751758
 21
2722.063104
 31
0.0
  0
LINE
  5
300
330
2BC
100
AcDbEntity
  8
LC-006-005-----0
 62
     7
370
    18
100
AcDbLine
 10
920.751758
 20
2722.063104
 30
0.0
 11
922.252308
 21
2724.840678
 31
0.0
  0
LINE
  5
301
330
2BC
100
AcDbEntity
  8
LC-006-005-----0
 62
     7
370
    18
100
AcDbLine
 10
922.252308
 20
2724.840678
 30
0.0
 11
920.191795
 21
2727.543767
 31
0.0
  0
LINE
  5
302
330
2BC
100
AcDbEntity
  8
LC-006-005-----0
 62
     7
370
    18
100
AcDbLine
 10
962.891237
 20
2726.505345
 30
0.0
 11
962.955596
 21
2728.03
 31
0.0
  0
LINE
  5
303
330
2BC
100
AcDbEntity
  8
LC-006-005-----0
 62
     7
370
    18
100
AcDbLine
 10
929.769913
 20
2727.373
 30
0.0
 11
929.084842
 21
2728.03
 31
0.0
  0
LINE
  5
304
330
2BC
100
AcDbEntity
  8
LC-006-005-----0
 62
     7
370
    18
100
AcDbLine
 10
920.431431
 20
2726.732345
 30
0.0
 11
921.610286
 21
2728.03
 31
0.0
  0
LINE
  5
305
330
2BC
100
AcDbEntity
  8
LC-006-005-----0
 62
     7
370
    18
100
AcDbLine
 10
920.191795
 20
2727.543767
 30
0.0
 11
920.317036
 21
2728.03
 31
0.0
  0
LINE
  5
306
330
2BC
100
AcDbEntity
  8
LC-006-005-----0
 62
     7
370
    18
100
AcDbLine
 10
920.431431
 20
2726.732345
 30
0.0
 11
920.053309
 21
2727.136355
 31
0.0
  0
ENDBLK
  5
2BE
330
2BC
100
AcDbEntity
  8
0
100
AcDbBlockEnd
  0
BLOCK
  5
31A
330
319
100
AcDbEntity
  8
0
100
AcDbBlockBegin
  2
POLY1
 70
     0
 71
     0
 10
0.0
 20
0.0
 30
0.0
  3
POLY1
  1

  4
POLY1
  0
LINE
  5
31C
330
319
100
AcDbEntity
  8
LC-002-002-----0
 62
     7
370
    25
100
AcDbLine
 10
791.008729
 20
1862.942808
 30
0.0
 11
791.008729
 21
1862.942808
 31
0.0
  0
LINE
  5
31D
330
319
100
AcDbEntity
  8
LC-002-002-----0
 62
     7
370
    25
100
AcDbLine
 10
791.008729
 20
1862.942808
 30
0.0
 11
788.655466
 21
1862.623013
 31
0.0
  0
LINE
  5
31E
330
319
100
AcDbEntity
  8
LC-002-002-----0
 62
     7
370
    25
100
AcDbLine
 10
788.655466
 20
1862.623013
 30
0.0
 11
788.655466
 21
1862.623013
 31
0.0
  0
LINE
  5
31F
330
319
100
AcDbEntity
  8
LC-002-002-----0
 62
     7
370
    25
100
AcDbLine
 10
788.655466
 20
1862.623013
 30
0.0
 11
786.177079
 21
1862.416731
 31
0.0
  0
LINE
  5
320
330
319
100
AcDbEntity
  8
LC-002-002-----0
 62
     7
370
    25
100
AcDbLine
 10
786.177079
 20
1862.416731
 30
0.0
 11
786.177079
 21
1862.416731
 31
0.0
  0
LINE
  5
321
330
319
100
AcDbEntity
  8
LC-002-002-----0
 62
     7
370
    25
100
AcDbLine
 10
786.177079
 20
1862.416731
 30
0.0
 11
783.652679
 21
1862.346006
 31
0.0
  0
ENDBLK
  5
31B
330
319
100
AcDbEntity
  8
0
100
AcDbBlockEnd
  0
BLOCK
  5
324
330
323
100
AcDbEntity
  8
0
100
AcDbBlockBegin
  2
POLY2
 70
     0
 71
     0
 10
0.0
 20
0.0
 30
0.0
  3
POLY2
  1

  4
POLY2
  0
LINE
  5
326
330
323
100
AcDbEntity
  8
LC-002-002-----0
 62
     7
370
    25
100
AcDbLine
 10
796.20487
 20
1861.011251
 30
0.0
 11
796.20487
 21
1861.011251
 31
0.0
  0
LINE
  5
327
330
323
100
AcDbEntity
  8
LC-002-002-----0
 62
     7
370
    25
100
AcDbLine
 10
796.20487
 20
1861.011251
 30
0.0
 11
796.571282
 21
1860.473071
 31
0.0
  0
LINE
  5
328
330
323
100
AcDbEntity
  8
LC-002-002-----0
 62
     7
370
    25
100
AcDbLine
 10
796.571282
 20
1860.473071
 30
0.0
 11
796.571282
 21
1860.473071
 31
0.0
  0
LINE
  5
329
330
323
100
AcDbEntity
  8
LC-002-002-----0
 62
     7
370
    25
100
AcDbLine
 10
796.571282
 20
1860.473071
 30
0.0
 11
796.90837
 21
1859.983093
 31
0.0
  0
LINE
  5
32A
330
323
100
AcDbEntity
  8
LC-002-002-----0
 62
     7
370
    25
100
AcDbLine
 10
796.90837
 20
1859.983093
 30
0.0
 11
796.90837
 21
1859.983093
 31
0.0
  0
LINE
  5
32B
330
323
100
AcDbEntity
  8
LC-002-002-----0
 62
     7
370
    25
100
AcDbLine
 10
796.90837
 20
1859.983093
 30
0.0
 11
797.215254
 21
1859.541471
 31
0.0
  0
ENDBLK
  5
325
330
323
100
AcDbEntity
  8
0
100
AcDbBlockEnd
  0
BLOCK
  5
32E
330
32D
100
AcDbEntity
  8
0
100
AcDbBlockBegin
  2
POLY3
 70
     0
 71
     0
 10
0.0
 20
0.0
 30
0.0
  3
POLY3
  1

  4
POLY3
  0
LINE
  5
330
330
32D
100
AcDbEntity
  8
LC-002-002-----0
 62
     7
370
    25
100
AcDbLine
 10
791.008729
 20
1862.942808
 30
0.0
 11
791.008729
 21
1862.942808
 31
0.0
  0
LINE
  5
331
330
32D
100
AcDbEntity
  8
LC-002-002-----0
 62
     7
370
    25
100
AcDbLine
 10
791.008729
 20
1862.942808
 30
0.0
 11
792.303875
 21
1863.022847
 31
0.0
  0
LINE
  5
332
330
32D
100
AcDbEntity
  8
LC-002-002-----0
 62
     7
370
    25
100
AcDbLine
 10
792.303875
 20
1863.022847
 30
0.0
 11
792.303875
 21
1863.022847
 31
0.0
  0
LINE
  5
333
330
32D
100
AcDbEntity
  8
LC-002-002-----0
 62
     7
370
    25
100
AcDbLine
 10
792.303875
 20
1863.022847
 30
0.0
 11
793.500117
 21
1862.851782
 31
0.0
  0
LINE
  5
334
330
32D
100
AcDbEntity
  8
LC-002-002-----0
 62
     7
370
    25
100
AcDbLine
 10
793.500117
 20
1862.851782
 30
0.0
 11
793.500117
 21
1862.851782
 31
0.0
  0
LINE
  5
335
330
32D
100
AcDbEntity
  8
LC-002-002-----0
 62
     7
370
    25
100
AcDbLine
 10
793.500117
 20
1862.851782
 30
0.0
 11
794.56118
 21
1862.453777
 31
0.0
  0
LINE
  5
336
330
32D
100
AcDbEntity
  8
LC-002-002-----0
 62
     7
370
    25
100
AcDbLine
 10
794.56118
 20
1862.453777
 30
0.0
 11
794.56118
 21
1862.453777
 31
0.0
  0
LINE
  5
337
330
32D
100
AcDbEntity
  8
LC-002-002-----0
 62
     7
370
    25
100
AcDbLine
 10
794.56118
 20
1862.453777
 30
0.0
 11
795.468705
 21
1861.842379
 31
0.0
  0
LINE
  5
338
330
32D
100
AcDbEntity
  8
LC-002-002-----0
 62
     7
370
    25
100
AcDbLine
 10
795.468705
 20
1861.842379
 30
0.0
 11
795.468705
 21
1861.842379
 31
0.0
  0
LINE
  5
339
330
32D
100
AcDbEntity
  8
LC-002-002-----0
 62
     7
370
    25
100
AcDbLine
 10
795.468705
 20
1861.842379
 30
0.0
 11
796.20487
 21
1861.011251
 31
0.0
  0
ENDBLK
  5
32F
330
32D
100
AcDbEntity
  8
0
100
AcDbBlockEnd
  0
BLOCK
  5
33C
330
33B
100
AcDbEntity
  8
0
100
AcDbBlockBegin
  2
POLY4
 70
     0
 71
     0
 10
0.0
 20
0.0
 30
0.0
  3
POLY4
  1

  4
POLY4
  0
LINE
  5
33E
330
33B
100
AcDbEntity
  8
LC-002-002-----0
 62
     7
370
    25
100
AcDbLine
 10
797.215994
 20
1859.540442
 30
0.0
 11
797.215994
 21
1859.540442
 31
0.0
  0
LINE
  5
33F
330
33B
100
AcDbEntity
  8
LC-002-002-----0
 62
     7
370
    25
100
AcDbLine
 10
797.215994
 20
1859.540442
 30
0.0
 11
797.622727
 21
1859.068215
 31
0.0
  0
LINE
  5
340
330
33B
100
AcDbEntity
  8
LC-002-002-----0
 62
     7
370
    25
100
AcDbLine
 10
797.622727
 20
1859.068215
 30
0.0
 11
797.622727
 21
1859.068215
 31
0.0
  0
LINE
  5
341
330
33B
100
AcDbEntity
  8
LC-002-002-----0
 62
     7
370
    25
100
AcDbLine
 10
797.622727
 20
1859.068215
 30
0.0
 11
798.038916
 21
1858.742563
 31
0.0
  0
LINE
  5
342
330
33B
100
AcDbEntity
  8
LC-002-002-----0
 62
     7
370
    25
100
AcDbLine
 10
798.038916
 20
1858.742563
 30
0.0
 11
798.038916
 21
1858.742563
 31
0.0
  0
LINE
  5
343
330
33B
100
AcDbEntity
  8
LC-002-002-----0
 62
     7
370
    25
100
AcDbLine
 10
798.038916
 20
1858.742563
 30
0.0
 11
798.400769
 21
1858.545534
 31
0.0
  0
LINE
  5
344
330
33B
100
AcDbEntity
  8
LC-002-002-----0
 62
     7
370
    25
100
AcDbLine
 10
798.400769
 20
1858.545534
 30
0.0
 11
798.400769
 21
1858.545534
 31
0.0
  0
LINE
  5
345
330
33B
100
AcDbEntity
  8
LC-002-002-----0
 62
     7
370
    25
100
AcDbLine
 10
798.400769
 20
1858.545534
 30
0.0
 11
798.6556
 21
1858.444007
 31
0.0
  0
LINE
  5
346
330
33B
100
AcDbEntity
  8
LC-002-002-----0
 62
     7
370
    25
100
AcDbLine
 10
798.6556
 20
1858.444007
 30
0.0
 11
798.6556
 21
1858.444007
 31
0.0
  0
LINE
  5
347
330
33B
100
AcDbEntity
  8
LC-002-002-----0
 62
     7
370
    25
100
AcDbLine
 10
798.6556
 20
1858.444007
 30
0.0
 11
798.752522
 21
1858.412726
 31
0.0
  0
ENDBLK
  5
33D
330
33B
100
AcDbEntity
  8
0
100
AcDbBlockEnd
  0
BLOCK
  5
34A
330
349
100
AcDbEntity
  8
0
100
AcDbBlockBegin
  2
POLY5
 70
     0
 71
     0
 10
0.0
 20
0.0
 30
0.0
  3
POLY5
  1

  4
POLY5
  0
LINE
  5
34C
330
349
100
AcDbEntity
  8
LC-002-002-----0
 62
     7
370
    25
100
AcDbLine
 10
765.862902
 20
1870.196597
 30
0.0
 11
765.862902
 21
1870.196597
 31
0.0
  0
LINE
  5
34D
330
349
100
AcDbEntity
  8
LC-002-002-----0
 62
     7
370
    25
100
AcDbLine
 10
765.862902
 20
1870.196597
 30
0.0
 11
767.149143
 21
1870.051517
 31
0.0
  0
LINE
  5
34E
330
349
100
AcDbEntity
  8
LC-002-002-----0
 62
     7
370
    25
100
AcDbLine
 10
767.149143
 20
1870.051517
 30
0.0
 11
767.149143
 21
1870.051517
 31
0.0
  0
LINE
  5
34F
330
349
100
AcDbEntity
  8
LC-002-002-----0
 62
     7
370
    25
100
AcDbLine
 10
767.149143
 20
1870.051517
 30
0.0
 11
768.378921
 21
1869.621244
 31
0.0
  0
LINE
  5
350
330
349
100
AcDbEntity
  8
LC-002-002-----0
 62
     7
370
    25
100
AcDbLine
 10
768.378921
 20
1869.621244
 30
0.0
 11
768.378921
 21
1869.621244
 31
0.0
  0
LINE
  5
351
330
349
100
AcDbEntity
  8
LC-002-002-----0
 62
     7
370
    25
100
AcDbLine
 10
768.378921
 20
1869.621244
 30
0.0
 11
769.497676
 21
1868.920126
 31
0.0
  0
LINE
  5
352
330
349
100
AcDbEntity
  8
LC-002-002-----0
 62
     7
370
    25
100
AcDbLine
 10
769.497676
 20
1868.920126
 30
0.0
 11
769.497676
 21
1868.920126
 31
0.0
  0
LINE
  5
353
330
349
100
AcDbEntity
  8
LC-002-002-----0
 62
     7
370
    25
100
AcDbLine
 10
769.497676
 20
1868.920126
 30
0.0
 11
770.451998
 21
1867.972878
 31
0.0
  0
LINE
  5
354
330
349
100
AcDbEntity
  8
LC-002-002-----0
 62
     7
370
    25
100
AcDbLine
 10
770.451998
 20
1867.972878
 30
0.0
 11
770.451998
 21
1867.972878
 31
0.0
  0
LINE
  5
355
330
349
100
AcDbEntity
  8
LC-002-002-----0
 62
     7
370
    25
100
AcDbLine
 10
770.451998
 20
1867.972878
 30
0.0
 11
771.191586
 21
1866.816118
 31
0.0
  0
LINE
  5
356
330
349
100
AcDbEntity
  8
LC-002-002-----0
 62
     7
370
    25
100
AcDbLine
 10
771.191586
 20
1866.816118
 30
0.0
 11
771.191586
 21
1866.816118
 31
0.0
  0
LINE
  5
357
330
349
100
AcDbEntity
  8
LC-002-002-----0
 62
     7
370
    25
100
AcDbLine
 10
771.191586
 20
1866.816118
 30
0.0
 11
771.672377
 21
1865.499646
 31
0.0
  0
ENDBLK
  5
34B
330
349
100
AcDbEntity
  8
0
100
AcDbBlockEnd
  0
BLOCK
  5
35A
330
359
100
AcDbEntity
  8
0
100
AcDbBlockBegin
  2
POLY6
 70
     0
 71
     0
 10
0.0
 20
0.0
 30
0.0
  3
POLY6
  1

  4
POLY6
  0
LINE
  5
35C
330
359
100
AcDbEntity
  8
LC-002-002-----0
 62
     7
370
    25
100
AcDbLine
 10
771.672377
 20
1865.499646
 30
0.0
 11
771.672377
 21
1865.499646
 31
0.0
  0
LINE
  5
35D
330
359
100
AcDbEntity
  8
LC-002-002-----0
 62
     7
370
    25
100
AcDbLine
 10
771.672377
 20
1865.499646
 30
0.0
 11
772.082126
 21
1864.448997
 31
0.0
  0
LINE
  5
35E
330
359
100
AcDbEntity
  8
LC-002-002-----0
 62
     7
370
    25
100
AcDbLine
 10
772.082126
 20
1864.448997
 30
0.0
 11
772.082126
 21
1864.448997
 31
0.0
  0
LINE
  5
35F
330
359
100
AcDbEntity
  8
LC-002-002-----0
 62
     7
370
    25
100
AcDbLine
 10
772.082126
 20
1864.448997
 30
0.0
 11
772.735442
 21
1863.560668
 31
0.0
  0
LINE
  5
360
330
359
100
AcDbEntity
  8
LC-002-002-----0
 62
     7
370
    25
100
AcDbLine
 10
772.735442
 20
1863.560668
 30
0.0
 11
772.735442
 21
1863.560668
 31
0.0
  0
LINE
  5
361
330
359
100
AcDbEntity
  8
LC-002-002-----0
 62
     7
370
    25
100
AcDbLine
 10
772.735442
 20
1863.560668
 30
0.0
 11
773.573569
 21
1862.893875
 31
0.0
  0
LINE
  5
362
330
359
100
AcDbEntity
  8
LC-002-002-----0
 62
     7
370
    25
100
AcDbLine
 10
773.573569
 20
1862.893875
 30
0.0
 11
773.573569
 21
1862.893875
 31
0.0
  0
LINE
  5
363
330
359
100
AcDbEntity
  8
LC-002-002-----0
 62
     7
370
    25
100
AcDbLine
 10
773.573569
 20
1862.893875
 30
0.0
 11
774.531358
 21
1862.483792
 31
0.0
  0
LINE
  5
364
330
359
100
AcDbEntity
  8
LC-002-002-----0
 62
     7
370
    25
100
AcDbLine
 10
774.531358
 20
1862.483792
 30
0.0
 11
774.531358
 21
1862.483792
 31
0.0
  0
LINE
  5
365
330
359
100
AcDbEntity
  8
LC-002-002-----0
 62
     7
370
    25
100
AcDbLine
 10
774.531358
 20
1862.483792
 30
0.0
 11
775.54536
 21
1862.346006
 31
0.0
  0
ENDBLK
  5
35B
330
359
100
AcDbEntity
  8
0
100
AcDbBlockEnd
  0
BLOCK
  5
3A2
330
3A1
100
AcDbEntity
  8
0
100
AcDbBlockBegin
  2
POLY7
 70
     0
 71
     0
 10
0.0
 20
0.0
 30
0.0
  3
POLY7
  1

  4
POLY7
  0
LINE
  5
3A4
330
3A1
100
AcDbEntity
  8
LC-002-002-----0
 62
     7
370
    25
100
AcDbLine
 10
855.979892
 20
1794.957394
 30
0.0
 11
856.004907
 21
1794.932353
 31
0.0
  0
ENDBLK
  5
3A3
330
3A1
100
AcDbEntity
  8
0
100
AcDbBlockEnd
  0
BLOCK
  5
3F3
330
3F2
100
AcDbEntity
  8
0
100
AcDbBlockBegin
  2
POLY8
 70
     0
 71
     0
 10
0.0
 20
0.0
 30
0.0
  3
POLY8
  1

  4
POLY8
  0
LINE
  5
3F5
330
3F2
100
AcDbEntity
  8
LC-002-002-----0
 62
     7
370
    25
100
AcDbLine
 10
1204.639743
 20
2340.397918
 30
0.0
 11
1204.664784
 21
2340.372903
 31
0.0
  0
ENDBLK
  5
3F4
330
3F2
100
AcDbEntity
  8
0
100
AcDbBlockEnd
  0
BLOCK
  5
408
330
407
100
AcDbEntity
  8
0
100
AcDbBlockBegin
  2
POLY9
 70
     0
 71
     0
 10
0.0
 20
0.0
 30
0.0
  3
POLY9
  1

  4
POLY9
  0
LINE
  5
40A
330
407
100
AcDbEntity
  8
LC-002-002-----0
 62
     7
370
    25
100
AcDbLine
 10
1319.153309
 20
2383.585384
 30
0.0
 11
1319.153309
 21
2383.585384
 31
0.0
  0
LINE
  5
40B
330
407
100
AcDbEntity
  8
LC-002-002-----0
 62
     7
370
    25
100
AcDbLine
 10
1319.153309
 20
2383.585384
 30
0.0
 11
1318.638536
 21
2383.526446
 31
0.0
  0
LINE
  5
40C
330
407
100
AcDbEntity
  8
LC-002-002-----0
 62
     7
370
    25
100
AcDbLine
 10
1318.638536
 20
2383.526446
 30
0.0
 11
1318.638536
 21
2383.526446
 31
0.0
  0
LINE
  5
40D
330
407
100
AcDbEntity
  8
LC-002-002-----0
 62
     7
370
    25
100
AcDbLine
 10
1318.638536
 20
2383.526446
 30
0.0
 11
1318.157178
 21
2383.3529
 31
0.0
  0
LINE
  5
40E
330
407
100
AcDbEntity
  8
LC-002-002-----0
 62
     7
370
    25
100
AcDbLine
 10
1318.157178
 20
2383.3529
 30
0.0
 11
1318.157178
 21
2383.3529
 31
0.0
  0
LINE
  5
40F
330
407
100
AcDbEntity
  8
LC-002-002-----0
 62
     7
370
    25
100
AcDbLine
 10
1318.157178
 20
2383.3529
 30
0.0
 11
1317.743611
 21
2383.076765
 31
0.0
  0
LINE
  5
410
330
407
100
AcDbEntity
  8
LC-002-002-----0
 62
     7
370
    25
100
AcDbLine
 10
1317.743611
 20
2383.076765
 30
0.0
 11
1317.743611
 21
2383.076765
 31
0.0
  0
LINE
  5
411
330
407
100
AcDbEntity
  8
LC-002-002-----0
 62
     7
370
    25
100
AcDbLine
 10
1317.743611
 20
2383.076765
 30
0.0
 11
1317.424666
 21
2382.715419
 31
0.0
  0
LINE
  5
412
330
407
100
AcDbEntity
  8
LC-002-002-----0
 62
     7
370
    25
100
AcDbLine
 10
1317.424666
 20
2382.715419
 30
0.0
 11
1317.424666
 21
2382.715419
 31
0.0
  0
LINE
  5
413
330
407
100
AcDbEntity
  8
LC-002-002-----0
 62
     7
370
    25
100
AcDbLine
 10
1317.424666
 20
2382.715419
 30
0.0
 11
1317.222702
 21
2382.292032
 31
0.0
  0
LINE
  5
414
330
407
100
AcDbEntity
  8
LC-002-002-----0
 62
     7
370
    25
100
AcDbLine
 10
1317.222702
 20
2382.292032
 30
0.0
 11
1317.222702
 21
2382.292032
 31
0.0
  0
LINE
  5
415
330
407
100
AcDbEntity
  8
LC-002-002-----0
 62
     7
370
    25
100
AcDbLine
 10
1317.222702
 20
2382.292032
 30
0.0
 11
1317.153309
 21
2381.83455
 31
0.0
  0
ENDBLK
  5
409
330
407
100
AcDbEntity
  8
0
100
AcDbBlockEnd
  0
BLOCK
  5
419
330
418
100
AcDbEntity
  8
0
100
AcDbBlockBegin
  2
POLY10
 70
     0
 71
     0
 10
0.0
 20
0.0
 30
0.0
  3
POLY10
  1

  4
POLY10
  0
LINE
  5
41B
330
418
100
AcDbEntity
  8
LC-002-002-----0
 62
     7
370
    25
100
AcDbLine
 10
1319.153309
 20
2360.372903
 30
0.0
 11
1319.153309
 21
2360.372903
 31
0.0
  0
LINE
  5
41C
330
418
100
AcDbEntity
  8
LC-002-002-----0
 62
     7
370
    25
100
AcDbLine
 10
1319.153309
 20
2360.372903
 30
0.0
 11
1318.638521
 21
2360.372936
 31
0.0
  0
LINE
  5
41D
330
418
100
AcDbEntity
  8
LC-002-002-----0
 62
     7
370
    25
100
AcDbLine
 10
1318.638521
 20
2360.372936
 30
0.0
 11
1318.638521
 21
2360.372936
 31
0.0
  0
LINE
  5
41E
330
418
100
AcDbEntity
  8
LC-002-002-----0
 62
     7
370
    25
100
AcDbLine
 10
1318.638521
 20
2360.372936
 30
0.0
 11
1318.157151
 21
2360.3729
 31
0.0
  0
LINE
  5
41F
330
418
100
AcDbEntity
  8
LC-002-002-----0
 62
     7
370
    25
100
AcDbLine
 10
1318.157151
 20
2360.3729
 30
0.0
 11
1318.157151
 21
2360.3729
 31
0.0
  0
LINE
  5
420
330
418
100
AcDbEntity
  8
LC-002-002-----0
 62
     7
370
    25
100
AcDbLine
 10
1318.157151
 20
2360.3729
 30
0.0
 11
1317.743581
 21
2360.372906
 31
0.0
  0
LINE
  5
421
330
418
100
AcDbEntity
  8
LC-002-002-----0
 62
     7
370
    25
100
AcDbLine
 10
1317.743581
 20
2360.372906
 30
0.0
 11
1317.743581
 21
2360.372906
 31
0.0
  0
LINE
  5
422
330
418
100
AcDbEntity
  8
LC-002-002-----0
 62
     7
370
    25
100
AcDbLine
 10
1317.743581
 20
2360.372906
 30
0.0
 11
1317.424645
 21
2360.372881
 31
0.0
  0
LINE
  5
423
330
418
100
AcDbEntity
  8
LC-002-002-----0
 62
     7
370
    25
100
AcDbLine
 10
1317.424645
 20
2360.372881
 30
0.0
 11
1317.424645
 21
2360.372881
 31
0.0
  0
LINE
  5
424
330
418
100
AcDbEntity
  8
LC-002-002-----0
 62
     7
370
    25
100
AcDbLine
 10
1317.424645
 20
2360.372881
 30
0.0
 11
1317.222688
 21
2360.37293
 31
0.0
  0
LINE
  5
425
330
418
100
AcDbEntity
  8
LC-002-002-----0
 62
     7
370
    25
100
AcDbLine
 10
1317.222688
 20
2360.37293
 30
0.0
 11
1317.222688
 21
2360.37293
 31
0.0
  0
LINE
  5
426
330
418
100
AcDbEntity
  8
LC-002-002-----0
 62
     7
370
    25
100
AcDbLine
 10
1317.222688
 20
2360.37293
 30
0.0
 11
1317.153309
 21
2360.372911
 31
0.0
  0
ENDBLK
  5
41A
330
418
100
AcDbEntity
  8
0
100
AcDbBlockEnd
  0
BLOCK
  5
42A
330
429
100
AcDbEntity
  8
0
100
AcDbBlockBegin
  2
POLY11
 70
     0
 71
     0
 10
0.0
 20
0.0
 30
0.0
  3
POLY11
  1

  4
POLY11
  0
LINE
  5
42C
330
429
100
AcDbEntity
  8
LC-002-002-----0
 62
     7
370
    25
100
AcDbLine
 10
1319.153309
 20
2337.160422
 30
0.0
 11
1319.153309
 21
2337.160422
 31
0.0
  0
LINE
  5
42D
330
429
100
AcDbEntity
  8
LC-002-002-----0
 62
     7
370
    25
100
AcDbLine
 10
1319.153309
 20
2337.160422
 30
0.0
 11
1318.638536
 21
2337.21936
 31
0.0
  0
LINE
  5
42E
330
429
100
AcDbEntity
  8
LC-002-002-----0
 62
     7
370
    25
100
AcDbLine
 10
1318.638536
 20
2337.21936
 30
0.0
 11
1318.638536
 21
2337.21936
 31
0.0
  0
LINE
  5
42F
330
429
100
AcDbEntity
  8
LC-002-002-----0
 62
     7
370
    25
100
AcDbLine
 10
1318.638536
 20
2337.21936
 30
0.0
 11
1318.157178
 21
2337.392905
 31
0.0
  0
LINE
  5
430
330
429
100
AcDbEntity
  8
LC-002-002-----0
 62
     7
370
    25
100
AcDbLine
 10
1318.157178
 20
2337.392905
 30
0.0
 11
1318.157178
 21
2337.392905
 31
0.0
  0
LINE
  5
431
330
429
100
AcDbEntity
  8
LC-002-002-----0
 62
     7
370
    25
100
AcDbLine
 10
1318.157178
 20
2337.392905
 30
0.0
 11
1317.743611
 21
2337.669041
 31
0.0
  0
LINE
  5
432
330
429
100
AcDbEntity
  8
LC-002-002-----0
 62
     7
370
    25
100
AcDbLine
 10
1317.743611
 20
2337.669041
 30
0.0
 11
1317.743611
 21
2337.669041
 31
0.0
  0
LINE
  5
433
330
429
100
AcDbEntity
  8
LC-002-002-----0
 62
     7
370
    25
100
AcDbLine
 10
1317.743611
 20
2337.669041
 30
0.0
 11
1317.424666
 21
2338.030386
 31
0.0
  0
LINE
  5
434
330
429
100
AcDbEntity
  8
LC-002-002-----0
 62
     7
370
    25
100
AcDbLine
 10
1317.424666
 20
2338.030386
 30
0.0
 11
1317.424666
 21
2338.030386
 31
0.0
  0
LINE
  5
435
330
429
100
AcDbEntity
  8
LC-002-002-----0
 62
     7
370
    25
100
AcDbLine
 10
1317.424666
 20
2338.030386
 30
0.0
 11
1317.222702
 21
2338.453773
 31
0.0
  0
LINE
  5
436
330
429
100
AcDbEntity
  8
LC-002-002-----0
 62
     7
370
    25
100
AcDbLine
 10
1317.222702
 20
2338.453773
 30
0.0
 11
1317.222702
 21
2338.453773
 31
0.0
  0
LINE
  5
437
330
429
100
AcDbEntity
  8
LC-002-002-----0
 62
     7
370
    25
100
AcDbLine
 10
1317.222702
 20
2338.453773
 30
0.0
 11
1317.153309
 21
2338.911255
 31
0.0
  0
ENDBLK
  5
42B
330
429
100
AcDbEntity
  8
0
100
AcDbBlockEnd
  0
BLOCK
  5
453
330
452
100
AcDbEntity
  8
0
100
AcDbBlockBegin
  2
LCDIM1
 70
     0
 71
     0
 10
0.0
 20
0.0
 30
0.0
  3
LCDIM1
  1

  4
LCDIM1
  0
LINE
  5
456
330
452
100
AcDbEntity
  8
LC-008-003-MTH-0
 62
     7
370
    25
100
AcDbLine
 10
972.053309
 20
1470.81002
 30
0.0
 11
972.053309
 21
1335.0
 31
0.0
  0
LINE
  5
457
330
452
100
AcDbEntity
  8
LC-008-003-MTH-0
 62
     7
370
    25
100
AcDbLine
 10
1810.253309
 20
1470.81002
 30
0.0
 11
1810.253309
 21
1335.0
 31
0.0
  0
LINE
  5
459
330
452
100
AcDbEntity
  8
LC-009-003-MTG-0
 62
     7
370
    25
100
AcDbLine
 10
972.053309
 20
1350.0
 30
0.0
 11
1810.253309
 21
1350.0
 31
0.0
  0
LINE
  5
45B
330
452
100
AcDbEntity
  8
LC-010-003-----0
 62
     7
370
    25
100
AcDbLine
 10
996.839431
 20
1353.263155
 30
0.0
 11
972.053309
 21
1350.0
 31
0.0
  0
LINE
  5
45C
330
452
100
AcDbEntity
  8
LC-010-003-----0
 62
     7
370
    25
100
AcDbLine
 10
972.053309
 20
1350.0
 30
0.0
 11
996.839431
 21
1346.736845
 31
0.0
  0
LINE
  5
45D
330
452
100
AcDbEntity
  8
LC-010-003-----0
 62
     7
370
    25
100
AcDbLine
 10
996.839431
 20
1346.736845
 30
0.0
 11
996.839431
 21
1353.263155
 31
0.0
  0
LINE
  5
45E
330
452
100
AcDbEntity
  8
LC-010-003-----0
 62
     7
370
    25
100
AcDbLine
 10
996.895039
 20
1352.414735
 30
0.0
 11
978.553309
 21
1350.0
 31
0.0
  0
LINE
  5
45F
330
452
100
AcDbEntity
  8
LC-010-003-----0
 62
     7
370
    25
100
AcDbLine
 10
978.553309
 20
1350.0
 30
0.0
 11
996.895039
 21
1347.585265
 31
0.0
  0
LINE
  5
460
330
452
100
AcDbEntity
  8
LC-010-003-----0
 62
     7
370
    25
100
AcDbLine
 10
996.950648
 20
1351.566314
 30
0.0
 11
985.053309
 21
1350.0
 31
0.0
  0
LINE
  5
461
330
452
100
AcDbEntity
  8
LC-010-003-----0
 62
     7
370
    25
100
AcDbLine
 10
985.053309
 20
1350.0
 30
0.0
 11
996.950648
 21
1348.433686
 31
0.0
  0
LINE
  5
462
330
452
100
AcDbEntity
  8
LC-010-003-----0
 62
     7
370
    25
100
AcDbLine
 10
997.006256
 20
1350.717894
 30
0.0
 11
991.553309
 21
1350.0
 31
0.0
  0
LINE
  5
463
330
452
100
AcDbEntity
  8
LC-010-003-----0
 62
     7
370
    25
100
AcDbLine
 10
991.553309
 20
1350.0
 30
0.0
 11
997.006256
 21
1349.282106
 31
0.0
  0
LINE
  5
464
330
452
100
AcDbEntity
  8
LC-010-003-----0
 62
     7
370
    25
100
AcDbLine
 10
1785.467187
 20
1346.736845
 30
0.0
 11
1810.253309
 21
1350.0
 31
0.0
  0
LINE
  5
465
330
452
100
AcDbEntity
  8
LC-010-003-----0
 62
     7
370
    25
100
AcDbLine
 10
1810.253309
 20
1350.0
 30
0.0
 11
1785.467187
 21
1353.263155
 31
0.0
  0
LINE
  5
466
330
452
100
AcDbEntity
  8
LC-010-003-----0
 62
     7
370
    25
100
AcDbLine
 10
1785.467187
 20
1353.263155
 30
0.0
 11
1785.467187
 21
1346.736845
 31
0.0
  0
LINE
  5
467
330
452
100
AcDbEntity
  8
LC-010-003-----0
 62
     7
370
    25
100
AcDbLine
 10
1785.411579
 20
1347.585265
 30
0.0
 11
1803.753309
 21
1350.0
 31
0.0
  0
LINE
  5
468
330
452
100
AcDbEntity
  8
LC-010-003-----0
 62
     7
370
    25
100
AcDbLine
 10
1803.753309
 20
1350.0
 30
0.0
 11
1785.411579
 21
1352.414735
 31
0.0
  0
LINE
  5
469
330
452
100
AcDbEntity
  8
LC-010-003-----0
 62
     7
370
    25
100
AcDbLine
 10
1785.35597
 20
1348.433686
 30
0.0
 11
1797.253309
 21
1350.0
 31
0.0
  0
LINE
  5
46A
330
452
100
AcDbEntity
  8
LC-010-003-----0
 62
     7
370
    25
100
AcDbLine
 10
1797.253309
 20
1350.0
 30
0.0
 11
1785.35597
 21
1351.566314
 31
0.0
  0
LINE
  5
46B
330
452
100
AcDbEntity
  8
LC-010-003-----0
 62
     7
370
    25
100
AcDbLine
 10
1785.300362
 20
1349.282106
 30
0.0
 11
1790.753309
 21
1350.0
 31
0.0
  0
LINE
  5
46C
330
452
100
AcDbEntity
  8
LC-010-003-----0
 62
     7
370
    25
100
AcDbLine
 10
1790.753309
 20
1350.0
 30
0.0
 11
1785.300362
 21
1350.717894
 31
0.0
  0
TEXT
  5
46D
330
452
100
AcDbEntity
  8
LC-010-003-----0
 62
     7
370
    25
100
AcDbText
 10
1353.653309
 20
1365.0
 30
0.0
 40
25.0
  1
838,2
 41
0.7
  7
LCTX0-400-0-0pDIN-Schrift
 72
     1
 11
1391.153309
 21
1365.0
 31
0.0
100
AcDbText
  0
ENDBLK
  5
454
330
452
100
AcDbEntity
  8
0
100
AcDbBlockEnd
  0
BLOCK
  5
470
330
46F
100
AcDbEntity
  8
0
100
AcDbBlockBegin
  2
LCDIM2
 70
     0
 71
     0
 10
0.0
 20
0.0
 30
0.0
  3
LCDIM2
  1

  4
LCDIM2
  0
LINE
  5
472
330
46F
100
AcDbEntity
  8
LC-008-003-MTH-0
 62
     7
370
    25
100
AcDbLine
 10
1007.053309
 20
2710.03
 30
0.0
 11
1007.053309
 21
2815.0
 31
0.0
  0
LINE
  5
473
330
46F
100
AcDbEntity
  8
LC-008-003-MTH-0
 62
     7
370
    25
100
AcDbLine
 10
1775.253309
 20
2710.03
 30
0.0
 11
1775.253309
 21
2815.0
 31
0.0
  0
LINE
  5
474
330
46F
100
AcDbEntity
  8
LC-009-003-MTG-0
 62
     7
370
    25
100
AcDbLine
 10
1007.053309
 20
2800.0
 30
0.0
 11
1775.253309
 21
2800.0
 31
0.0
  0
LINE
  5
475
330
46F
100
AcDbEntity
  8
LC-010-003-----0
 62
     7
370
    25
100
AcDbLine
 10
1031.839431
 20
2803.263155
 30
0.0
 11
1007.053309
 21
2800.0
 31
0.0
  0
LINE
  5
476
330
46F
100
AcDbEntity
  8
LC-010-003-----0
 62
     7
370
    25
100
AcDbLine
 10
1007.053309
 20
2800.0
 30
0.0
 11
1031.839431
 21
2796.736845
 31
0.0
  0
LINE
  5
477
330
46F
100
AcDbEntity
  8
LC-010-003-----0
 62
     7
370
    25
100
AcDbLine
 10
1031.839431
 20
2796.736845
 30
0.0
 11
1031.839431
 21
2803.263155
 31
0.0
  0
LINE
  5
478
330
46F
100
AcDbEntity
  8
LC-010-003-----0
 62
     7
370
    25
100
AcDbLine
 10
1031.895039
 20
2802.414735
 30
0.0
 11
1013.553309
 21
2800.0
 31
0.0
  0
LINE
  5
479
330
46F
100
AcDbEntity
  8
LC-010-003-----0
 62
     7
370
    25
100
AcDbLine
 10
1013.553309
 20
2800.0
 30
0.0
 11
1031.895039
 21
2797.585265
 31
0.0
  0
LINE
  5
47A
330
46F
100
AcDbEntity
  8
LC-010-003-----0
 62
     7
370
    25
100
AcDbLine
 10
1031.950648
 20
2801.566314
 30
0.0
 11
1020.053309
 21
2800.0
 31
0.0
  0
LINE
  5
47B
330
46F
100
AcDbEntity
  8
LC-010-003-----0
 62
     7
370
    25
100
AcDbLine
 10
1020.053309
 20
2800.0
 30
0.0
 11
1031.950648
 21
2798.433686
 31
0.0
  0
LINE
  5
47C
330
46F
100
AcDbEntity
  8
LC-010-003-----0
 62
     7
370
    25
100
AcDbLine
 10
1032.006256
 20
2800.717894
 30
0.0
 11
1026.553309
 21
2800.0
 31
0.0
  0
LINE
  5
47D
330
46F
100
AcDbEntity
  8
LC-010-003-----0
 62
     7
370
    25
100
AcDbLine
 10
1026.553309
 20
2800.0
 30
0.0
 11
1032.006256
 21
2799.282106
 31
0.0
  0
LINE
  5
47E
330
46F
100
AcDbEntity
  8
LC-010-003-----0
 62
     7
370
    25
100
AcDbLine
 10
1750.467187
 20
2796.736845
 30
0.0
 11
1775.253309
 21
2800.0
 31
0.0
  0
LINE
  5
47F
330
46F
100
AcDbEntity
  8
LC-010-003-----0
 62
     7
370
    25
100
AcDbLine
 10
1775.253309
 20
2800.0
 30
0.0
 11
1750.467187
 21
2803.263155
 31
0.0
  0
LINE
  5
480
330
46F
100
AcDbEntity
  8
LC-010-003-----0
 62
     7
370
    25
100
AcDbLine
 10
1750.467187
 20
2803.263155
 30
0.0
 11
1750.467187
 21
2796.736845
 31
0.0
  0
LINE
  5
481
330
46F
100
AcDbEntity
  8
LC-010-003-----0
 62
     7
370
    25
100
AcDbLine
 10
1750.411579
 20
2797.585265
 30
0.0
 11
1768.753309
 21
2800.0
 31
0.0
  0
LINE
  5
482
330
46F
100
AcDbEntity
  8
LC-010-003-----0
 62
     7
370
    25
100
AcDbLine
 10
1768.753309
 20
2800.0
 30
0.0
 11
1750.411579
 21
2802.414735
 31
0.0
  0
LINE
  5
483
330
46F
100
AcDbEntity
  8
LC-010-003-----0
 62
     7
370
    25
100
AcDbLine
 10
1750.35597
 20
2798.433686
 30
0.0
 11
1762.253309
 21
2800.0
 31
0.0
  0
LINE
  5
484
330
46F
100
AcDbEntity
  8
LC-010-003-----0
 62
     7
370
    25
100
AcDbLine
 10
1762.253309
 20
2800.0
 30
0.0
 11
1750.35597
 21
2801.566314
 31
0.0
  0
LINE
  5
485
330
46F
100
AcDbEntity
  8
LC-010-003-----0
 62
     7
370
    25
100
AcDbLine
 10
1750.300362
 20
2799.282106
 30
0.0
 11
1755.753309
 21
2800.0
 31
0.0
  0
LINE
  5
486
330
46F
100
AcDbEntity
  8
LC-010-003-----0
 62
     7
370
    25
100
AcDbLine
 10
1755.753309
 20
2800.0
 30
0.0
 11
1750.300362
 21
2800.717894
 31
0.0
  0
TEXT
  5
487
330
46F
100
AcDbEntity
  8
LC-010-003-----0
 62
     7
370
    25
100
AcDbText
 10
1353.653309
 20
2815.0
 30
0.0
 40
25.0
  1
768,2
 41
0.7
  7
LCTX0-400-0-0pDIN-Schrift
 72
     1
 11
1391.153309
 21
2815.0
 31
0.0
100
AcDbText
  0
ENDBLK
  5
471
330
46F
100
AcDbEntity
  8
0
100
AcDbBlockEnd
  0
BLOCK
  5
48A
330
489
100
AcDbEntity
  8
0
100
AcDbBlockBegin
  2
LCDIM3
 70
     0
 71
     0
 10
0.0
 20
0.0
 30
0.0
  3
LCDIM3
  1

  4
LCDIM3
  0
LINE
  5
48C
330
489
100
AcDbEntity
  8
LC-008-003-MTH-0
 62
     7
370
    25
100
AcDbLine
 10
486.34781
 20
1530.81002
 30
0.0
 11
385.0
 21
1530.81002
 31
0.0
  0
LINE
  5
48D
330
489
100
AcDbEntity
  8
LC-008-003-MTH-0
 62
     7
370
    25
100
AcDbLine
 10
486.34781
 20
1944.81002
 30
0.0
 11
385.0
 21
1944.81002
 31
0.0
  0
LINE
  5
48E
330
489
100
AcDbEntity
  8
LC-009-003-MTG-0
 62
     7
370
    25
100
AcDbLine
 10
400.0
 20
1530.81002
 30
0.0
 11
400.0
 21
1944.81002
 31
0.0
  0
LINE
  5
48F
330
489
100
AcDbEntity
  8
LC-010-003-----0
 62
     7
370
    25
100
AcDbLine
 10
396.736845
 20
1555.596142
 30
0.0
 11
400.0
 21
1530.81002
 31
0.0
  0
LINE
  5
490
330
489
100
AcDbEntity
  8
LC-010-003-----0
 62
     7
370
    25
100
AcDbLine
 10
400.0
 20
1530.81002
 30
0.0
 11
403.263155
 21
1555.596142
 31
0.0
  0
LINE
  5
491
330
489
100
AcDbEntity
  8
LC-010-003-----0
 62
     7
370
    25
100
AcDbLine
 10
403.263155
 20
1555.596142
 30
0.0
 11
396.736845
 21
1555.596142
 31
0.0
  0
LINE
  5
492
330
489
100
AcDbEntity
  8
LC-010-003-----0
 62
     7
370
    25
100
AcDbLine
 10
397.585265
 20
1555.651751
 30
0.0
 11
400.0
 21
1537.310021
 31
0.0
  0
LINE
  5
493
330
489
100
AcDbEntity
  8
LC-010-003-----0
 62
     7
370
    25
100
AcDbLine
 10
400.0
 20
1537.310021
 30
0.0
 11
402.414735
 21
1555.651751
 31
0.0
  0
LINE
  5
494
330
489
100
AcDbEntity
  8
LC-010-003-----0
 62
     7
370
    25
100
AcDbLine
 10
398.433686
 20
1555.707359
 30
0.0
 11
400.0
 21
1543.810021
 31
0.0
  0
LINE
  5
495
330
489
100
AcDbEntity
  8
LC-010-003-----0
 62
     7
370
    25
100
AcDbLine
 10
400.0
 20
1543.810021
 30
0.0
 11
401.566314
 21
1555.707359
 31
0.0
  0
LINE
  5
496
330
489
100
AcDbEntity
  8
LC-010-003-----0
 62
     7
370
    25
100
AcDbLine
 10
399.282106
 20
1555.762968
 30
0.0
 11
400.0
 21
1550.310021
 31
0.0
  0
LINE
  5
497
330
489
100
AcDbEntity
  8
LC-010-003-----0
 62
     7
370
    25
100
AcDbLine
 10
400.0
 20
1550.310021
 30
0.0
 11
400.717894
 21
1555.762968
 31
0.0
  0
LINE
  5
498
330
489
100
AcDbEntity
  8
LC-010-003-----0
 62
     7
370
    25
100
AcDbLine
 10
403.263155
 20
1920.023899
 30
0.0
 11
400.0
 21
1944.81002
 31
0.0
  0
LINE
  5
499
330
489
100
AcDbEntity
  8
LC-010-003-----0
 62
     7
370
    25
100
AcDbLine
 10
400.0
 20
1944.81002
 30
0.0
 11
396.736845
 21
1920.023899
 31
0.0
  0
LINE
  5
49A
330
489
100
AcDbEntity
  8
LC-010-003-----0
 62
     7
370
    25
100
AcDbLine
 10
396.736845
 20
1920.023899
 30
0.0
 11
403.263155
 21
1920.023899
 31
0.0
  0
LINE
  5
49B
330
489
100
AcDbEntity
  8
LC-010-003-----0
 62
     7
370
    25
100
AcDbLine
 10
402.414735
 20
1919.96829
 30
0.0
 11
400.0
 21
1938.31002
 31
0.0
  0
LINE
  5
49C
330
489
100
AcDbEntity
  8
LC-010-003-----0
 62
     7
370
    25
100
AcDbLine
 10
400.0
 20
1938.31002
 30
0.0
 11
397.585265
 21
1919.96829
 31
0.0
  0
LINE
  5
49D
330
489
100
AcDbEntity
  8
LC-010-003-----0
 62
     7
370
    25
100
AcDbLine
 10
401.566314
 20
1919.912682
 30
0.0
 11
400.0
 21
1931.81002
 31
0.0
  0
LINE
  5
49E
330
489
100
AcDbEntity
  8
LC-010-003-----0
 62
     7
370
    25
100
AcDbLine
 10
400.0
 20
1931.81002
 30
0.0
 11
398.433686
 21
1919.912682
 31
0.0
  0
LINE
  5
49F
330
489
100
AcDbEntity
  8
LC-010-003-----0
 62
     7
370
    25
100
AcDbLine
 10
400.717894
 20
1919.857073
 30
0.0
 11
400.0
 21
1925.31002
 31
0.0
  0
LINE
  5
4A0
330
489
100
AcDbEntity
  8
LC-010-003-----0
 62
     7
370
    25
100
AcDbLine
 10
400.0
 20
1925.31002
 30
0.0
 11
399.282106
 21
1919.857073
 31
0.0
  0
TEXT
  5
4A1
330
489
100
AcDbEntity
  8
LC-010-003-----0
 62
     7
370
    25
100
AcDbText
 10
385.0
 20
1712.393354
 30
0.0
 40
25.0
  1
414
 50
90.0
 41
0.7
  7
LCTX0-400-0-0pDIN-Schrift
 72
     1
 11
385.0
 21
1737.81002
 31
0.0
100
AcDbText
  0
ENDBLK
  5
48B
330
489
100
AcDbEntity
  8
0
100
AcDbBlockEnd
  0
BLOCK
  5
4A4
330
4A3
100
AcDbEntity
  8
0
100
AcDbBlockBegin
  2
LCDIM4
 70
     0
 71
     0
 10
0.0
 20
0.0
 30
0.0
  3
LCDIM4
  1

  4
LCDIM4
  0
LINE
  5
4A6
330
4A3
100
AcDbEntity
  8
LC-008-003-MTH-0
 62
     7
370
    25
100
AcDbLine
 10
513.34781
 20
1475.81002
 30
0.0
 11
513.34781
 21
1335.0
 31
0.0
  0
LINE
  5
4A7
330
4A3
100
AcDbEntity
  8
LC-008-003-MTH-0
 62
     7
370
    25
100
AcDbLine
 10
863.709701
 20
1787.31002
 30
0.0
 11
863.709701
 21
1335.0
 31
0.0
  0
LINE
  5
4A8
330
4A3
100
AcDbEntity
  8
LC-009-003-MTG-0
 62
     7
370
    25
100
AcDbLine
 10
513.34781
 20
1350.0
 30
0.0
 11
863.709701
 21
1350.0
 31
0.0
  0
LINE
  5
4A9
330
4A3
100
AcDbEntity
  8
LC-010-003-----0
 62
     7
370
    25
100
AcDbLine
 10
538.133932
 20
1353.263155
 30
0.0
 11
513.34781
 21
1350.0
 31
0.0
  0
LINE
  5
4AA
330
4A3
100
AcDbEntity
  8
LC-010-003-----0
 62
     7
370
    25
100
AcDbLine
 10
513.34781
 20
1350.0
 30
0.0
 11
538.133932
 21
1346.736845
 31
0.0
  0
LINE
  5
4AB
330
4A3
100
AcDbEntity
  8
LC-010-003-----0
 62
     7
370
    25
100
AcDbLine
 10
538.133932
 20
1346.736845
 30
0.0
 11
538.133932
 21
1353.263155
 31
0.0
  0
LINE
  5
4AC
330
4A3
100
AcDbEntity
  8
LC-010-003-----0
 62
     7
370
    25
100
AcDbLine
 10
538.18954
 20
1352.414735
 30
0.0
 11
519.84781
 21
1350.0
 31
0.0
  0
LINE
  5
4AD
330
4A3
100
AcDbEntity
  8
LC-010-003-----0
 62
     7
370
    25
100
AcDbLine
 10
519.84781
 20
1350.0
 30
0.0
 11
538.18954
 21
1347.585265
 31
0.0
  0
LINE
  5
4AE
330
4A3
100
AcDbEntity
  8
LC-010-003-----0
 62
     7
370
    25
100
AcDbLine
 10
538.245149
 20
1351.566314
 30
0.0
 11
526.34781
 21
1350.0
 31
0.0
  0
LINE
  5
4AF
330
4A3
100
AcDbEntity
  8
LC-010-003-----0
 62
     7
370
    25
100
AcDbLine
 10
526.34781
 20
1350.0
 30
0.0
 11
538.245149
 21
1348.433686
 31
0.0
  0
LINE
  5
4B0
330
4A3
100
AcDbEntity
  8
LC-010-003-----0
 62
     7
370
    25
100
AcDbLine
 10
538.300757
 20
1350.717894
 30
0.0
 11
532.84781
 21
1350.0
 31
0.0
  0
LINE
  5
4B1
330
4A3
100
AcDbEntity
  8
LC-010-003-----0
 62
     7
370
    25
100
AcDbLine
 10
532.84781
 20
1350.0
 30
0.0
 11
538.300757
 21
1349.282106
 31
0.0
  0
LINE
  5
4B2
330
4A3
100
AcDbEntity
  8
LC-010-003-----0
 62
     7
370
    25
100
AcDbLine
 10
838.923579
 20
1346.736845
 30
0.0
 11
863.709701
 21
1350.0
 31
0.0
  0
LINE
  5
4B3
330
4A3
100
AcDbEntity
  8
LC-010-003-----0
 62
     7
370
    25
100
AcDbLine
 10
863.709701
 20
1350.0
 30
0.0
 11
838.923579
 21
1353.263155
 31
0.0
  0
LINE
  5
4B4
330
4A3
100
AcDbEntity
  8
LC-010-003-----0
 62
     7
370
    25
100
AcDbLine
 10
838.923579
 20
1353.263155
 30
0.0
 11
838.923579
 21
1346.736845
 31
0.0
  0
LINE
  5
4B5
330
4A3
100
AcDbEntity
  8
LC-010-003-----0
 62
     7
370
    25
100
AcDbLine
 10
838.86797
 20
1347.585265
 30
0.0
 11
857.2097
 21
1350.0
 31
0.0
  0
LINE
  5
4B6
330
4A3
100
AcDbEntity
  8
LC-010-003-----0
 62
     7
370
    25
100
AcDbLine
 10
857.2097
 20
1350.0
 30
0.0
 11
838.86797
 21
1352.414735
 31
0.0
  0
LINE
  5
4B7
330
4A3
100
AcDbEntity
  8
LC-010-003-----0
 62
     7
370
    25
100
AcDbLine
 10
838.812362
 20
1348.433686
 30
0.0
 11
850.7097
 21
1350.0
 31
0.0
  0
LINE
  5
4B8
330
4A3
100
AcDbEntity
  8
LC-010-003-----0
 62
     7
370
    25
100
AcDbLine
 10
850.7097
 20
1350.0
 30
0.0
 11
838.812362
 21
1351.566314
 31
0.0
  0
LINE
  5
4B9
330
4A3
100
AcDbEntity
  8
LC-010-003-----0
 62
     7
370
    25
100
AcDbLine
 10
838.756753
 20
1349.282106
 30
0.0
 11
844.2097
 21
1350.0
 31
0.0
  0
LINE
  5
4BA
330
4A3
100
AcDbEntity
  8
LC-010-003-----0
 62
     7
370
    25
100
AcDbLine
 10
844.2097
 20
1350.0
 30
0.0
 11
838.756753
 21
1350.717894
 31
0.0
  0
TEXT
  5
4BB
330
4A3
100
AcDbEntity
  8
LC-010-003-----0
 62
     7
370
    25
100
AcDbText
 10
663.528755
 20
1365.0
 30
0.0
 40
25.0
  1
350
 41
0.7
  7
LCTX0-400-0-0pDIN-Schrift
 72
     1
 11
688.528755
 21
1365.0
 31
0.0
100
AcDbText
  0
ENDBLK
  5
4A5
330
4A3
100
AcDbEntity
  8
0
100
AcDbBlockEnd
  0
BLOCK
  5
4C8
330
4C7
100
AcDbEntity
  8
0
100
AcDbBlockBegin
  2
*X420
 70
     1
 71
     0
 10
0.0
 20
0.0
 30
0.0
  3
*X420
  1

  4
*X4
  0
LINE
  5
4CA
330
4C7
100
AcDbEntity
  8
LC-006-005-----0
 62
     7
370
    25
100
AcDbLine
 10
291.28442
 20
2115.619916
 30
0.0
 11
318.191166
 21
2142.526661
 31
0.0
  0
LINE
  5
4CB
330
4C7
100
AcDbEntity
  8
LC-006-005-----0
 62
     7
370
    25
100
AcDbLine
 10
278.229935
 20
2144.991838
 30
0.0
 11
323.174087
 21
2189.93599
 31
0.0
  0
LINE
  5
4CC
330
4C7
100
AcDbEntity
  8
LC-006-005-----0
 62
     7
370
    25
100
AcDbLine
 10
283.212856
 20
2192.401166
 30
0.0
 11
328.157008
 21
2237.345318
 31
0.0
  0
LINE
  5
4CD
330
4C7
100
AcDbEntity
  8
LC-006-005-----0
 62
     7
370
    25
100
AcDbLine
 10
478.092174
 20
2387.280484
 30
0.0
 11
481.966897
 21
2391.155206
 31
0.0
  0
LINE
  5
4CE
330
4C7
100
AcDbEntity
  8
LC-006-005-----0
 62
     7
370
    25
100
AcDbLine
 10
288.195778
 20
2239.810494
 30
0.0
 11
333.13993
 21
2284.754646
 31
0.0
  0
LINE
  5
4CF
330
4C7
100
AcDbEntity
  8
LC-006-005-----0
 62
     7
370
    25
100
AcDbLine
 10
435.665767
 20
2387.280484
 30
0.0
 11
469.905204
 21
2421.51992
 31
0.0
  0
LINE
  5
4D0
330
4C7
100
AcDbEntity
  8
LC-006-005-----0
 62
     7
370
    25
100
AcDbLine
 10
293.178699
 20
2287.219822
 30
0.0
 11
338.122851
 21
2332.163974
 31
0.0
  0
LINE
  5
4D1
330
4C7
100
AcDbEntity
  8
LC-006-005-----0
 62
     7
370
    25
100
AcDbLine
 10
383.239361
 20
2377.280484
 30
0.0
 11
428.239361
 21
2422.280484
 31
0.0
  0
LINE
  5
4D2
330
4C7
100
AcDbEntity
  8
LC-006-005-----0
 62
     7
370
    25
100
AcDbLine
 10
298.16162
 20
2334.62915
 30
0.0
 11
385.812954
 21
2422.280484
 31
0.0
  0
LINE
  5
4D3
330
4C7
100
AcDbEntity
  8
LC-006-005-----0
 62
     7
370
    25
100
AcDbLine
 10
303.144541
 20
2382.038478
 30
0.0
 11
343.386547
 21
2422.280484
 31
0.0
  0
ENDBLK
  5
4C9
330
4C7
100
AcDbEntity
  8
0
100
AcDbBlockEnd
  0
BLOCK
  5
4D7
330
4D6
100
AcDbEntity
  8
0
100
AcDbBlockBegin
  2
LCDIM5
 70
     0
 71
     0
 10
0.0
 20
0.0
 30
0.0
  3
LCDIM5
  1

  4
LCDIM5
  0
LINE
  5
4D9
330
4D6
100
AcDbEntity
  8
LC-008-003-MTH-0
 62
     7
370
    25
100
AcDbLine
 10
1391.153309
 20
2450.03
 30
0.0
 11
1335.0
 21
2450.03
 31
0.0
  0
LINE
  5
4DA
330
4D6
100
AcDbEntity
  8
LC-008-003-MTH-0
 62
     7
370
    25
100
AcDbLine
 10
1391.153309
 20
2690.03
 30
0.0
 11
1335.0
 21
2690.03
 31
0.0
  0
LINE
  5
4DB
330
4D6
100
AcDbEntity
  8
LC-009-003-MTG-0
 62
     7
370
    25
100
AcDbLine
 10
1350.0
 20
2450.03
 30
0.0
 11
1350.0
 21
2690.03
 31
0.0
  0
LINE
  5
4DC
330
4D6
100
AcDbEntity
  8
LC-010-003-----0
 62
     7
370
    25
100
AcDbLine
 10
1346.736845
 20
2474.816122
 30
0.0
 11
1350.0
 21
2450.03
 31
0.0
  0
LINE
  5
4DD
330
4D6
100
AcDbEntity
  8
LC-010-003-----0
 62
     7
370
    25
100
AcDbLine
 10
1350.0
 20
2450.03
 30
0.0
 11
1353.263155
 21
2474.816122
 31
0.0
  0
LINE
  5
4DE
330
4D6
100
AcDbEntity
  8
LC-010-003-----0
 62
     7
370
    25
100
AcDbLine
 10
1353.263155
 20
2474.816122
 30
0.0
 11
1346.736845
 21
2474.816122
 31
0.0
  0
LINE
  5
4DF
330
4D6
100
AcDbEntity
  8
LC-010-003-----0
 62
     7
370
    25
100
AcDbLine
 10
1347.585265
 20
2474.87173
 30
0.0
 11
1350.0
 21
2456.53
 31
0.0
  0
LINE
  5
4E0
330
4D6
100
AcDbEntity
  8
LC-010-003-----0
 62
     7
370
    25
100
AcDbLine
 10
1350.0
 20
2456.53
 30
0.0
 11
1352.414735
 21
2474.87173
 31
0.0
  0
LINE
  5
4E1
330
4D6
100
AcDbEntity
  8
LC-010-003-----0
 62
     7
370
    25
100
AcDbLine
 10
1348.433686
 20
2474.927339
 30
0.0
 11
1350.0
 21
2463.03
 31
0.0
  0
LINE
  5
4E2
330
4D6
100
AcDbEntity
  8
LC-010-003-----0
 62
     7
370
    25
100
AcDbLine
 10
1350.0
 20
2463.03
 30
0.0
 11
1351.566314
 21
2474.927339
 31
0.0
  0
LINE
  5
4E3
330
4D6
100
AcDbEntity
  8
LC-010-003-----0
 62
     7
370
    25
100
AcDbLine
 10
1349.282106
 20
2474.982947
 30
0.0
 11
1350.0
 21
2469.53
 31
0.0
  0
LINE
  5
4E4
330
4D6
100
AcDbEntity
  8
LC-010-003-----0
 62
     7
370
    25
100
AcDbLine
 10
1350.0
 20
2469.53
 30
0.0
 11
1350.717894
 21
2474.982947
 31
0.0
  0
LINE
  5
4E5
330
4D6
100
AcDbEntity
  8
LC-010-003-----0
 62
     7
370
    25
100
AcDbLine
 10
1353.263155
 20
2665.243878
 30
0.0
 11
1350.0
 21
2690.03
 31
0.0
  0
LINE
  5
4E6
330
4D6
100
AcDbEntity
  8
LC-010-003-----0
 62
     7
370
    25
100
AcDbLine
 10
1350.0
 20
2690.03
 30
0.0
 11
1346.736845
 21
2665.243878
 31
0.0
  0
LINE
  5
4E7
330
4D6
100
AcDbEntity
  8
LC-010-003-----0
 62
     7
370
    25
100
AcDbLine
 10
1346.736845
 20
2665.243878
 30
0.0
 11
1353.263155
 21
2665.243878
 31
0.0
  0
LINE
  5
4E8
330
4D6
100
AcDbEntity
  8
LC-010-003-----0
 62
     7
370
    25
100
AcDbLine
 10
1352.414735
 20
2665.18827
 30
0.0
 11
1350.0
 21
2683.53
 31
0.0
  0
LINE
  5
4E9
330
4D6
100
AcDbEntity
  8
LC-010-003-----0
 62
     7
370
    25
100
AcDbLine
 10
1350.0
 20
2683.53
 30
0.0
 11
1347.585265
 21
2665.18827
 31
0.0
  0
LINE
  5
4EA
330
4D6
100
AcDbEntity
  8
LC-010-003-----0
 62
     7
370
    25
100
AcDbLine
 10
1351.566314
 20
2665.132661
 30
0.0
 11
1350.0
 21
2677.03
 31
0.0
  0
LINE
  5
4EB
330
4D6
100
AcDbEntity
  8
LC-010-003-----0
 62
     7
370
    25
100
AcDbLine
 10
1350.0
 20
2677.03
 30
0.0
 11
1348.433686
 21
2665.132661
 31
0.0
  0
LINE
  5
4EC
330
4D6
100
AcDbEntity
  8
LC-010-003-----0
 62
     7
370
    25
100
AcDbLine
 10
1350.717894
 20
2665.077053
 30
0.0
 11
1350.0
 21
2670.53
 31
0.0
  0
LINE
  5
4ED
330
4D6
100
AcDbEntity
  8
LC-010-003-----0
 62
     7
370
    25
100
AcDbLine
 10
1350.0
 20
2670.53
 30
0.0
 11
1349.282106
 21
2665.077053
 31
0.0
  0
TEXT
  5
4EE
330
4D6
100
AcDbEntity
  8
LC-010-003-----0
 62
     7
370
    25
100
AcDbText
 10
1335.0
 20
2545.03
 30
0.0
 40
25.0
  1
240
 50
90.0
 41
0.7
  7
LCTX0-400-0-0pDIN-Schrift
 72
     1
 11
1335.0
 21
2570.03
 31
0.0
100
AcDbText
  0
ENDBLK
  5
4D8
330
4D6
100
AcDbEntity
  8
0
100
AcDbBlockEnd
  0
BLOCK
  5
4FA
330
4F9
100
AcDbEntity
  8
0
100
AcDbBlockBegin
  2
LCDIM6
 70
     0
 71
     0
 10
0.0
 20
0.0
 30
0.0
  3
LCDIM6
  1

  4
LCDIM6
  0
LINE
  5
4FC
330
4F9
100
AcDbEntity
  8
LC-008-003-MTH-0
 62
     7
370
    25
100
AcDbLine
 10
1573.969497
 20
914.345683
 30
0.0
 11
1665.0
 21
914.345683
 31
0.0
  0
LINE
  5
4FD
330
4F9
100
AcDbEntity
  8
LC-008-003-MTH-0
 62
     7
370
    25
100
AcDbLine
 10
1573.969497
 20
1128.345683
 30
0.0
 11
1665.0
 21
1128.345683
 31
0.0
  0
LINE
  5
4FE
330
4F9
100
AcDbEntity
  8
LC-009-003-MTG-0
 62
     7
370
    25
100
AcDbLine
 10
1650.0
 20
914.345683
 30
0.0
 11
1650.0
 21
1128.345683
 31
0.0
  0
LINE
  5
4FF
330
4F9
100
AcDbEntity
  8
LC-010-003-----0
 62
     7
370
    25
100
AcDbLine
 10
1646.736845
 20
939.131805
 30
0.0
 11
1650.0
 21
914.345683
 31
0.0
  0
LINE
  5
500
330
4F9
100
AcDbEntity
  8
LC-010-003-----0
 62
     7
370
    25
100
AcDbLine
 10
1650.0
 20
914.345683
 30
0.0
 11
1653.263155
 21
939.131805
 31
0.0
  0
LINE
  5
501
330
4F9
100
AcDbEntity
  8
LC-010-003-----0
 62
     7
370
    25
100
AcDbLine
 10
1653.263155
 20
939.131805
 30
0.0
 11
1646.736845
 21
939.131805
 31
0.0
  0
LINE
  5
502
330
4F9
100
AcDbEntity
  8
LC-010-003-----0
 62
     7
370
    25
100
AcDbLine
 10
1647.585265
 20
939.187413
 30
0.0
 11
1650.0
 21
920.845683
 31
0.0
  0
LINE
  5
503
330
4F9
100
AcDbEntity
  8
LC-010-003-----0
 62
     7
370
    25
100
AcDbLine
 10
1650.0
 20
920.845683
 30
0.0
 11
1652.414735
 21
939.187413
 31
0.0
  0
LINE
  5
504
330
4F9
100
AcDbEntity
  8
LC-010-003-----0
 62
     7
370
    25
100
AcDbLine
 10
1648.433686
 20
939.243021
 30
0.0
 11
1650.0
 21
927.345683
 31
0.0
  0
LINE
  5
505
330
4F9
100
AcDbEntity
  8
LC-010-003-----0
 62
     7
370
    25
100
AcDbLine
 10
1650.0
 20
927.345683
 30
0.0
 11
1651.566314
 21
939.243021
 31
0.0
  0
LINE
  5
506
330
4F9
100
AcDbEntity
  8
LC-010-003-----0
 62
     7
370
    25
100
AcDbLine
 10
1649.282106
 20
939.29863
 30
0.0
 11
1650.0
 21
933.845683
 31
0.0
  0
LINE
  5
507
330
4F9
100
AcDbEntity
  8
LC-010-003-----0
 62
     7
370
    25
100
AcDbLine
 10
1650.0
 20
933.845683
 30
0.0
 11
1650.717894
 21
939.29863
 31
0.0
  0
LINE
  5
508
330
4F9
100
AcDbEntity
  8
LC-010-003-----0
 62
     7
370
    25
100
AcDbLine
 10
1653.263155
 20
1103.559561
 30
0.0
 11
1650.0
 21
1128.345683
 31
0.0
  0
LINE
  5
509
330
4F9
100
AcDbEntity
  8
LC-010-003-----0
 62
     7
370
    25
100
AcDbLine
 10
1650.0
 20
1128.345683
 30
0.0
 11
1646.736845
 21
1103.559561
 31
0.0
  0
LINE
  5
50A
330
4F9
100
AcDbEntity
  8
LC-010-003-----0
 62
     7
370
    25
100
AcDbLine
 10
1646.736845
 20
1103.559561
 30
0.0
 11
1653.263155
 21
1103.559561
 31
0.0
  0
LINE
  5
50B
330
4F9
100
AcDbEntity
  8
LC-010-003-----0
 62
     7
370
    25
100
AcDbLine
 10
1652.414735
 20
1103.503952
 30
0.0
 11
1650.0
 21
1121.845683
 31
0.0
  0
LINE
  5
50C
330
4F9
100
AcDbEntity
  8
LC-010-003-----0
 62
     7
370
    25
100
AcDbLine
 10
1650.0
 20
1121.845683
 30
0.0
 11
1647.585265
 21
1103.503952
 31
0.0
  0
LINE
  5
50D
330
4F9
100
AcDbEntity
  8
LC-010-003-----0
 62
     7
370
    25
100
AcDbLine
 10
1651.566314
 20
1103.448344
 30
0.0
 11
1650.0
 21
1115.345682
 31
0.0
  0
LINE
  5
50E
330
4F9
100
AcDbEntity
  8
LC-010-003-----0
 62
     7
370
    25
100
AcDbLine
 10
1650.0
 20
1115.345682
 30
0.0
 11
1648.433686
 21
1103.448344
 31
0.0
  0
LINE
  5
50F
330
4F9
100
AcDbEntity
  8
LC-010-003-----0
 62
     7
370
    25
100
AcDbLine
 10
1650.717894
 20
1103.392736
 30
0.0
 11
1650.0
 21
1108.845682
 31
0.0
  0
LINE
  5
510
330
4F9
100
AcDbEntity
  8
LC-010-003-----0
 62
     7
370
    25
100
AcDbLine
 10
1650.0
 20
1108.845682
 30
0.0
 11
1649.282106
 21
1103.392736
 31
0.0
  0
TEXT
  5
511
330
4F9
100
AcDbEntity
  8
LC-010-003-----0
 62
     7
370
    25
100
AcDbText
 10
1635.0
 20
997.662745
 30
0.0
 40
25.0
  1
428
 50
90.0
 41
0.7
  7
LCTX0-400-0-0pDIN-Schrift
 72
     1
 11
1635.0
 21
1022.662745
 31
0.0
100
AcDbText
  0
ENDBLK
  5
4FB
330
4F9
100
AcDbEntity
  8
0
100
AcDbBlockEnd
  0
BLOCK
  5
514
330
513
100
AcDbEntity
  8
0
100
AcDbBlockBegin
  2
LCDIM7
 70
     0
 71
     0
 10
0.0
 20
0.0
 30
0.0
  3
LCDIM7
  1

  4
LCDIM7
  0
TEXT
  5
516
330
513
100
AcDbEntity
  8
LC-010-003-----0
 62
     7
370
    25
100
AcDbText
 10
1228.2735
 20
960.680855
 30
0.0
 40
25.0
  1
R15
 50
29.649017
 41
0.7
  7
LCTX0-400-0-0pDIN-Schrift
100
AcDbText
  0
LINE
  5
517
330
513
100
AcDbEntity
  8
LC-009-003-MTG-0
 62
     7
370
    25
100
AcDbLine
 10
1263.866246
 20
963.680856
 30
0.0
 11
1183.851457
 21
918.135541
 31
0.0
  0
LINE
  5
518
330
513
100
AcDbEntity
  8
LC-010-003-----0
 62
     7
370
    25
100
AcDbLine
 10
1203.778147
 20
933.232794
 30
0.0
 11
1183.851457
 21
918.135541
 31
0.0
  0
LINE
  5
519
330
513
100
AcDbEntity
  8
LC-010-003-----0
 62
     7
370
    25
100
AcDbLine
 10
1183.851457
 20
918.135541
 30
0.0
 11
1207.006618
 21
927.560961
 31
0.0
  0
LINE
  5
51A
330
513
100
AcDbEntity
  8
LC-010-003-----0
 62
     7
370
    25
100
AcDbLine
 10
1207.006618
 20
927.560961
 30
0.0
 11
1203.778147
 21
933.232794
 31
0.0
  0
LINE
  5
51B
330
513
100
AcDbEntity
  8
LC-010-003-----0
 62
     7
370
    25
100
AcDbLine
 10
1204.246175
 20
932.522964
 30
0.0
 11
1189.500425
 21
921.350997
 31
0.0
  0
LINE
  5
51C
330
513
100
AcDbEntity
  8
LC-010-003-----0
 62
     7
370
    25
100
AcDbLine
 10
1189.500425
 20
921.350997
 30
0.0
 11
1206.635244
 21
928.325808
 31
0.0
  0
LINE
  5
51D
330
513
100
AcDbEntity
  8
LC-010-003-----0
 62
     7
370
    25
100
AcDbLine
 10
1204.714204
 20
931.813135
 30
0.0
 11
1195.149393
 21
924.566453
 31
0.0
  0
LINE
  5
51E
330
513
100
AcDbEntity
  8
LC-010-003-----0
 62
     7
370
    25
100
AcDbLine
 10
1195.149393
 20
924.566453
 30
0.0
 11
1206.263871
 21
929.090655
 31
0.0
  0
LINE
  5
51F
330
513
100
AcDbEntity
  8
LC-010-003-----0
 62
     7
370
    25
100
AcDbLine
 10
1205.182233
 20
931.103305
 30
0.0
 11
1200.798362
 21
927.781909
 31
0.0
  0
LINE
  5
520
330
513
100
AcDbEntity
  8
LC-010-003-----0
 62
     7
370
    25
100
AcDbLine
 10
1200.798362
 20
927.781909
 30
0.0
 11
1205.892497
 21
929.855502
 31
0.0
  0
ENDBLK
  5
515
330
513
100
AcDbEntity
  8
0
100
AcDbBlockEnd
  0
BLOCK
  5
523
330
522
100
AcDbEntity
  8
0
100
AcDbBlockBegin
  2
LCDIM8
 70
     0
 71
     0
 10
0.0
 20
0.0
 30
0.0
  3
LCDIM8
  1

  4
LCDIM8
  0
LINE
  5
525
330
522
100
AcDbEntity
  8
LC-008-003-MTH-0
 62
     7
370
    25
100
AcDbLine
 10
1182.869497
 20
921.845683
 30
0.0
 11
1182.869497
 21
835.0
 31
0.0
  0
LINE
  5
526
330
522
100
AcDbEntity
  8
LC-008-003-MTH-0
 62
     7
370
    25
100
AcDbLine
 10
1573.869497
 20
921.845683
 30
0.0
 11
1573.869497
 21
835.0
 31
0.0
  0
LINE
  5
527
330
522
100
AcDbEntity
  8
LC-009-003-MTG-0
 62
     7
370
    25
100
AcDbLine
 10
1182.869497
 20
850.0
 30
0.0
 11
1573.869497
 21
850.0
 31
0.0
  0
LINE
  5
528
330
522
100
AcDbEntity
  8
LC-010-003-----0
 62
     7
370
    25
100
AcDbLine
 10
1207.655619
 20
853.263155
 30
0.0
 11
1182.869497
 21
850.0
 31
0.0
  0
LINE
  5
529
330
522
100
AcDbEntity
  8
LC-010-003-----0
 62
     7
370
    25
100
AcDbLine
 10
1182.869497
 20
850.0
 30
0.0
 11
1207.655619
 21
846.736845
 31
0.0
  0
LINE
  5
52A
330
522
100
AcDbEntity
  8
LC-010-003-----0
 62
     7
370
    25
100
AcDbLine
 10
1207.655619
 20
846.736845
 30
0.0
 11
1207.655619
 21
853.263155
 31
0.0
  0
LINE
  5
52B
330
522
100
AcDbEntity
  8
LC-010-003-----0
 62
     7
370
    25
100
AcDbLine
 10
1207.711228
 20
852.414735
 30
0.0
 11
1189.369497
 21
850.0
 31
0.0
  0
LINE
  5
52C
330
522
100
AcDbEntity
  8
LC-010-003-----0
 62
     7
370
    25
100
AcDbLine
 10
1189.369497
 20
850.0
 30
0.0
 11
1207.711228
 21
847.585265
 31
0.0
  0
LINE
  5
52D
330
522
100
AcDbEntity
  8
LC-010-003-----0
 62
     7
370
    25
100
AcDbLine
 10
1207.766836
 20
851.566314
 30
0.0
 11
1195.869497
 21
850.0
 31
0.0
  0
LINE
  5
52E
330
522
100
AcDbEntity
  8
LC-010-003-----0
 62
     7
370
    25
100
AcDbLine
 10
1195.869497
 20
850.0
 30
0.0
 11
1207.766836
 21
848.433686
 31
0.0
  0
LINE
  5
52F
330
522
100
AcDbEntity
  8
LC-010-003-----0
 62
     7
370
    25
100
AcDbLine
 10
1207.822444
 20
850.717894
 30
0.0
 11
1202.369497
 21
850.0
 31
0.0
  0
LINE
  5
530
330
522
100
AcDbEntity
  8
LC-010-003-----0
 62
     7
370
    25
100
AcDbLine
 10
1202.369497
 20
850.0
 30
0.0
 11
1207.822444
 21
849.282106
 31
0.0
  0
LINE
  5
531
330
522
100
AcDbEntity
  8
LC-010-003-----0
 62
     7
370
    25
100
AcDbLine
 10
1549.083375
 20
846.736845
 30
0.0
 11
1573.869497
 21
850.0
 31
0.0
  0
LINE
  5
532
330
522
100
AcDbEntity
  8
LC-010-003-----0
 62
     7
370
    25
100
AcDbLine
 10
1573.869497
 20
850.0
 30
0.0
 11
1549.083375
 21
853.263155
 31
0.0
  0
LINE
  5
533
330
522
100
AcDbEntity
  8
LC-010-003-----0
 62
     7
370
    25
100
AcDbLine
 10
1549.083375
 20
853.263155
 30
0.0
 11
1549.083375
 21
846.736845
 31
0.0
  0
LINE
  5
534
330
522
100
AcDbEntity
  8
LC-010-003-----0
 62
     7
370
    25
100
AcDbLine
 10
1549.027767
 20
847.585265
 30
0.0
 11
1567.369497
 21
850.0
 31
0.0
  0
LINE
  5
535
330
522
100
AcDbEntity
  8
LC-010-003-----0
 62
     7
370
    25
100
AcDbLine
 10
1567.369497
 20
850.0
 30
0.0
 11
1549.027767
 21
852.414735
 31
0.0
  0
LINE
  5
536
330
522
100
AcDbEntity
  8
LC-010-003-----0
 62
     7
370
    25
100
AcDbLine
 10
1548.972158
 20
848.433686
 30
0.0
 11
1560.869497
 21
850.0
 31
0.0
  0
LINE
  5
537
330
522
100
AcDbEntity
  8
LC-010-003-----0
 62
     7
370
    25
100
AcDbLine
 10
1560.869497
 20
850.0
 30
0.0
 11
1548.972158
 21
851.566314
 31
0.0
  0
LINE
  5
538
330
522
100
AcDbEntity
  8
LC-010-003-----0
 62
     7
370
    25
100
AcDbLine
 10
1548.91655
 20
849.282106
 30
0.0
 11
1554.369497
 21
850.0
 31
0.0
  0
LINE
  5
539
330
522
100
AcDbEntity
  8
LC-010-003-----0
 62
     7
370
    25
100
AcDbLine
 10
1554.369497
 20
850.0
 30
0.0
 11
1548.91655
 21
850.717894
 31
0.0
  0
TEXT
  5
53A
330
522
100
AcDbEntity
  8
LC-010-003-----0
 62
     7
370
    25
100
AcDbText
 10
1363.269616
 20
865.0
 30
0.0
 40
25.0
  1
782
 41
0.7
  7
LCTX0-400-0-0pDIN-Schrift
 72
     1
 11
1388.269616
 21
865.0
 31
0.0
100
AcDbText
  0
ENDBLK
  5
524
330
522
100
AcDbEntity
  8
0
100
AcDbBlockEnd
  0
BLOCK
  5
53D
330
53C
100
AcDbEntity
  8
0
100
AcDbBlockBegin
  2
LCDIM9
 70
     0
 71
     0
 10
0.0
 20
0.0
 30
0.0
  3
LCDIM9
  1

  4
LCDIM9
  0
LINE
  5
53F
330
53C
100
AcDbEntity
  8
LC-008-003-MTH-0
 62
     7
370
    25
100
AcDbLine
 10
1785.253309
 20
1495.81002
 30
0.0
 11
1915.0
 21
1495.81002
 31
0.0
  0
LINE
  5
540
330
53C
100
AcDbEntity
  8
LC-008-003-MTH-0
 62
     7
370
    25
100
AcDbLine
 10
1810.253309
 20
1964.81002
 30
0.0
 11
1915.0
 21
1964.81002
 31
0.0
  0
LINE
  5
541
330
53C
100
AcDbEntity
  8
LC-009-003-MTG-0
 62
     7
370
    25
100
AcDbLine
 10
1900.0
 20
1495.81002
 30
0.0
 11
1900.0
 21
1964.81002
 31
0.0
  0
LINE
  5
542
330
53C
100
AcDbEntity
  8
LC-010-003-----0
 62
     7
370
    25
100
AcDbLine
 10
1896.736845
 20
1520.596142
 30
0.0
 11
1900.0
 21
1495.81002
 31
0.0
  0
LINE
  5
543
330
53C
100
AcDbEntity
  8
LC-010-003-----0
 62
     7
370
    25
100
AcDbLine
 10
1900.0
 20
1495.81002
 30
0.0
 11
1903.263155
 21
1520.596142
 31
0.0
  0
LINE
  5
544
330
53C
100
AcDbEntity
  8
LC-010-003-----0
 62
     7
370
    25
100
AcDbLine
 10
1903.263155
 20
1520.596142
 30
0.0
 11
1896.736845
 21
1520.596142
 31
0.0
  0
LINE
  5
545
330
53C
100
AcDbEntity
  8
LC-010-003-----0
 62
     7
370
    25
100
AcDbLine
 10
1897.585265
 20
1520.651751
 30
0.0
 11
1900.0
 21
1502.310021
 31
0.0
  0
LINE
  5
546
330
53C
100
AcDbEntity
  8
LC-010-003-----0
 62
     7
370
    25
100
AcDbLine
 10
1900.0
 20
1502.310021
 30
0.0
 11
1902.414735
 21
1520.651751
 31
0.0
  0
LINE
  5
547
330
53C
100
AcDbEntity
  8
LC-010-003-----0
 62
     7
370
    25
100
AcDbLine
 10
1898.433686
 20
1520.707359
 30
0.0
 11
1900.0
 21
1508.810021
 31
0.0
  0
LINE
  5
548
330
53C
100
AcDbEntity
  8
LC-010-003-----0
 62
     7
370
    25
100
AcDbLine
 10
1900.0
 20
1508.810021
 30
0.0
 11
1901.566314
 21
1520.707359
 31
0.0
  0
LINE
  5
549
330
53C
100
AcDbEntity
  8
LC-010-003-----0
 62
     7
370
    25
100
AcDbLine
 10
1899.282106
 20
1520.762968
 30
0.0
 11
1900.0
 21
1515.310021
 31
0.0
  0
LINE
  5
54A
330
53C
100
AcDbEntity
  8
LC-010-003-----0
 62
     7
370
    25
100
AcDbLine
 10
1900.0
 20
1515.310021
 30
0.0
 11
1900.717894
 21
1520.762968
 31
0.0
  0
LINE
  5
54B
330
53C
100
AcDbEntity
  8
LC-010-003-----0
 62
     7
370
    25
100
AcDbLine
 10
1903.263155
 20
1940.023899
 30
0.0
 11
1900.0
 21
1964.81002
 31
0.0
  0
LINE
  5
54C
330
53C
100
AcDbEntity
  8
LC-010-003-----0
 62
     7
370
    25
100
AcDbLine
 10
1900.0
 20
1964.81002
 30
0.0
 11
1896.736845
 21
1940.023899
 31
0.0
  0
LINE
  5
54D
330
53C
100
AcDbEntity
  8
LC-010-003-----0
 62
     7
370
    25
100
AcDbLine
 10
1896.736845
 20
1940.023899
 30
0.0
 11
1903.263155
 21
1940.023899
 31
0.0
  0
LINE
  5
54E
330
53C
100
AcDbEntity
  8
LC-010-003-----0
 62
     7
370
    25
100
AcDbLine
 10
1902.414735
 20
1939.96829
 30
0.0
 11
1900.0
 21
1958.31002
 31
0.0
  0
LINE
  5
54F
330
53C
100
AcDbEntity
  8
LC-010-003-----0
 62
     7
370
    25
100
AcDbLine
 10
1900.0
 20
1958.31002
 30
0.0
 11
1897.585265
 21
1939.96829
 31
0.0
  0
LINE
  5
550
330
53C
100
AcDbEntity
  8
LC-010-003-----0
 62
     7
370
    25
100
AcDbLine
 10
1901.566314
 20
1939.912682
 30
0.0
 11
1900.0
 21
1951.81002
 31
0.0
  0
LINE
  5
551
330
53C
100
AcDbEntity
  8
LC-010-003-----0
 62
     7
370
    25
100
AcDbLine
 10
1900.0
 20
1951.81002
 30
0.0
 11
1898.433686
 21
1939.912682
 31
0.0
  0
LINE
  5
552
330
53C
100
AcDbEntity
  8
LC-010-003-----0
 62
     7
370
    25
100
AcDbLine
 10
1900.717894
 20
1939.857073
 30
0.0
 11
1900.0
 21
1945.31002
 31
0.0
  0
LINE
  5
553
330
53C
100
AcDbEntity
  8
LC-010-003-----0
 62
     7
370
    25
100
AcDbLine
 10
1900.0
 20
1945.31002
 30
0.0
 11
1899.282106
 21
1939.857073
 31
0.0
  0
TEXT
  5
554
330
53C
100
AcDbEntity
  8
LC-010-003-----0
 62
     7
370
    25
100
AcDbText
 10
1885.0
 20
1695.370684
 30
0.0
 40
25.0
  1
469
 50
90.0
 41
0.7
  7
LCTX0-400-0-0pDIN-Schrift
 72
     1
 11
1885.0
 21
1719.954017
 31
0.0
100
AcDbText
  0
ENDBLK
  5
53E
330
53C
100
AcDbEntity
  8
0
100
AcDbBlockEnd
  0
ENDSEC
  0
SECTION
  2
ENTITIES
  0
INSERT
  5
105
330
1F
100
AcDbEntity
  8
LC-003-230-ZVN-0
 62
     7
370
    25
100
AcDbBlockReference
  2
SYM1
 10
0.0
 20
0.0
 30
0.0
  0
LINE
  5
106
102
{ACAD_REACTORS
330
55E
102
}
330
1F
100
AcDbEntity
  8
LC-002-002-----0
 62
     7
370
    50
100
AcDbLine
 10
761.402679
 20
1862.31002
 30
0.0
 11
750.521044
 21
1862.31002
 31
0.0
  0
ARC
  5
108
330
1F
100
AcDbEntity
  8
LC-004-002-RND-0
 62
     7
370
    50
100
AcDbCircle
 10
1566.369497
 20
921.845683
 30
0.0
 40
7.5
100
AcDbArc
 50
270.0
 51
0.0
  0
LINE
  5
109
102
{ACAD_REACTORS
330
55E
102
}
330
1F
100
AcDbEntity
  8
LC-002-002-----0
 62
     7
370
    50
100
AcDbLine
 10
750.521044
 20
1862.31002
 30
0.0
 11
750.521044
 21
1772.31002
 31
0.0
  0
ARC
  5
10A
330
1F
100
AcDbEntity
  8
LC-004-002-RND-0
 62
     7
370
    50
100
AcDbCircle
 10
1566.369497
 20
1120.845683
 30
0.0
 40
7.5
100
AcDbArc
 50
0.0
 51
90.0
  0
LINE
  5
10B
102
{ACAD_REACTORS
330
55E
102
}
330
1F
100
AcDbEntity
  8
LC-002-002-----0
 62
     7
370
    50
100
AcDbLine
 10
761.402679
 20
1772.31002
 30
0.0
 11
750.521044
 21
1772.31002
 31
0.0
  0
LINE
  5
10C
102
{ACAD_REACTORS
330
55F
102
}
330
1F
100
AcDbEntity
  8
LC-002-002-----0
 62
     7
370
    50
100
AcDbLine
 10
1775.253309
 20
1934.81002
 30
0.0
 11
1775.253309
 21
1540.81002
 31
0.0
  0
LINE
  5
10D
102
{ACAD_REACTORS
330
55F
102
}
330
1F
100
AcDbEntity
  8
LC-002-002-----0
 62
     7
370
    50
100
AcDbLine
 10
1765.253309
 20
1944.81002
 30
0.0
 11
1017.053309
 21
1944.81002
 31
0.0
  0
LINE
  5
10E
102
{ACAD_REACTORS
330
55F
102
}
330
1F
100
AcDbEntity
  8
LC-002-002-----0
 62
     7
370
    50
100
AcDbLine
 10
1765.253309
 20
1530.81002
 30
0.0
 11
1017.053309
 21
1530.81002
 31
0.0
  0
ARC
  5
10F
102
{ACAD_REACTORS
330
55F
102
}
330
1F
100
AcDbEntity
  8
LC-004-002-RND-0
 62
     7
370
    50
100
AcDbCircle
 10
1017.053309
 20
1934.81002
 30
0.0
 40
10.0
100
AcDbArc
 50
90.0
 51
180.0
  0
ARC
  5
110
102
{ACAD_REACTORS
330
55F
102
}
330
1F
100
AcDbEntity
  8
LC-004-002-RND-0
 62
     7
370
    50
100
AcDbCircle
 10
1017.053309
 20
1540.81002
 30
0.0
 40
10.0
100
AcDbArc
 50
180.0
 51
270.0
  0
ARC
  5
111
102
{ACAD_REACTORS
330
55F
102
}
330
1F
100
AcDbEntity
  8
LC-004-002-RND-0
 62
     7
370
    50
100
AcDbCircle
 10
1765.253309
 20
1540.81002
 30
0.0
 40
10.0
100
AcDbArc
 50
270.0
 51
0.0
  0
ARC
  5
112
102
{ACAD_REACTORS
330
55F
102
}
330
1F
100
AcDbEntity
  8
LC-004-002-RND-0
 62
     7
370
    50
100
AcDbCircle
 10
1765.253309
 20
1934.81002
 30
0.0
 40
10.0
100
AcDbArc
 50
0.0
 51
90.0
  0
LINE
  5
113
102
{ACAD_REACTORS
330
55F
102
}
330
1F
100
AcDbEntity
  8
LC-002-002-----0
 62
     7
370
    50
100
AcDbLine
 10
1007.053309
 20
1540.81002
 30
0.0
 11
1007.053309
 21
1934.81002
 31
0.0
  0
LINE
  5
114
330
1F
100
AcDbEntity
  8
LC-002-002-----0
 62
     7
370
    50
100
AcDbLine
 10
506.34781
 20
1964.81002
 30
0.0
 11
515.34781
 21
1964.81002
 31
0.0
  0
LINE
  5
115
102
{ACAD_REACTORS
330
55D
102
}
330
1F
100
AcDbEntity
  8
LC-002-002-----0
 62
     7
370
    50
100
AcDbLine
 10
341.874146
 20
2612.280484
 30
0.0
 11
341.874146
 21
2422.280484
 31
0.0
  0
LINE
  5
116
102
{ACAD_REACTORS
330
55D
102
}
330
1F
100
AcDbEntity
  8
LC-002-002-----0
 62
     7
370
    50
100
AcDbLine
 10
341.874146
 20
2612.280484
 30
0.0
 11
567.008645
 21
2612.280484
 31
0.0
  0
LINE
  5
117
102
{ACAD_REACTORS
330
55D
102
}
330
1F
100
AcDbEntity
  8
LC-002-002-----0
 62
     7
370
    50
100
AcDbLine
 10
341.874146
 20
2422.280484
 30
0.0
 11
567.008645
 21
2422.280484
 31
0.0
  0
TEXT
  5
119
330
1F
100
AcDbEntity
  8
LC-005-004-----0
 62
     7
370
    35
100
AcDbText
 10
561.300788
 20
2692.114354
 30
0.0
 40
35.0
  1
Z 1:2
 41
0.8
  7
LCTX0-400-0-0pDIN-Schrift
100
AcDbText
  0
INSERT
  5
208
330
1F
100
AcDbEntity
  8
LC-006-005-----0
 62
     7
370
    18
100
AcDbBlockReference
  2
*X12
 10
0.0
 20
0.0
 30
0.0
  0
TEXT
  5
209
330
1F
100
AcDbEntity
  8
LC-005-004-----0
 62
     7
370
    25
100
AcDbText
 10
1257.518666
 20
477.939631
 30
0.0
 40
25.0
  1
Art. Nr. 177
 41
0.8
  7
LCTX0-400-0-0pDIN-Schrift
100
AcDbText
  0
LINE
  5
20A
102
{ACAD_REACTORS
330
55E
102
}
330
1F
100
AcDbEntity
  8
LC-002-002-----0
 62
     7
370
    50
100
AcDbLine
 10
513.34781
 20
1495.81002
 30
0.0
 11
509.034225
 21
1496.263397
 31
0.0
  0
ARC
  5
20B
102
{ACAD_REACTORS
330
55E
102
}
330
1F
100
AcDbEntity
  8
LC-002-002-----0
 62
     7
370
    50
100
AcDbCircle
 10
509.34781
 20
1947.511233
 30
0.0
 40
3.000000000000455
100
AcDbArc
 50
180.0
 51
264.0
  0
LINE
  5
20C
102
{ACAD_REACTORS
330
55E
102
}
330
1F
100
AcDbEntity
  8
LC-002-002-----0
 62
     7
370
    50
100
AcDbLine
 10
509.034225
 20
1944.527667
 30
0.0
 11
730.397824
 21
1921.261415
 31
0.0
  0
LINE
  5
20D
102
{ACAD_REACTORS
330
55E
102
}
330
1F
100
AcDbEntity
  8
LC-002-002-----0
 62
     7
370
    50
100
AcDbLine
 10
746.293216
 20
1875.851735
 30
0.0
 11
744.703441
 21
1906.18644
 31
0.0
  0
ARC
  5
20E
102
{ACAD_REACTORS
330
55E
102
}
330
1F
100
AcDbEntity
  8
LC-002-002-----0
 62
     7
370
    50
100
AcDbCircle
 10
747.491571
 20
1875.914538
 30
0.0
 40
1.199999999999695
100
AcDbArc
 50
183.0
 51
265.0
  0
LINE
  5
20F
102
{ACAD_REACTORS
330
55E
102
}
330
1F
100
AcDbEntity
  8
LC-002-002-----0
 62
     7
370
    50
100
AcDbLine
 10
747.583403
 20
1874.70192
 30
0.0
 11
747.386985
 21
1874.719104
 31
0.0
  0
ARC
  5
210
102
{ACAD_REACTORS
330
55E
102
}
330
1F
100
AcDbEntity
  8
LC-002-002-----0
 62
     7
370
    50
100
AcDbCircle
 10
747.496247
 20
1873.705725
 30
0.0
 40
0.9999999999996769
100
AcDbArc
 50
10.0
 51
85.0
  0
LINE
  5
211
102
{ACAD_REACTORS
330
55E
102
}
330
1F
100
AcDbEntity
  8
LC-002-002-----0
 62
     7
370
    50
100
AcDbLine
 10
750.521044
 20
1862.31002
 30
0.0
 11
748.481055
 21
1873.879374
 31
0.0
  0
LINE
  5
212
102
{ACAD_REACTORS
330
55E
102
}
330
1F
100
AcDbEntity
  8
LC-002-002-----0
 62
     7
370
    50
100
AcDbLine
 10
750.521044
 20
1772.31002
 30
0.0
 11
748.481055
 21
1760.740667
 31
0.0
  0
ARC
  5
213
102
{ACAD_REACTORS
330
55E
102
}
330
1F
100
AcDbEntity
  8
LC-002-002-----0
 62
     7
370
    50
100
AcDbCircle
 10
747.496247
 20
1760.914316
 30
0.0
 40
1.000000000000067
100
AcDbArc
 50
275.0
 51
350.0
  0
LINE
  5
214
102
{ACAD_REACTORS
330
55E
102
}
330
1F
100
AcDbEntity
  8
LC-002-002-----0
 62
     7
370
    50
100
AcDbLine
 10
747.583403
 20
1759.918121
 30
0.0
 11
747.386985
 21
1759.900936
 31
0.0
  0
ARC
  5
215
102
{ACAD_REACTORS
330
55E
102
}
330
1F
100
AcDbEntity
  8
LC-002-002-----0
 62
     7
370
    50
100
AcDbCircle
 10
747.491571
 20
1758.705503
 30
0.0
 40
1.199999999999702
100
AcDbArc
 50
95.0
 51
177.0
  0
LINE
  5
216
102
{ACAD_REACTORS
330
55E
102
}
330
1F
100
AcDbEntity
  8
LC-002-002-----0
 62
     7
370
    50
100
AcDbLine
 10
746.293216
 20
1758.768306
 30
0.0
 11
736.324451
 21
1568.552934
 31
0.0
  0
LINE
  5
217
102
{ACAD_REACTORS
330
55E
102
}
330
1F
100
AcDbEntity
  8
LC-002-002-----0
 62
     7
370
    50
100
AcDbLine
 10
509.034225
 20
1531.092374
 30
0.0
 11
722.018834
 21
1553.477958
 31
0.0
  0
ARC
  5
218
102
{ACAD_REACTORS
330
55E
102
}
330
1F
100
AcDbEntity
  8
LC-002-002-----0
 62
     7
370
    50
100
AcDbCircle
 10
509.34781
 20
1528.108808
 30
0.0
 40
3.000000000000016
100
AcDbArc
 50
96.0
 51
180.0
  0
ARC
  5
219
102
{ACAD_REACTORS
330
55E
102
}
330
1F
100
AcDbEntity
  8
LC-002-002-----0
 62
     7
370
    50
100
AcDbCircle
 10
509.34781
 20
1499.246962
 30
0.0
 40
3.0
100
AcDbArc
 50
180.0
 51
264.0
  0
ARC
  5
21A
102
{ACAD_REACTORS
330
55E
102
}
330
1F
100
AcDbEntity
  8
LC-004-002-RND-0
 62
     7
370
    50
100
AcDbCircle
 10
759.749245
 20
1748.022122
 30
0.0
 40
4.999999999999924
100
AcDbArc
 50
115.0
 51
177.0
  0
ARC
  5
21B
102
{ACAD_REACTORS
330
55E
102
}
330
1F
100
AcDbEntity
  8
LC-004-002-RND-0
 62
     7
370
    50
100
AcDbCircle
 10
728.725369
 20
1905.349065
 30
0.0
 40
16.00000000000007
100
AcDbArc
 50
3.0
 51
84.0
  0
LINE
  5
21C
102
{ACAD_REACTORS
330
55E
102
}
330
1F
100
AcDbEntity
  8
LC-002-002-----0
 62
     7
370
    50
100
AcDbLine
 10
515.34781
 20
1956.410169
 30
0.0
 11
515.34781
 21
1964.81002
 31
0.0
  0
LINE
  5
21D
102
{ACAD_REACTORS
330
55E
102
}
330
1F
100
AcDbEntity
  8
LC-002-002-----0
 62
     7
370
    50
100
AcDbLine
 10
519.825168
 20
1951.437559
 30
0.0
 11
731.391569
 21
1929.201035
 31
0.0
  0
ARC
  5
21E
102
{ACAD_REACTORS
330
55E
102
}
330
1F
100
AcDbEntity
  8
LC-004-002-RND-0
 62
     7
370
    50
100
AcDbCircle
 10
520.34781
 20
1956.410169
 30
0.0
 40
4.999999999999545
100
AcDbArc
 50
180.0
 51
264.0
  0
ARC
  5
21F
102
{ACAD_REACTORS
330
55E
102
}
330
1F
100
AcDbEntity
  8
LC-004-002-RND-0
 62
     7
370
    50
100
AcDbCircle
 10
728.778357
 20
1904.337987
 30
0.0
 40
25.00000000000005
100
AcDbArc
 50
3.0
 51
84.0
  0
LINE
  5
220
102
{ACAD_REACTORS
330
55E
102
}
330
1F
100
AcDbEntity
  8
LC-002-002-----0
 62
     7
370
    50
100
AcDbLine
 10
513.34781
 20
1495.81002
 30
0.0
 11
513.34781
 21
1508.31002
 31
0.0
  0
LINE
  5
221
102
{ACAD_REACTORS
330
55E
102
}
330
1F
100
AcDbEntity
  8
LC-002-002-----0
 62
     7
370
    50
100
AcDbLine
 10
515.34781
 20
1508.31002
 30
0.0
 11
515.34781
 21
1519.209872
 31
0.0
  0
LINE
  5
222
102
{ACAD_REACTORS
330
55E
102
}
330
1F
100
AcDbEntity
  8
LC-002-002-----0
 62
     7
370
    50
100
AcDbLine
 10
519.825168
 20
1524.182482
 30
0.0
 11
723.012578
 21
1545.538339
 31
0.0
  0
ARC
  5
223
102
{ACAD_REACTORS
330
55E
102
}
330
1F
100
AcDbEntity
  8
LC-004-002-RND-0
 62
     7
370
    50
100
AcDbCircle
 10
520.34781
 20
1519.209872
 30
0.0
 40
4.999999999999965
100
AcDbArc
 50
96.0
 51
180.0
  0
LINE
  5
224
102
{ACAD_REACTORS
330
55E
102
}
330
1F
100
AcDbEntity
  8
LC-002-002-----0
 62
     7
370
    50
100
AcDbLine
 10
513.34781
 20
1508.31002
 30
0.0
 11
515.34781
 21
1508.31002
 31
0.0
  0
LINE
  5
225
102
{ACAD_REACTORS
330
55E
102
}
330
1F
100
AcDbEntity
  8
LC-002-002-----0
 62
     7
370
    50
100
AcDbLine
 10
754.756098
 20
1748.283802
 30
0.0
 11
745.365105
 21
1569.092987
 31
0.0
  0
LINE
  5
226
102
{ACAD_REACTORS
330
55E
102
}
330
1F
100
AcDbEntity
  8
LC-002-002-----0
 62
     7
370
    25
100
AcDbLine
 10
746.34781
 20
1874.81002
 30
0.0
 11
746.34781
 21
1759.81002
 31
0.0
  0
LINE
  5
229
102
{ACAD_REACTORS
330
55E
102
}
330
1F
100
AcDbEntity
  8
LC-007-006-MLN-0
 62
     7
370
    25
100
AcDbLine
 10
764.402679
 20
1817.31002
 30
0.0
 11
743.34781
 21
1817.31002
 31
0.0
  0
LINE
  5
22A
102
{ACAD_REACTORS
330
55E
102
}
330
1F
100
AcDbEntity
  8
LC-002-002-----0
 62
     7
370
    50
100
AcDbLine
 10
506.34781
 20
1964.81002
 30
0.0
 11
506.34781
 21
1499.246962
 31
0.0
  0
ARC
  5
22B
102
{ACAD_REACTORS
330
55E
102
}
330
1F
100
AcDbEntity
  8
LC-004-002-RND-0
 62
     7
370
    50
100
AcDbCircle
 10
759.749245
 20
1886.597919
 30
0.0
 40
5.000000000000018
100
AcDbArc
 50
183.0
 51
245.0
  0
CIRCLE
  5
22C
102
{ACAD_REACTORS
330
55F
102
}
330
1F
100
AcDbEntity
  8
LC-002-002-----0
 62
     7
370
    50
100
AcDbCircle
 10
1391.153309
 20
1817.31002
 30
0.0
 40
45.0
  0
CIRCLE
  5
22D
102
{ACAD_REACTORS
330
55F
102
}
330
1F
100
AcDbEntity
  8
LC-002-002-----0
 62
     7
370
    50
100
AcDbCircle
 10
1391.153309
 20
1817.31002
 30
0.0
 40
57.5
  0
ARC
  5
22E
102
{ACAD_REACTORS
330
55E
102
}
330
1F
100
AcDbEntity
  8
LC-004-002-RND-0
 62
     7
370
    50
100
AcDbCircle
 10
720.399367
 20
1570.401386
 30
0.0
 40
25.00000000000014
100
AcDbArc
 50
276.0
 51
357.0
  0
ARC
  5
22F
102
{ACAD_REACTORS
330
55E
102
}
330
1F
100
AcDbEntity
  8
LC-004-002-RND-0
 62
     7
370
    50
100
AcDbCircle
 10
720.346378
 20
1569.390309
 30
0.0
 40
15.99999999999992
100
AcDbArc
 50
276.0
 51
357.0
  0
ARC
  5
230
102
{ACAD_REACTORS
330
55F
102
}
330
1F
100
AcDbEntity
  8
LC-004-002-RND-0
 62
     7
370
    50
100
AcDbCircle
 10
1785.253309
 20
1520.81002
 30
0.0
 40
25.0
100
AcDbArc
 50
270.0
 51
0.0
  0
LINE
  5
231
102
{ACAD_REACTORS
330
55F
102
}
330
1F
100
AcDbEntity
  8
LC-002-002-----0
 62
     7
370
    50
100
AcDbLine
 10
972.053309
 20
1520.81002
 30
0.0
 11
972.053309
 21
1964.81002
 31
0.0
  0
ARC
  5
232
102
{ACAD_REACTORS
330
55F
102
}
330
1F
100
AcDbEntity
  8
LC-004-002-RND-0
 62
     7
370
    50
100
AcDbCircle
 10
997.053309
 20
1520.81002
 30
0.0
 40
25.0
100
AcDbArc
 50
180.0
 51
270.0
  0
LINE
  5
233
102
{ACAD_REACTORS
330
55F
102
}
330
1F
100
AcDbEntity
  8
LC-002-002-----0
 62
     7
370
    50
100
AcDbLine
 10
1785.253309
 20
1495.81002
 30
0.0
 11
997.053309
 21
1495.81002
 31
0.0
  0
LINE
  5
234
102
{ACAD_REACTORS
330
55F
102
}
330
1F
100
AcDbEntity
  8
LC-002-002-----0
 62
     7
370
    50
100
AcDbLine
 10
1810.253309
 20
1964.81002
 30
0.0
 11
1810.253309
 21
1520.81002
 31
0.0
  0
LINE
  5
235
102
{ACAD_REACTORS
330
55E
102
}
330
1F
100
AcDbEntity
  8
LC-002-002-----0
 62
     7
370
    50
100
AcDbLine
 10
760.247915
 20
1880.848496
 30
0.0
 11
757.636154
 21
1882.06638
 31
0.0
  0
ARC
  5
236
102
{ACAD_REACTORS
330
55E
102
}
330
1F
100
AcDbEntity
  8
LC-004-002-RND-0
 62
     7
370
    50
100
AcDbCircle
 10
759.402679
 20
1879.03588
 30
0.0
 40
2.0
100
AcDbArc
 50
0.0
 51
65.0
  0
LINE
  5
237
102
{ACAD_REACTORS
330
55E
102
}
330
1F
100
AcDbEntity
  8
LC-002-002-----0
 62
     7
370
    50
100
AcDbLine
 10
760.247915
 20
1753.771545
 30
0.0
 11
757.636154
 21
1752.553661
 31
0.0
  0
ARC
  5
238
102
{ACAD_REACTORS
330
55E
102
}
330
1F
100
AcDbEntity
  8
LC-004-002-RND-0
 62
     7
370
    50
100
AcDbCircle
 10
759.402679
 20
1755.584161
 30
0.0
 40
2.000000000000123
100
AcDbArc
 50
295.0
 51
0.0
  0
LINE
  5
239
102
{ACAD_REACTORS
330
55E
102
}
330
1F
100
AcDbEntity
  8
LC-002-002-----0
 62
     7
370
    50
100
AcDbLine
 10
754.756098
 20
1886.336239
 30
0.0
 11
753.744096
 21
1905.646386
 31
0.0
  0
LINE
  5
23A
102
{ACAD_REACTORS
330
558
102
}
330
1F
100
AcDbEntity
  8
LC-002-002-----0
 62
     7
370
    50
100
AcDbLine
 10
972.053309
 20
2683.03
 30
0.0
 11
984.553309
 21
2683.03
 31
0.0
  0
LINE
  5
23B
102
{ACAD_REACTORS
330
558
102
}
330
1F
100
AcDbEntity
  8
LC-002-002-----0
 62
     7
370
    50
100
AcDbLine
 10
1000.42577
 20
2676.552642
 30
0.0
 11
1021.241042
 21
2478.508562
 31
0.0
  0
LINE
  5
23C
102
{ACAD_REACTORS
330
558
102
}
330
1F
100
AcDbEntity
  8
LC-002-002-----0
 62
     7
370
    50
100
AcDbLine
 10
984.553309
 20
2683.03
 30
0.0
 11
984.553309
 21
2681.03
 31
0.0
  0
ARC
  5
23D
102
{ACAD_REACTORS
330
558
102
}
330
1F
100
AcDbEntity
  8
LC-004-002-RND-0
 62
     7
370
    50
100
AcDbCircle
 10
995.453161
 20
2676.03
 30
0.0
 40
5.00000000000006
100
AcDbArc
 50
6.0
 51
90.0
  0
LINE
  5
23E
102
{ACAD_REACTORS
330
558
102
}
330
1F
100
AcDbEntity
  8
LC-002-002-----0
 62
     7
370
    50
100
AcDbLine
 10
984.553309
 20
2681.03
 30
0.0
 11
995.453161
 21
2681.03
 31
0.0
  0
LINE
  5
23F
102
{ACAD_REACTORS
330
558
102
}
330
1F
100
AcDbEntity
  8
LC-007-006-MLN-0
 62
     7
370
    25
100
AcDbLine
 10
1391.153309
 20
2431.975131
 30
0.0
 11
1391.153309
 21
2453.03
 31
0.0
  0
LINE
  5
240
102
{ACAD_REACTORS
330
558
102
}
330
1F
100
AcDbEntity
  8
LC-002-002-----0
 62
     7
370
    50
100
AcDbLine
 10
1322.127091
 20
2441.621712
 30
0.0
 11
1044.79569
 21
2456.156035
 31
0.0
  0
LINE
  5
241
102
{ACAD_REACTORS
330
558
102
}
330
1F
100
AcDbEntity
  8
LC-002-002-----0
 62
     7
370
    50
100
AcDbLine
 10
1460.179528
 20
2441.621712
 30
0.0
 11
1737.510928
 21
2456.156035
 31
0.0
  0
ARC
  5
242
102
{ACAD_REACTORS
330
558
102
}
330
1F
100
AcDbEntity
  8
LC-004-002-RND-0
 62
     7
370
    50
100
AcDbCircle
 10
1460.441208
 20
2436.628565
 30
0.0
 40
5.000000000000042
100
AcDbArc
 50
93.0
 51
155.0
  0
ARC
  5
243
102
{ACAD_REACTORS
330
558
102
}
330
1F
100
AcDbEntity
  8
LC-004-002-RND-0
 62
     7
370
    50
100
AcDbCircle
 10
1321.865411
 20
2436.628565
 30
0.0
 40
5.00000000000013
100
AcDbArc
 50
25.0
 51
87.0
  0
LINE
  5
244
102
{ACAD_REACTORS
330
558
102
}
330
1F
100
AcDbEntity
  8
LC-002-002-----0
 62
     7
370
    50
100
AcDbLine
 10
1781.880848
 20
2676.552642
 30
0.0
 11
1761.065576
 21
2478.508562
 31
0.0
  0
ARC
  5
245
102
{ACAD_REACTORS
330
558
102
}
330
1F
100
AcDbEntity
  8
LC-004-002-RND-0
 62
     7
370
    50
100
AcDbCircle
 10
1045.093012
 20
2481.174762
 30
0.0
 40
15.99999999999993
100
AcDbArc
 50
186.0
 51
267.0
  0
ARC
  5
246
102
{ACAD_REACTORS
330
558
102
}
330
1F
100
AcDbEntity
  8
LC-004-002-RND-0
 62
     7
370
    50
100
AcDbCircle
 10
1046.104089
 20
2481.121774
 30
0.0
 40
25.00000000000002
100
AcDbArc
 50
186.0
 51
267.0
  0
ARC
  5
247
102
{ACAD_REACTORS
330
558
102
}
330
1F
100
AcDbEntity
  8
LC-004-002-RND-0
 62
     7
370
    50
100
AcDbCircle
 10
1736.202529
 20
2481.121774
 30
0.0
 40
24.99999999999977
100
AcDbArc
 50
273.0
 51
354.0
  0
ARC
  5
248
102
{ACAD_REACTORS
330
558
102
}
330
1F
100
AcDbEntity
  8
LC-004-002-RND-0
 62
     7
370
    50
100
AcDbCircle
 10
1737.213607
 20
2481.174762
 30
0.0
 40
15.99999999999996
100
AcDbArc
 50
273.0
 51
354.0
  0
LINE
  5
249
102
{ACAD_REACTORS
330
558
102
}
330
1F
100
AcDbEntity
  8
LC-002-002-----0
 62
     7
370
    50
100
AcDbLine
 10
975.490251
 20
2690.03
 30
0.0
 11
1806.816367
 21
2690.03
 31
0.0
  0
LINE
  5
24A
102
{ACAD_REACTORS
330
558
102
}
330
1F
100
AcDbEntity
  8
LC-002-002-----0
 62
     7
370
    50
100
AcDbLine
 10
1810.253309
 20
2683.03
 30
0.0
 11
1809.799933
 21
2687.343585
 31
0.0
  0
LINE
  5
24B
102
{ACAD_REACTORS
330
558
102
}
330
1F
100
AcDbEntity
  8
LC-002-002-----0
 62
     7
370
    50
100
AcDbLine
 10
972.053309
 20
2683.03
 30
0.0
 11
972.506685
 21
2687.343585
 31
0.0
  0
ARC
  5
24C
102
{ACAD_REACTORS
330
558
102
}
330
1F
100
AcDbEntity
  8
LC-002-002-----0
 62
     7
370
    50
100
AcDbCircle
 10
975.490251
 20
2687.03
 30
0.0
 40
3.0
100
AcDbArc
 50
90.0
 51
174.0
  0
ARC
  5
24D
102
{ACAD_REACTORS
330
558
102
}
330
1F
100
AcDbEntity
  8
LC-002-002-----0
 62
     7
370
    50
100
AcDbCircle
 10
1004.352097
 20
2687.03
 30
0.0
 40
3.000000000000016
100
AcDbArc
 50
6.0
 51
90.0
  0
LINE
  5
24E
102
{ACAD_REACTORS
330
558
102
}
330
1F
100
AcDbEntity
  8
LC-002-002-----0
 62
     7
370
    50
100
AcDbLine
 10
1007.335663
 20
2687.343585
 30
0.0
 11
1029.180661
 21
2479.502307
 31
0.0
  0
LINE
  5
24F
102
{ACAD_REACTORS
330
558
102
}
330
1F
100
AcDbEntity
  8
LC-002-002-----0
 62
     7
370
    50
100
AcDbLine
 10
1332.611595
 20
2450.084594
 30
0.0
 11
1044.255636
 21
2465.196689
 31
0.0
  0
ARC
  5
250
102
{ACAD_REACTORS
330
558
102
}
330
1F
100
AcDbEntity
  8
LC-002-002-----0
 62
     7
370
    50
100
AcDbCircle
 10
1332.548792
 20
2448.886239
 30
0.0
 40
1.199999999999928
100
AcDbArc
 50
5.0
 51
87.0
  0
LINE
  5
251
102
{ACAD_REACTORS
330
558
102
}
330
1F
100
AcDbEntity
  8
LC-002-002-----0
 62
     7
370
    50
100
AcDbLine
 10
1333.76141
 20
2448.794407
 30
0.0
 11
1333.744225
 21
2448.990825
 31
0.0
  0
ARC
  5
252
102
{ACAD_REACTORS
330
558
102
}
330
1F
100
AcDbEntity
  8
LC-002-002-----0
 62
     7
370
    50
100
AcDbCircle
 10
1334.757604
 20
2448.881563
 30
0.0
 40
0.9999999999999554
100
AcDbArc
 50
185.0
 51
260.0
  0
LINE
  5
253
102
{ACAD_REACTORS
330
558
102
}
330
1F
100
AcDbEntity
  8
LC-002-002-----0
 62
     7
370
    50
100
AcDbLine
 10
1346.153309
 20
2445.856766
 30
0.0
 11
1334.583956
 21
2447.896755
 31
0.0
  0
LINE
  5
254
102
{ACAD_REACTORS
330
558
102
}
330
1F
100
AcDbEntity
  8
LC-002-002-----0
 62
     7
370
    50
100
AcDbLine
 10
1436.153309
 20
2445.856766
 30
0.0
 11
1447.722662
 21
2447.896755
 31
0.0
  0
ARC
  5
255
102
{ACAD_REACTORS
330
558
102
}
330
1F
100
AcDbEntity
  8
LC-002-002-----0
 62
     7
370
    50
100
AcDbCircle
 10
1447.549014
 20
2448.881563
 30
0.0
 40
1.000000000000132
100
AcDbArc
 50
280.0
 51
355.0
  0
LINE
  5
256
102
{ACAD_REACTORS
330
558
102
}
330
1F
100
AcDbEntity
  8
LC-002-002-----0
 62
     7
370
    50
100
AcDbLine
 10
1448.545209
 20
2448.794407
 30
0.0
 11
1448.562393
 21
2448.990825
 31
0.0
  0
ARC
  5
257
102
{ACAD_REACTORS
330
558
102
}
330
1F
100
AcDbEntity
  8
LC-002-002-----0
 62
     7
370
    50
100
AcDbCircle
 10
1449.757827
 20
2448.886239
 30
0.0
 40
1.200000000000033
100
AcDbArc
 50
93.0
 51
175.0
  0
LINE
  5
258
102
{ACAD_REACTORS
330
558
102
}
330
1F
100
AcDbEntity
  8
LC-002-002-----0
 62
     7
370
    50
100
AcDbLine
 10
1449.695024
 20
2450.084594
 30
0.0
 11
1738.050982
 21
2465.196689
 31
0.0
  0
LINE
  5
259
102
{ACAD_REACTORS
330
558
102
}
330
1F
100
AcDbEntity
  8
LC-002-002-----0
 62
     7
370
    50
100
AcDbLine
 10
1774.970956
 20
2687.343585
 30
0.0
 11
1753.125957
 21
2479.502307
 31
0.0
  0
ARC
  5
25A
102
{ACAD_REACTORS
330
558
102
}
330
1F
100
AcDbEntity
  8
LC-002-002-----0
 62
     7
370
    50
100
AcDbCircle
 10
1777.954521
 20
2687.03
 30
0.0
 40
3.0
100
AcDbArc
 50
90.0
 51
174.0
  0
ARC
  5
25B
102
{ACAD_REACTORS
330
558
102
}
330
1F
100
AcDbEntity
  8
LC-002-002-----0
 62
     7
370
    50
100
AcDbCircle
 10
1806.816367
 20
2687.03
 30
0.0
 40
3.000000000000016
100
AcDbArc
 50
6.0
 51
90.0
  0
LINE
  5
25C
102
{ACAD_REACTORS
330
558
102
}
330
1F
100
AcDbEntity
  8
LC-002-002-----0
 62
     7
370
    25
100
AcDbLine
 10
1333.653309
 20
2450.03
 30
0.0
 11
1448.653309
 21
2450.03
 31
0.0
  0
LINE
  5
25D
102
{ACAD_REACTORS
330
558
102
}
330
1F
100
AcDbEntity
  8
LC-002-002-----0
 62
     7
370
    50
100
AcDbLine
 10
1346.153309
 20
2445.856766
 30
0.0
 11
1436.153309
 21
2445.856766
 31
0.0
  0
LINE
  5
25E
102
{ACAD_REACTORS
330
558
102
}
330
1F
100
AcDbEntity
  8
LC-002-002-----0
 62
     7
370
    50
100
AcDbLine
 10
1436.153309
 20
2445.856766
 30
0.0
 11
1436.153309
 21
2434.975131
 31
0.0
  0
LINE
  5
25F
102
{ACAD_REACTORS
330
558
102
}
330
1F
100
AcDbEntity
  8
LC-002-002-----0
 62
     7
370
    50
100
AcDbLine
 10
1346.153309
 20
2445.856766
 30
0.0
 11
1346.153309
 21
2434.975131
 31
0.0
  0
LINE
  5
260
102
{ACAD_REACTORS
330
558
102
}
330
1F
100
AcDbEntity
  8
LC-002-002-----0
 62
     7
370
    50
100
AcDbLine
 10
1329.42745
 20
2434.975131
 30
0.0
 11
1452.879169
 21
2434.975131
 31
0.0
  0
LINE
  5
261
102
{ACAD_REACTORS
330
558
102
}
330
1F
100
AcDbEntity
  8
LC-002-002-----0
 62
     7
370
    50
100
AcDbLine
 10
1327.614834
 20
2436.129895
 30
0.0
 11
1326.39695
 21
2438.741656
 31
0.0
  0
ARC
  5
262
102
{ACAD_REACTORS
330
558
102
}
330
1F
100
AcDbEntity
  8
LC-004-002-RND-0
 62
     7
370
    50
100
AcDbCircle
 10
1329.42745
 20
2436.975131
 30
0.0
 40
1.999999999999931
100
AcDbArc
 50
205.0
 51
270.0
  0
LINE
  5
263
102
{ACAD_REACTORS
330
558
102
}
330
1F
100
AcDbEntity
  8
LC-002-002-----0
 62
     7
370
    50
100
AcDbLine
 10
1454.691784
 20
2436.129895
 30
0.0
 11
1455.909669
 21
2438.741656
 31
0.0
  0
ARC
  5
264
102
{ACAD_REACTORS
330
558
102
}
330
1F
100
AcDbEntity
  8
LC-004-002-RND-0
 62
     7
370
    50
100
AcDbCircle
 10
1452.879169
 20
2436.975131
 30
0.0
 40
2.0
100
AcDbArc
 50
270.0
 51
335.0
  0
LINE
  5
265
102
{ACAD_REACTORS
330
558
102
}
330
1F
100
AcDbEntity
  8
LC-002-002-----0
 62
     7
370
    50
100
AcDbLine
 10
1810.253309
 20
2683.03
 30
0.0
 11
1797.753309
 21
2683.03
 31
0.0
  0
LINE
  5
266
102
{ACAD_REACTORS
330
558
102
}
330
1F
100
AcDbEntity
  8
LC-002-002-----0
 62
     7
370
    50
100
AcDbLine
 10
1797.753309
 20
2683.03
 30
0.0
 11
1797.753309
 21
2681.03
 31
0.0
  0
LINE
  5
267
102
{ACAD_REACTORS
330
558
102
}
330
1F
100
AcDbEntity
  8
LC-002-002-----0
 62
     7
370
    50
100
AcDbLine
 10
1797.753309
 20
2681.03
 30
0.0
 11
1786.853458
 21
2681.03
 31
0.0
  0
ARC
  5
268
102
{ACAD_REACTORS
330
558
102
}
330
1F
100
AcDbEntity
  8
LC-004-002-RND-0
 62
     7
370
    50
100
AcDbCircle
 10
1786.853458
 20
2676.03
 30
0.0
 40
4.999999999999545
100
AcDbArc
 50
90.0
 51
174.0
  0
LINE
  5
269
102
{ACAD_REACTORS
330
55E
102
}
330
1F
100
AcDbEntity
  8
LC-002-002-----0
 62
     7
370
    50
100
AcDbLine
 10
761.402679
 20
1879.03588
 30
0.0
 11
761.402679
 21
1755.584161
 31
0.0
  0
LINE
  5
26A
102
{ACAD_REACTORS
330
55B
102
}
330
1F
100
AcDbEntity
  8
LC-002-002-----0
 62
     7
370
    50
100
AcDbLine
 10
1000.153309
 20
2728.03
 30
0.0
 11
1000.153309
 21
2690.03
 31
0.0
  0
LINE
  5
26B
102
{ACAD_REACTORS
330
55B
102
}
330
1F
100
AcDbEntity
  8
LC-002-002-----0
 62
     7
370
    50
100
AcDbLine
 10
1000.153309
 20
2728.03
 30
0.0
 11
920.053309
 21
2728.03
 31
0.0
  0
LINE
  5
26C
102
{ACAD_REACTORS
330
55B
102
}
330
1F
100
AcDbEntity
  8
LC-002-002-----0
 62
     7
370
    50
100
AcDbLine
 10
1000.153309
 20
2690.03
 30
0.0
 11
920.053309
 21
2690.03
 31
0.0
  0
LINE
  5
26D
102
{ACAD_REACTORS
330
55B
102
}
330
1F
100
AcDbEntity
  8
LC-002-002-----0
 62
     7
370
    50
100
AcDbLine
 10
1782.153309
 20
2728.03
 30
0.0
 11
1782.153309
 21
2690.03
 31
0.0
  0
LINE
  5
26E
102
{ACAD_REACTORS
330
55B
102
}
330
1F
100
AcDbEntity
  8
LC-002-002-----0
 62
     7
370
    50
100
AcDbLine
 10
1782.153309
 20
2728.03
 30
0.0
 11
1862.253309
 21
2728.03
 31
0.0
  0
LINE
  5
26F
102
{ACAD_REACTORS
330
55B
102
}
330
1F
100
AcDbEntity
  8
LC-002-002-----0
 62
     7
370
    50
100
AcDbLine
 10
1782.153309
 20
2690.03
 30
0.0
 11
1862.253309
 21
2690.03
 31
0.0
  0
INSERT
  5
2BB
102
{ACAD_REACTORS
330
55B
102
}
330
1F
100
AcDbEntity
  8
LC-006-005-----0
 62
     7
370
    18
100
AcDbBlockReference
  2
*X23
 10
0.0
 20
0.0
 30
0.0
  0
INSERT
  5
307
102
{ACAD_REACTORS
330
55B
102
}
330
1F
100
AcDbEntity
  8
LC-006-005-----0
 62
     7
370
    18
100
AcDbBlockReference
  2
*X34
 10
0.0
 20
0.0
 30
0.0
  0
LINE
  5
308
102
{ACAD_REACTORS
330
55C
102
}
330
1F
100
AcDbEntity
  8
LC-002-002-----0
 62
     7
370
    25
100
AcDbLine
 10
761.402679
 20
1872.31002
 30
0.0
 11
761.402679
 21
1762.31002
 31
0.0
  0
LINE
  5
309
102
{ACAD_REACTORS
330
55C
102
}
330
1F
100
AcDbEntity
  8
LC-002-002-----0
 62
     7
370
    25
100
AcDbLine
 10
765.402679
 20
1762.31002
 30
0.0
 11
761.402679
 21
1762.31002
 31
0.0
  0
LINE
  5
30A
102
{ACAD_REACTORS
330
55C
102
}
330
1F
100
AcDbEntity
  8
LC-002-002-----0
 62
     7
370
    25
100
AcDbLine
 10
804.04536
 20
1779.81002
 30
0.0
 11
804.04536
 21
1854.81002
 31
0.0
  0
LINE
  5
30B
102
{ACAD_REACTORS
330
55C
102
}
330
1F
100
AcDbEntity
  8
LC-002-002-----0
 62
     7
370
    25
100
AcDbLine
 10
801.54536
 20
1777.805057
 30
0.0
 11
801.54536
 21
1856.814984
 31
0.0
  0
LINE
  5
30C
102
{ACAD_REACTORS
330
55C
102
}
330
1F
100
AcDbEntity
  8
LC-002-002-----0
 62
     7
370
    25
100
AcDbLine
 10
765.402679
 20
1762.31002
 30
0.0
 11
765.402679
 21
1872.31002
 31
0.0
  0
LINE
  5
30D
102
{ACAD_REACTORS
330
55C
102
}
330
1F
100
AcDbEntity
  8
LC-002-002-----0
 62
     7
370
    25
100
AcDbLine
 10
801.54536
 20
1854.81002
 30
0.0
 11
804.04536
 21
1854.81002
 31
0.0
  0
LINE
  5
30E
102
{ACAD_REACTORS
330
55C
102
}
330
1F
100
AcDbEntity
  8
LC-002-002-----0
 62
     7
370
    25
100
AcDbLine
 10
797.215585
 20
1774.560631
 30
0.0
 11
796.205237
 21
1772.810656
 31
0.0
  0
LINE
  5
30F
102
{ACAD_REACTORS
330
55C
102
}
330
1F
100
AcDbEntity
  8
LC-002-002-----0
 62
     7
370
    25
100
AcDbLine
 10
801.54536
 20
1779.81002
 30
0.0
 11
804.04536
 21
1779.81002
 31
0.0
  0
LINE
  5
310
102
{ACAD_REACTORS
330
55C
102
}
330
1F
100
AcDbEntity
  8
LC-002-002-----0
 62
     7
370
    25
100
AcDbLine
 10
791.008718
 20
1769.81002
 30
0.0
 11
775.54536
 21
1769.81002
 31
0.0
  0
LINE
  5
311
102
{ACAD_REACTORS
330
55C
102
}
330
1F
100
AcDbEntity
  8
LC-002-002-----0
 62
     7
370
    25
100
AcDbLine
 10
765.862902
 20
1762.31002
 30
0.0
 11
765.402679
 21
1762.31002
 31
0.0
  0
ARC
  5
312
102
{ACAD_REACTORS
330
55C
102
}
330
1F
100
AcDbEntity
  8
LC-002-002-----0
 62
     7
370
    25
100
AcDbCircle
 10
775.54536
 20
1765.81002
 30
0.0
 40
4.0
100
AcDbArc
 50
90.0
 51
165.507853
  0
ARC
  5
313
102
{ACAD_REACTORS
330
55C
102
}
330
1F
100
AcDbEntity
  8
LC-002-002-----0
 62
     7
370
    25
100
AcDbCircle
 10
765.862902
 20
1768.31002
 30
0.0
 40
6.0
100
AcDbArc
 50
270.0
 51
345.530548
  0
ARC
  5
314
102
{ACAD_REACTORS
330
55C
102
}
330
1F
100
AcDbEntity
  8
LC-002-002-----0
 62
     7
370
    25
100
AcDbCircle
 10
791.008718
 20
1775.81002
 30
0.0
 40
6.0
100
AcDbArc
 50
270.0
 51
330.011524
  0
ARC
  5
315
102
{ACAD_REACTORS
330
55C
102
}
330
1F
100
AcDbEntity
  8
LC-002-002-----0
 62
     7
370
    25
100
AcDbCircle
 10
801.54536
 20
1772.06002
 30
0.0
 40
5.000000000000481
100
AcDbArc
 50
97.927775
 51
149.983847
  0
ARC
  5
316
102
{ACAD_REACTORS
330
55C
102
}
330
1F
100
AcDbEntity
  8
LC-002-002-----0
 62
     7
370
    25
100
AcDbCircle
 10
801.54536
 20
1862.56002
 30
0.0
 40
4.999999999999975
100
AcDbArc
 50
236.045368
 51
262.072225
  0
ARC
  5
317
102
{ACAD_REACTORS
330
55C
102
}
330
1F
100
AcDbEntity
  8
LC-002-002-----0
 62
     7
370
    25
100
AcDbCircle
 10
800.74536
 20
1777.804583
 30
0.0
 40
0.8000000000001064
100
AcDbArc
 50
277.937394
 51
0.0
  0
ARC
  5
318
102
{ACAD_REACTORS
330
55C
102
}
330
1F
100
AcDbEntity
  8
LC-002-002-----0
 62
     7
370
    25
100
AcDbCircle
 10
800.74536
 20
1856.815458
 30
0.0
 40
0.8000000000001819
100
AcDbArc
 50
0.0
 51
82.062606
  0
INSERT
  5
322
102
{ACAD_REACTORS
330
55C
102
}
330
1F
100
AcDbEntity
  8
LC-002-002-----0
 62
     7
370
    25
100
AcDbBlockReference
  2
POLY1
 10
0.0
 20
0.0
 30
0.0
  0
INSERT
  5
32C
102
{ACAD_REACTORS
330
55C
102
}
330
1F
100
AcDbEntity
  8
LC-002-002-----0
 62
     7
370
    25
100
AcDbBlockReference
  2
POLY2
 10
0.0
 20
0.0
 30
0.0
  0
INSERT
  5
33A
102
{ACAD_REACTORS
330
55C
102
}
330
1F
100
AcDbEntity
  8
LC-002-002-----0
 62
     7
370
    25
100
AcDbBlockReference
  2
POLY3
 10
0.0
 20
0.0
 30
0.0
  0
INSERT
  5
348
102
{ACAD_REACTORS
330
55C
102
}
330
1F
100
AcDbEntity
  8
LC-002-002-----0
 62
     7
370
    25
100
AcDbBlockReference
  2
POLY4
 10
0.0
 20
0.0
 30
0.0
  0
INSERT
  5
358
102
{ACAD_REACTORS
330
55C
102
}
330
1F
100
AcDbEntity
  8
LC-002-002-----0
 62
     7
370
    25
100
AcDbBlockReference
  2
POLY5
 10
0.0
 20
0.0
 30
0.0
  0
INSERT
  5
366
102
{ACAD_REACTORS
330
55C
102
}
330
1F
100
AcDbEntity
  8
LC-002-002-----0
 62
     7
370
    25
100
AcDbBlockReference
  2
POLY6
 10
0.0
 20
0.0
 30
0.0
  0
LINE
  5
367
102
{ACAD_REACTORS
330
55C
102
}
330
1F
100
AcDbEntity
  8
LC-002-002-----0
 62
     7
370
    25
100
AcDbLine
 10
775.54536
 20
1862.345633
 30
0.0
 11
783.652679
 21
1862.345633
 31
0.0
  0
LINE
  5
368
102
{ACAD_REACTORS
330
55C
102
}
330
1F
100
AcDbEntity
  8
LC-002-002-----0
 62
     7
370
    25
100
AcDbLine
 10
765.402679
 20
1872.31002
 30
0.0
 11
761.402679
 21
1872.31002
 31
0.0
  0
ARC
  5
369
102
{ACAD_REACTORS
330
55C
102
}
330
1F
100
AcDbEntity
  8
LC-002-002-----0
 62
     7
370
    25
100
AcDbCircle
 10
836.004907
 20
1817.31002
 30
0.0
 40
22.0
100
AcDbArc
 50
270.0
 51
90.0
  0
LINE
  5
36A
102
{ACAD_REACTORS
330
55C
102
}
330
1F
100
AcDbEntity
  8
LC-002-002-----0
 62
     7
370
    25
100
AcDbLine
 10
836.004907
 20
1839.31002
 30
0.0
 11
822.313723
 21
1839.31002
 31
0.0
  0
LINE
  5
36B
102
{ACAD_REACTORS
330
55C
102
}
330
1F
100
AcDbEntity
  8
LC-002-002-----0
 62
     7
370
    25
100
AcDbLine
 10
836.004907
 20
1795.31002
 30
0.0
 11
822.313723
 21
1795.31002
 31
0.0
  0
LINE
  5
36C
102
{ACAD_REACTORS
330
55C
102
}
330
1F
100
AcDbEntity
  8
LC-002-002-----0
 62
     7
370
    25
100
AcDbLine
 10
814.503741
 20
1789.021081
 30
0.0
 11
811.884877
 21
1788.542635
 31
0.0
  0
ARC
  5
36D
102
{ACAD_REACTORS
330
55C
102
}
330
1F
100
AcDbEntity
  8
LC-002-002-----0
 62
     7
370
    25
100
AcDbCircle
 10
813.33555
 20
1795.415245
 30
0.0
 40
6.500000000000338
100
AcDbArc
 50
280.354177
 51
340.92296
  0
ARC
  5
36E
102
{ACAD_REACTORS
330
55C
102
}
330
1F
100
AcDbEntity
  8
LC-002-002-----0
 62
     7
370
    25
100
AcDbCircle
 10
822.313723
 20
1792.31002
 30
0.0
 40
3.0
100
AcDbArc
 50
90.0
 51
160.944552
  0
ARC
  5
36F
102
{ACAD_REACTORS
330
55C
102
}
330
1F
100
AcDbEntity
  8
LC-002-002-----0
 62
     7
370
    25
100
AcDbCircle
 10
804.748605
 20
1783.811883
 30
0.0
 40
2.0
100
AcDbArc
 50
270.0
 51
295.847369
  0
ARC
  5
370
102
{ACAD_REACTORS
330
55C
102
}
330
1F
100
AcDbEntity
  8
LC-002-002-----0
 62
     7
370
    25
100
AcDbCircle
 10
803.004907
 20
1787.411816
 30
0.0
 40
6.000000000000013
100
AcDbArc
 50
295.844972
 51
343.716483
  0
ARC
  5
371
102
{ACAD_REACTORS
330
55C
102
}
330
1F
100
AcDbEntity
  8
LC-002-002-----0
 62
     7
370
    25
100
AcDbCircle
 10
812.603723
 20
1784.607758
 30
0.0
 40
3.99999999999998
100
AcDbArc
 50
100.352952
 51
163.718249
  0
LINE
  5
372
102
{ACAD_REACTORS
330
55C
102
}
330
1F
100
AcDbEntity
  8
LC-002-002-----0
 62
     7
370
    25
100
AcDbLine
 10
814.503741
 20
1845.59896
 30
0.0
 11
811.884877
 21
1846.077406
 31
0.0
  0
ARC
  5
373
102
{ACAD_REACTORS
330
55C
102
}
330
1F
100
AcDbEntity
  8
LC-002-002-----0
 62
     7
370
    25
100
AcDbCircle
 10
813.33555
 20
1839.204796
 30
0.0
 40
6.499999999999427
100
AcDbArc
 50
19.07704
 51
79.645823
  0
ARC
  5
374
102
{ACAD_REACTORS
330
55C
102
}
330
1F
100
AcDbEntity
  8
LC-002-002-----0
 62
     7
370
    25
100
AcDbCircle
 10
822.313723
 20
1842.31002
 30
0.0
 40
2.999999995700102
100
AcDbArc
 50
199.055448
 51
270.0
  0
ARC
  5
375
102
{ACAD_REACTORS
330
55C
102
}
330
1F
100
AcDbEntity
  8
LC-002-002-----0
 62
     7
370
    25
100
AcDbCircle
 10
804.748605
 20
1850.808158
 30
0.0
 40
1.999999999999977
100
AcDbArc
 50
64.152631
 51
90.0
  0
ARC
  5
376
102
{ACAD_REACTORS
330
55C
102
}
330
1F
100
AcDbEntity
  8
LC-002-002-----0
 62
     7
370
    25
100
AcDbCircle
 10
803.004907
 20
1847.208225
 30
0.0
 40
5.999999999999409
100
AcDbArc
 50
16.283517
 51
64.155028
  0
ARC
  5
377
102
{ACAD_REACTORS
330
55C
102
}
330
1F
100
AcDbEntity
  8
LC-002-002-----0
 62
     7
370
    25
100
AcDbCircle
 10
812.603723
 20
1850.012283
 30
0.0
 40
4.000000000000497
100
AcDbArc
 50
196.281751
 51
259.647048
  0
LINE
  5
378
102
{ACAD_REACTORS
330
55C
102
}
330
1F
100
AcDbEntity
  8
LC-002-002-----0
 62
     7
370
    25
100
AcDbLine
 10
886.22394
 20
1839.880234
 30
0.0
 11
885.631815
 21
1841.017694
 31
0.0
  0
LINE
  5
379
102
{ACAD_REACTORS
330
55C
102
}
330
1F
100
AcDbEntity
  8
LC-002-002-----0
 62
     7
370
    25
100
AcDbLine
 10
883.91494
 20
1839.880234
 30
0.0
 11
883.322815
 21
1841.017694
 31
0.0
  0
LINE
  5
37A
102
{ACAD_REACTORS
330
55C
102
}
330
1F
100
AcDbEntity
  8
LC-002-002-----0
 62
     7
370
    25
100
AcDbLine
 10
881.60594
 20
1839.880234
 30
0.0
 11
881.013815
 21
1841.017694
 31
0.0
  0
LINE
  5
37B
102
{ACAD_REACTORS
330
55C
102
}
330
1F
100
AcDbEntity
  8
LC-002-002-----0
 62
     7
370
    25
100
AcDbLine
 10
879.29694
 20
1839.880234
 30
0.0
 11
878.704815
 21
1841.017694
 31
0.0
  0
LINE
  5
37C
102
{ACAD_REACTORS
330
55C
102
}
330
1F
100
AcDbEntity
  8
LC-002-002-----0
 62
     7
370
    25
100
AcDbLine
 10
885.068999
 20
1793.602347
 30
0.0
 11
884.476875
 21
1794.739807
 31
0.0
  0
LINE
  5
37D
102
{ACAD_REACTORS
330
55C
102
}
330
1F
100
AcDbEntity
  8
LC-002-002-----0
 62
     7
370
    25
100
AcDbLine
 10
882.759999
 20
1793.602347
 30
0.0
 11
882.167875
 21
1794.739807
 31
0.0
  0
LINE
  5
37E
102
{ACAD_REACTORS
330
55C
102
}
330
1F
100
AcDbEntity
  8
LC-002-002-----0
 62
     7
370
    25
100
AcDbLine
 10
880.450999
 20
1793.602347
 30
0.0
 11
879.858875
 21
1794.739807
 31
0.0
  0
LINE
  5
37F
102
{ACAD_REACTORS
330
55C
102
}
330
1F
100
AcDbEntity
  8
LC-002-002-----0
 62
     7
370
    25
100
AcDbLine
 10
878.141999
 20
1793.602347
 30
0.0
 11
877.549875
 21
1794.739807
 31
0.0
  0
LINE
  5
380
102
{ACAD_REACTORS
330
55C
102
}
330
1F
100
AcDbEntity
  8
LC-002-002-----0
 62
     7
370
    25
100
AcDbLine
 10
856.004907
 20
1839.71002
 30
0.0
 11
877.268907
 21
1839.71002
 31
0.0
  0
LINE
  5
381
102
{ACAD_REACTORS
330
55C
102
}
330
1F
100
AcDbEntity
  8
LC-002-002-----0
 62
     7
370
    25
100
AcDbLine
 10
886.504907
 20
1839.71002
 30
0.0
 11
887.004907
 21
1839.71002
 31
0.0
  0
LINE
  5
382
102
{ACAD_REACTORS
330
55C
102
}
330
1F
100
AcDbEntity
  8
LC-002-002-----0
 62
     7
370
    25
100
AcDbLine
 10
887.004907
 20
1794.91002
 30
0.0
 11
887.004907
 21
1839.71002
 31
0.0
  0
LINE
  5
383
102
{ACAD_REACTORS
330
55C
102
}
330
1F
100
AcDbEntity
  8
LC-002-002-----0
 62
     7
370
    25
100
AcDbLine
 10
856.004907
 20
1794.91002
 30
0.0
 11
877.268907
 21
1794.91002
 31
0.0
  0
LINE
  5
384
102
{ACAD_REACTORS
330
55C
102
}
330
1F
100
AcDbEntity
  8
LC-002-002-----0
 62
     7
370
    25
100
AcDbLine
 10
886.504907
 20
1794.91002
 30
0.0
 11
887.004907
 21
1794.91002
 31
0.0
  0
LINE
  5
385
102
{ACAD_REACTORS
330
55C
102
}
330
1F
100
AcDbEntity
  8
LC-002-002-----0
 62
     7
370
    25
100
AcDbLine
 10
856.004907
 20
1839.71002
 30
0.0
 11
856.004907
 21
1836.481759
 31
0.0
  0
LINE
  5
386
102
{ACAD_REACTORS
330
55C
102
}
330
1F
100
AcDbEntity
  8
LC-002-002-----0
 62
     7
370
    25
100
AcDbLine
 10
854.358367
 20
1838.06348
 30
0.0
 11
856.004647
 21
1839.70976
 31
0.0
  0
LINE
  5
387
102
{ACAD_REACTORS
330
55C
102
}
330
1F
100
AcDbEntity
  8
LC-002-002-----0
 62
     7
370
    25
100
AcDbLine
 10
878.141999
 20
1841.017694
 30
0.0
 11
877.549875
 21
1839.880234
 31
0.0
  0
LINE
  5
388
102
{ACAD_REACTORS
330
55C
102
}
330
1F
100
AcDbEntity
  8
LC-002-002-----0
 62
     7
370
    25
100
AcDbLine
 10
880.450999
 20
1841.017694
 30
0.0
 11
879.858875
 21
1839.880234
 31
0.0
  0
LINE
  5
389
102
{ACAD_REACTORS
330
55C
102
}
330
1F
100
AcDbEntity
  8
LC-002-002-----0
 62
     7
370
    25
100
AcDbLine
 10
882.759999
 20
1841.017694
 30
0.0
 11
882.167875
 21
1839.880234
 31
0.0
  0
LINE
  5
38A
102
{ACAD_REACTORS
330
55C
102
}
330
1F
100
AcDbEntity
  8
LC-002-002-----0
 62
     7
370
    25
100
AcDbLine
 10
885.068999
 20
1841.017694
 30
0.0
 11
884.476875
 21
1839.880234
 31
0.0
  0
LINE
  5
38B
102
{ACAD_REACTORS
330
55C
102
}
330
1F
100
AcDbEntity
  8
LC-002-002-----0
 62
     7
370
    25
100
AcDbLine
 10
879.29694
 20
1794.739807
 30
0.0
 11
878.704815
 21
1793.602347
 31
0.0
  0
LINE
  5
38C
102
{ACAD_REACTORS
330
55C
102
}
330
1F
100
AcDbEntity
  8
LC-002-002-----0
 62
     7
370
    25
100
AcDbLine
 10
881.60594
 20
1794.739807
 30
0.0
 11
881.013815
 21
1793.602347
 31
0.0
  0
LINE
  5
38D
102
{ACAD_REACTORS
330
55C
102
}
330
1F
100
AcDbEntity
  8
LC-002-002-----0
 62
     7
370
    25
100
AcDbLine
 10
883.91494
 20
1794.739807
 30
0.0
 11
883.322815
 21
1793.602347
 31
0.0
  0
LINE
  5
38E
102
{ACAD_REACTORS
330
55C
102
}
330
1F
100
AcDbEntity
  8
LC-002-002-----0
 62
     7
370
    25
100
AcDbLine
 10
886.22394
 20
1794.739807
 30
0.0
 11
885.631815
 21
1793.602347
 31
0.0
  0
ARC
  5
38F
102
{ACAD_REACTORS
330
55C
102
}
330
1F
100
AcDbEntity
  8
LC-002-002-----0
 62
     7
370
    25
100
AcDbCircle
 10
877.268907
 20
1794.59302
 30
0.0
 40
0.3169999999998827
100
AcDbArc
 50
27.63954
 51
90.0
  0
ARC
  5
390
102
{ACAD_REACTORS
330
55C
102
}
330
1F
100
AcDbEntity
  8
LC-002-002-----0
 62
     7
370
    25
100
AcDbCircle
 10
877.268907
 20
1840.02702
 30
0.0
 40
0.3170000000000073
100
AcDbArc
 50
270.0
 51
332.432823
  0
ARC
  5
391
102
{ACAD_REACTORS
330
55C
102
}
330
1F
100
AcDbEntity
  8
LC-002-002-----0
 62
     7
370
    25
100
AcDbCircle
 10
878.423407
 20
1793.748288
 30
0.0
 40
0.3170000000000652
100
AcDbArc
 50
207.317979
 51
332.682021
  0
ARC
  5
392
102
{ACAD_REACTORS
330
55C
102
}
330
1F
100
AcDbEntity
  8
LC-002-002-----0
 62
     7
370
    25
100
AcDbCircle
 10
878.423407
 20
1840.871753
 30
0.0
 40
0.3169999999997632
100
AcDbArc
 50
27.394588
 51
152.605412
  0
ARC
  5
393
102
{ACAD_REACTORS
330
55C
102
}
330
1F
100
AcDbEntity
  8
LC-002-002-----0
 62
     7
370
    25
100
AcDbCircle
 10
879.577907
 20
1840.02702
 30
0.0
 40
0.3169999999999208
100
AcDbArc
 50
207.567177
 51
332.432823
  0
ARC
  5
394
102
{ACAD_REACTORS
330
55C
102
}
330
1F
100
AcDbEntity
  8
LC-002-002-----0
 62
     7
370
    25
100
AcDbCircle
 10
879.577907
 20
1794.59302
 30
0.0
 40
0.3169999999998827
100
AcDbArc
 50
27.63954
 51
152.36046
  0
ARC
  5
395
102
{ACAD_REACTORS
330
55C
102
}
330
1F
100
AcDbEntity
  8
LC-002-002-----0
 62
     7
370
    25
100
AcDbCircle
 10
880.732407
 20
1793.748288
 30
0.0
 40
0.3170000000002672
100
AcDbArc
 50
207.317979
 51
332.682021
  0
ARC
  5
396
102
{ACAD_REACTORS
330
55C
102
}
330
1F
100
AcDbEntity
  8
LC-002-002-----0
 62
     7
370
    25
100
AcDbCircle
 10
880.732407
 20
1840.871753
 30
0.0
 40
0.3169999999999503
100
AcDbArc
 50
27.394588
 51
152.605412
  0
ARC
  5
397
102
{ACAD_REACTORS
330
55C
102
}
330
1F
100
AcDbEntity
  8
LC-002-002-----0
 62
     7
370
    25
100
AcDbCircle
 10
881.886907
 20
1840.02702
 30
0.0
 40
0.3170000000001224
100
AcDbArc
 50
207.567177
 51
332.432823
  0
ARC
  5
398
102
{ACAD_REACTORS
330
55C
102
}
330
1F
100
AcDbEntity
  8
LC-002-002-----0
 62
     7
370
    25
100
AcDbCircle
 10
881.886907
 20
1794.59302
 30
0.0
 40
0.3169999999998827
100
AcDbArc
 50
27.63954
 51
152.36046
  0
ARC
  5
399
102
{ACAD_REACTORS
330
55C
102
}
330
1F
100
AcDbEntity
  8
LC-002-002-----0
 62
     7
370
    25
100
AcDbCircle
 10
883.041407
 20
1793.748288
 30
0.0
 40
0.3170000000002672
100
AcDbArc
 50
207.317979
 51
332.682021
  0
ARC
  5
39A
102
{ACAD_REACTORS
330
55C
102
}
330
1F
100
AcDbEntity
  8
LC-002-002-----0
 62
     7
370
    25
100
AcDbCircle
 10
883.041407
 20
1840.871753
 30
0.0
 40
0.3169999999997632
100
AcDbArc
 50
27.394588
 51
152.605412
  0
ARC
  5
39B
102
{ACAD_REACTORS
330
55C
102
}
330
1F
100
AcDbEntity
  8
LC-002-002-----0
 62
     7
370
    25
100
AcDbCircle
 10
884.195907
 20
1840.02702
 30
0.0
 40
0.3169999999999208
100
AcDbArc
 50
207.567177
 51
332.432823
  0
ARC
  5
39C
102
{ACAD_REACTORS
330
55C
102
}
330
1F
100
AcDbEntity
  8
LC-002-002-----0
 62
     7
370
    25
100
AcDbCircle
 10
884.195907
 20
1794.59302
 30
0.0
 40
0.3169999999998827
100
AcDbArc
 50
27.63954
 51
152.36046
  0
ARC
  5
39D
102
{ACAD_REACTORS
330
55C
102
}
330
1F
100
AcDbEntity
  8
LC-002-002-----0
 62
     7
370
    25
100
AcDbCircle
 10
885.350407
 20
1793.748288
 30
0.0
 40
0.3170000000000652
100
AcDbArc
 50
207.317979
 51
332.682021
  0
ARC
  5
39E
102
{ACAD_REACTORS
330
55C
102
}
330
1F
100
AcDbEntity
  8
LC-002-002-----0
 62
     7
370
    25
100
AcDbCircle
 10
885.350407
 20
1840.871753
 30
0.0
 40
0.3169999999997632
100
AcDbArc
 50
27.394588
 51
152.605412
  0
ARC
  5
39F
102
{ACAD_REACTORS
330
55C
102
}
330
1F
100
AcDbEntity
  8
LC-002-002-----0
 62
     7
370
    25
100
AcDbCircle
 10
886.504907
 20
1794.59302
 30
0.0
 40
0.3169999999995525
100
AcDbArc
 50
90.0
 51
152.36046
  0
ARC
  5
3A0
102
{ACAD_REACTORS
330
55C
102
}
330
1F
100
AcDbEntity
  8
LC-002-002-----0
 62
     7
370
    25
100
AcDbCircle
 10
886.504907
 20
1840.02702
 30
0.0
 40
0.3170000000001224
100
AcDbArc
 50
207.567177
 51
270.0
  0
INSERT
  5
3A5
102
{ACAD_REACTORS
330
55C
102
}
330
1F
100
AcDbEntity
  8
LC-002-002-----0
 62
     7
370
    25
100
AcDbBlockReference
  2
POLY7
 10
0.0
 20
0.0
 30
0.0
  0
LINE
  5
3A6
102
{ACAD_REACTORS
330
55C
102
}
330
1F
100
AcDbEntity
  8
LC-002-002-----0
 62
     7
370
    25
100
AcDbLine
 10
854.358367
 20
1796.556561
 30
0.0
 11
856.004647
 21
1794.910281
 31
0.0
  0
ARC
  5
3A7
102
{ACAD_REACTORS
330
55C
102
}
330
1F
100
AcDbEntity
  8
LC-002-002-----0
 62
     7
370
    25
100
AcDbCircle
 10
836.004907
 20
1817.31002
 30
0.0
 40
27.70479324129964
100
AcDbArc
 50
235.394244
 51
124.605756
  0
LINE
  5
3A8
102
{ACAD_REACTORS
330
55C
102
}
330
1F
100
AcDbEntity
  8
LC-002-002-----0
 62
     7
370
    25
100
AcDbLine
 10
856.004907
 20
1798.138282
 30
0.0
 11
856.004907
 21
1794.932504
 31
0.0
  0
LINE
  5
3A9
102
{ACAD_REACTORS
330
55A
102
}
330
1F
100
AcDbEntity
  8
LC-002-002-----0
 62
     7
370
    25
100
AcDbLine
 10
1426.651447
 20
2392.33245
 30
0.0
 11
1355.655172
 21
2392.33245
 31
0.0
  0
LINE
  5
3AA
102
{ACAD_REACTORS
330
55A
102
}
330
1F
100
AcDbEntity
  8
LC-002-002-----0
 62
     7
370
    25
100
AcDbLine
 10
1159.716904
 20
2310.15387
 30
0.0
 11
1158.579443
 21
2310.745995
 31
0.0
  0
LINE
  5
3AB
102
{ACAD_REACTORS
330
55A
102
}
330
1F
100
AcDbEntity
  8
LC-002-002-----0
 62
     7
370
    25
100
AcDbLine
 10
1159.716904
 20
2312.46287
 30
0.0
 11
1158.579443
 21
2313.054995
 31
0.0
  0
LINE
  5
3AC
102
{ACAD_REACTORS
330
55A
102
}
330
1F
100
AcDbEntity
  8
LC-002-002-----0
 62
     7
370
    25
100
AcDbLine
 10
1159.716904
 20
2314.77187
 30
0.0
 11
1158.579443
 21
2315.363995
 31
0.0
  0
LINE
  5
3AD
102
{ACAD_REACTORS
330
55A
102
}
330
1F
100
AcDbEntity
  8
LC-002-002-----0
 62
     7
370
    25
100
AcDbLine
 10
1159.716904
 20
2317.08087
 30
0.0
 11
1158.579443
 21
2317.672995
 31
0.0
  0
LINE
  5
3AE
102
{ACAD_REACTORS
330
55A
102
}
330
1F
100
AcDbEntity
  8
LC-002-002-----0
 62
     7
370
    25
100
AcDbLine
 10
1205.99479
 20
2311.308811
 30
0.0
 11
1204.85733
 21
2311.900935
 31
0.0
  0
LINE
  5
3AF
102
{ACAD_REACTORS
330
55A
102
}
330
1F
100
AcDbEntity
  8
LC-002-002-----0
 62
     7
370
    25
100
AcDbLine
 10
1205.99479
 20
2313.617811
 30
0.0
 11
1204.85733
 21
2314.209935
 31
0.0
  0
LINE
  5
3B0
102
{ACAD_REACTORS
330
55A
102
}
330
1F
100
AcDbEntity
  8
LC-002-002-----0
 62
     7
370
    25
100
AcDbLine
 10
1205.99479
 20
2315.926811
 30
0.0
 11
1204.85733
 21
2316.518935
 31
0.0
  0
LINE
  5
3B1
102
{ACAD_REACTORS
330
55A
102
}
330
1F
100
AcDbEntity
  8
LC-002-002-----0
 62
     7
370
    25
100
AcDbLine
 10
1205.99479
 20
2318.235811
 30
0.0
 11
1204.85733
 21
2318.827935
 31
0.0
  0
LINE
  5
3B2
102
{ACAD_REACTORS
330
55A
102
}
330
1F
100
AcDbEntity
  8
LC-002-002-----0
 62
     7
370
    25
100
AcDbLine
 10
1159.887117
 20
2340.372903
 30
0.0
 11
1159.887117
 21
2319.108903
 31
0.0
  0
LINE
  5
3B3
102
{ACAD_REACTORS
330
55A
102
}
330
1F
100
AcDbEntity
  8
LC-002-002-----0
 62
     7
370
    25
100
AcDbLine
 10
1159.887117
 20
2309.872903
 30
0.0
 11
1159.887117
 21
2309.372903
 31
0.0
  0
LINE
  5
3B4
102
{ACAD_REACTORS
330
55A
102
}
330
1F
100
AcDbEntity
  8
LC-002-002-----0
 62
     7
370
    25
100
AcDbLine
 10
1204.687117
 20
2309.372903
 30
0.0
 11
1159.887117
 21
2309.372903
 31
0.0
  0
LINE
  5
3B5
102
{ACAD_REACTORS
330
55A
102
}
330
1F
100
AcDbEntity
  8
LC-002-002-----0
 62
     7
370
    25
100
AcDbLine
 10
1204.664633
 20
2340.372903
 30
0.0
 11
1204.664633
 21
2336.372903
 31
0.0
  0
LINE
  5
3B6
102
{ACAD_REACTORS
330
55A
102
}
330
1F
100
AcDbEntity
  8
LC-002-002-----0
 62
     7
370
    25
100
AcDbLine
 10
1204.687117
 20
2336.372903
 30
0.0
 11
1204.687117
 21
2319.108903
 31
0.0
  0
LINE
  5
3B7
102
{ACAD_REACTORS
330
55A
102
}
330
1F
100
AcDbEntity
  8
LC-002-002-----0
 62
     7
370
    25
100
AcDbLine
 10
1204.687117
 20
2309.872903
 30
0.0
 11
1204.687117
 21
2309.372903
 31
0.0
  0
LINE
  5
3B8
102
{ACAD_REACTORS
330
55A
102
}
330
1F
100
AcDbEntity
  8
LC-002-002-----0
 62
     7
370
    25
100
AcDbLine
 10
1340.309706
 20
2382.956457
 30
0.0
 11
1340.309706
 21
2337.421407
 31
0.0
  0
LINE
  5
3B9
102
{ACAD_REACTORS
330
55A
102
}
330
1F
100
AcDbEntity
  8
LC-002-002-----0
 62
     7
370
    25
100
AcDbLine
 10
1364.653309
 20
2337.972903
 30
0.0
 11
1340.309657
 21
2337.972903
 31
0.0
  0
LINE
  5
3BA
102
{ACAD_REACTORS
330
55A
102
}
330
1F
100
AcDbEntity
  8
LC-002-002-----0
 62
     7
370
    25
100
AcDbLine
 10
1391.153309
 20
2338.372903
 30
0.0
 11
1365.053309
 21
2338.372903
 31
0.0
  0
ARC
  5
3BB
102
{ACAD_REACTORS
330
55A
102
}
330
1F
100
AcDbEntity
  8
LC-004-002-RND-0
 62
     7
370
    25
100
AcDbCircle
 10
1391.153309
 20
2360.372903
 30
0.0
 40
22.0
100
AcDbArc
 50
270.0
 51
0.0
  0
LINE
  5
3BC
102
{ACAD_REACTORS
330
55A
102
}
330
1F
100
AcDbEntity
  8
LC-002-002-----0
 62
     7
370
    25
100
AcDbLine
 10
1317.153309
 20
2380.372903
 30
0.0
 11
1200.287117
 21
2380.372903
 31
0.0
  0
LINE
  5
3BD
102
{ACAD_REACTORS
330
55A
102
}
330
1F
100
AcDbEntity
  8
LC-002-002-----0
 62
     7
370
    25
100
AcDbLine
 10
1362.70016
 20
2382.772903
 30
0.0
 11
1340.309657
 21
2382.772903
 31
0.0
  0
LINE
  5
3BE
102
{ACAD_REACTORS
330
55A
102
}
330
1F
100
AcDbEntity
  8
LC-002-002-----0
 62
     7
370
    25
100
AcDbLine
 10
1162.289244
 20
2342.77503
 30
0.0
 11
1159.887377
 21
2340.373163
 31
0.0
  0
LINE
  5
3BF
102
{ACAD_REACTORS
330
55A
102
}
330
1F
100
AcDbEntity
  8
LC-002-002-----0
 62
     7
370
    25
100
AcDbLine
 10
1337.711528
 20
2335.921412
 30
0.0
 11
1336.845506
 21
2337.421407
 31
0.0
  0
LINE
  5
3C0
102
{ACAD_REACTORS
330
55A
102
}
330
1F
100
AcDbEntity
  8
LC-002-002-----0
 62
     7
370
    25
100
AcDbLine
 10
1339.443579
 20
2335.921412
 30
0.0
 11
1338.577557
 21
2337.421407
 31
0.0
  0
LINE
  5
3C1
102
{ACAD_REACTORS
330
55A
102
}
330
1F
100
AcDbEntity
  8
LC-002-002-----0
 62
     7
370
    25
100
AcDbLine
 10
1336.845604
 20
2382.956457
 30
0.0
 11
1336.153309
 21
2384.155547
 31
0.0
  0
LINE
  5
3C2
102
{ACAD_REACTORS
330
55A
102
}
330
1F
100
AcDbEntity
  8
LC-002-002-----0
 62
     7
370
    25
100
AcDbLine
 10
1338.577655
 20
2382.956457
 30
0.0
 11
1337.711633
 21
2384.456451
 31
0.0
  0
LINE
  5
3C3
102
{ACAD_REACTORS
330
55A
102
}
330
1F
100
AcDbEntity
  8
LC-002-002-----0
 62
     7
370
    25
100
AcDbLine
 10
1340.309706
 20
2382.956457
 30
0.0
 11
1339.443684
 21
2384.456451
 31
0.0
  0
LINE
  5
3C4
102
{ACAD_REACTORS
330
55A
102
}
330
1F
100
AcDbEntity
  8
LC-002-002-----0
 62
     7
370
    25
100
AcDbLine
 10
1158.579443
 20
2318.235811
 30
0.0
 11
1159.716904
 21
2318.827935
 31
0.0
  0
LINE
  5
3C5
102
{ACAD_REACTORS
330
55A
102
}
330
1F
100
AcDbEntity
  8
LC-002-002-----0
 62
     7
370
    25
100
AcDbLine
 10
1158.579443
 20
2315.926811
 30
0.0
 11
1159.716904
 21
2316.518935
 31
0.0
  0
LINE
  5
3C6
102
{ACAD_REACTORS
330
55A
102
}
330
1F
100
AcDbEntity
  8
LC-002-002-----0
 62
     7
370
    25
100
AcDbLine
 10
1158.579443
 20
2313.617811
 30
0.0
 11
1159.716904
 21
2314.209935
 31
0.0
  0
LINE
  5
3C7
102
{ACAD_REACTORS
330
55A
102
}
330
1F
100
AcDbEntity
  8
LC-002-002-----0
 62
     7
370
    25
100
AcDbLine
 10
1158.579443
 20
2311.308811
 30
0.0
 11
1159.716904
 21
2311.900935
 31
0.0
  0
LINE
  5
3C8
102
{ACAD_REACTORS
330
55A
102
}
330
1F
100
AcDbEntity
  8
LC-002-002-----0
 62
     7
370
    25
100
AcDbLine
 10
1204.85733
 20
2317.08087
 30
0.0
 11
1205.99479
 21
2317.672995
 31
0.0
  0
LINE
  5
3C9
102
{ACAD_REACTORS
330
55A
102
}
330
1F
100
AcDbEntity
  8
LC-002-002-----0
 62
     7
370
    25
100
AcDbLine
 10
1204.85733
 20
2314.77187
 30
0.0
 11
1205.99479
 21
2315.363995
 31
0.0
  0
LINE
  5
3CA
102
{ACAD_REACTORS
330
55A
102
}
330
1F
100
AcDbEntity
  8
LC-002-002-----0
 62
     7
370
    25
100
AcDbLine
 10
1204.85733
 20
2312.46287
 30
0.0
 11
1205.99479
 21
2313.054995
 31
0.0
  0
LINE
  5
3CB
102
{ACAD_REACTORS
330
55A
102
}
330
1F
100
AcDbEntity
  8
LC-002-002-----0
 62
     7
370
    25
100
AcDbLine
 10
1204.85733
 20
2310.15387
 30
0.0
 11
1205.99479
 21
2310.745995
 31
0.0
  0
LINE
  5
3CC
102
{ACAD_REACTORS
330
55A
102
}
330
1F
100
AcDbEntity
  8
LC-002-002-----0
 62
     7
370
    25
100
AcDbLine
 10
1362.70016
 20
2382.772903
 30
0.0
 11
1362.385924
 21
2384.492933
 31
0.0
  0
LINE
  5
3CD
102
{ACAD_REACTORS
330
55A
102
}
330
1F
100
AcDbEntity
  8
LC-002-002-----0
 62
     7
370
    25
100
AcDbLine
 10
1355.655172
 20
2391.629205
 30
0.0
 11
1355.655172
 21
2392.33245
 31
0.0
  0
LINE
  5
3CE
102
{ACAD_REACTORS
330
55A
102
}
330
1F
100
AcDbEntity
  8
LC-002-002-----0
 62
     7
370
    25
100
AcDbLine
 10
1337.711528
 20
2384.456451
 30
0.0
 11
1336.845506
 21
2382.956457
 31
0.0
  0
LINE
  5
3CF
102
{ACAD_REACTORS
330
55A
102
}
330
1F
100
AcDbEntity
  8
LC-002-002-----0
 62
     7
370
    25
100
AcDbLine
 10
1339.443579
 20
2384.456451
 30
0.0
 11
1338.577557
 21
2382.956457
 31
0.0
  0
LINE
  5
3D0
102
{ACAD_REACTORS
330
55A
102
}
330
1F
100
AcDbEntity
  8
LC-002-002-----0
 62
     7
370
    25
100
AcDbLine
 10
1336.845604
 20
2337.421407
 30
0.0
 11
1336.153309
 21
2336.222317
 31
0.0
  0
LINE
  5
3D1
102
{ACAD_REACTORS
330
55A
102
}
330
1F
100
AcDbEntity
  8
LC-002-002-----0
 62
     7
370
    25
100
AcDbLine
 10
1338.577655
 20
2337.421407
 30
0.0
 11
1337.711633
 21
2335.921412
 31
0.0
  0
LINE
  5
3D2
102
{ACAD_REACTORS
330
55A
102
}
330
1F
100
AcDbEntity
  8
LC-002-002-----0
 62
     7
370
    25
100
AcDbLine
 10
1340.309706
 20
2337.421407
 30
0.0
 11
1339.443684
 21
2335.921412
 31
0.0
  0
LINE
  5
3D3
102
{ACAD_REACTORS
330
55A
102
}
330
1F
100
AcDbEntity
  8
LC-002-002-----0
 62
     7
370
    25
100
AcDbLine
 10
1413.153309
 20
2360.372903
 30
0.0
 11
1413.153309
 21
2374.064087
 31
0.0
  0
LINE
  5
3D4
102
{ACAD_REACTORS
330
55A
102
}
330
1F
100
AcDbEntity
  8
LC-002-002-----0
 62
     7
370
    25
100
AcDbLine
 10
1426.651447
 20
2391.629205
 30
0.0
 11
1426.651447
 21
2392.33245
 31
0.0
  0
LINE
  5
3D5
102
{ACAD_REACTORS
330
55A
102
}
330
1F
100
AcDbEntity
  8
LC-002-002-----0
 62
     7
370
    25
100
AcDbLine
 10
1419.442248
 20
2381.874069
 30
0.0
 11
1419.920694
 21
2384.492933
 31
0.0
  0
LINE
  5
3D6
102
{ACAD_REACTORS
330
55A
102
}
330
1F
100
AcDbEntity
  8
LC-002-002-----0
 62
     7
370
    25
100
AcDbLine
 10
1364.653336
 20
2337.97293
 30
0.0
 11
1365.053417
 21
2338.37301
 31
0.0
  0
ARC
  5
3D7
102
{ACAD_REACTORS
330
55A
102
}
330
1F
100
AcDbEntity
  8
LC-002-002-----0
 62
     7
370
    25
100
AcDbCircle
 10
1205.004117
 20
2319.108903
 30
0.0
 40
0.3170000000000073
100
AcDbArc
 50
180.0
 51
242.36046
  0
ARC
  5
3D8
102
{ACAD_REACTORS
330
55A
102
}
330
1F
100
AcDbEntity
  8
LC-002-002-----0
 62
     7
370
    25
100
AcDbCircle
 10
1159.570117
 20
2319.108903
 30
0.0
 40
0.3169999999997534
100
AcDbArc
 50
297.567177
 51
0.0
  0
ARC
  5
3D9
102
{ACAD_REACTORS
330
55A
102
}
330
1F
100
AcDbEntity
  8
LC-002-002-----0
 62
     7
370
    25
100
AcDbCircle
 10
1205.848849
 20
2317.954403
 30
0.0
 40
0.3169999999997454
100
AcDbArc
 50
297.317979
 51
62.682021
  0
ARC
  5
3DA
102
{ACAD_REACTORS
330
55A
102
}
330
1F
100
AcDbEntity
  8
LC-002-002-----0
 62
     7
370
    25
100
AcDbCircle
 10
1158.725384
 20
2317.954403
 30
0.0
 40
0.3170000000004072
100
AcDbArc
 50
117.394588
 51
242.605412
  0
ARC
  5
3DB
102
{ACAD_REACTORS
330
55A
102
}
330
1F
100
AcDbEntity
  8
LC-002-002-----0
 62
     7
370
    25
100
AcDbCircle
 10
1159.570117
 20
2316.799903
 30
0.0
 40
0.3170000000001564
100
AcDbArc
 50
297.567177
 51
62.432823
  0
ARC
  5
3DC
102
{ACAD_REACTORS
330
55A
102
}
330
1F
100
AcDbEntity
  8
LC-002-002-----0
 62
     7
370
    25
100
AcDbCircle
 10
1205.004117
 20
2316.799903
 30
0.0
 40
0.3169999999998827
100
AcDbArc
 50
117.63954
 51
242.36046
  0
ARC
  5
3DD
102
{ACAD_REACTORS
330
55A
102
}
330
1F
100
AcDbEntity
  8
LC-002-002-----0
 62
     7
370
    25
100
AcDbCircle
 10
1205.848849
 20
2315.645403
 30
0.0
 40
0.3169999999999542
100
AcDbArc
 50
297.317979
 51
62.682021
  0
ARC
  5
3DE
102
{ACAD_REACTORS
330
55A
102
}
330
1F
100
AcDbEntity
  8
LC-002-002-----0
 62
     7
370
    25
100
AcDbCircle
 10
1158.725384
 20
2315.645403
 30
0.0
 40
0.3169999999999887
100
AcDbArc
 50
117.394588
 51
242.605412
  0
ARC
  5
3DF
102
{ACAD_REACTORS
330
55A
102
}
330
1F
100
AcDbEntity
  8
LC-002-002-----0
 62
     7
370
    25
100
AcDbCircle
 10
1159.570117
 20
2314.490903
 30
0.0
 40
0.3170000000001386
100
AcDbArc
 50
297.567177
 51
62.432823
  0
ARC
  5
3E0
102
{ACAD_REACTORS
330
55A
102
}
330
1F
100
AcDbEntity
  8
LC-002-002-----0
 62
     7
370
    25
100
AcDbCircle
 10
1205.004117
 20
2314.490903
 30
0.0
 40
0.3169999999998827
100
AcDbArc
 50
117.63954
 51
242.36046
  0
ARC
  5
3E1
102
{ACAD_REACTORS
330
55A
102
}
330
1F
100
AcDbEntity
  8
LC-002-002-----0
 62
     7
370
    25
100
AcDbCircle
 10
1205.848849
 20
2313.336403
 30
0.0
 40
0.3169999999999542
100
AcDbArc
 50
297.317979
 51
62.682021
  0
ARC
  5
3E2
102
{ACAD_REACTORS
330
55A
102
}
330
1F
100
AcDbEntity
  8
LC-002-002-----0
 62
     7
370
    25
100
AcDbCircle
 10
1158.725384
 20
2313.336403
 30
0.0
 40
0.3170000000000035
100
AcDbArc
 50
117.394588
 51
242.605412
  0
ARC
  5
3E3
102
{ACAD_REACTORS
330
55A
102
}
330
1F
100
AcDbEntity
  8
LC-002-002-----0
 62
     7
370
    25
100
AcDbCircle
 10
1159.570117
 20
2312.181903
 30
0.0
 40
0.3169999999997356
100
AcDbArc
 50
297.567177
 51
62.432823
  0
ARC
  5
3E4
102
{ACAD_REACTORS
330
55A
102
}
330
1F
100
AcDbEntity
  8
LC-002-002-----0
 62
     7
370
    25
100
AcDbCircle
 10
1205.004117
 20
2312.181903
 30
0.0
 40
0.3170000000002856
100
AcDbArc
 50
117.63954
 51
242.36046
  0
ARC
  5
3E5
102
{ACAD_REACTORS
330
55A
102
}
330
1F
100
AcDbEntity
  8
LC-002-002-----0
 62
     7
370
    25
100
AcDbCircle
 10
1205.848849
 20
2311.027403
 30
0.0
 40
0.3170000000001494
100
AcDbArc
 50
297.317979
 51
62.682021
  0
ARC
  5
3E6
102
{ACAD_REACTORS
330
55A
102
}
330
1F
100
AcDbEntity
  8
LC-002-002-----0
 62
     7
370
    25
100
AcDbCircle
 10
1158.725384
 20
2311.027403
 30
0.0
 40
0.3170000000000035
100
AcDbArc
 50
117.394588
 51
242.605412
  0
ARC
  5
3E7
102
{ACAD_REACTORS
330
55A
102
}
330
1F
100
AcDbEntity
  8
LC-002-002-----0
 62
     7
370
    25
100
AcDbCircle
 10
1205.004117
 20
2309.872903
 30
0.0
 40
0.3170000000000937
100
AcDbArc
 50
117.63954
 51
180.0
  0
ARC
  5
3E8
102
{ACAD_REACTORS
330
55A
102
}
330
1F
100
AcDbEntity
  8
LC-002-002-----0
 62
     7
370
    25
100
AcDbCircle
 10
1159.570117
 20
2309.872903
 30
0.0
 40
0.3170000000000073
100
AcDbArc
 50
0.0
 51
62.432823
  0
ARC
  5
3E9
102
{ACAD_REACTORS
330
55A
102
}
330
1F
100
AcDbEntity
  8
LC-002-002-----0
 62
     7
370
    25
100
AcDbCircle
 10
1200.287117
 20
2342.372903
 30
0.0
 40
38.00000000000019
100
AcDbArc
 50
90.000006
 51
179.393653
  0
ARC
  5
3EA
102
{ACAD_REACTORS
330
55A
102
}
330
1F
100
AcDbEntity
  8
LC-002-002-----0
 62
     7
370
    25
100
AcDbCircle
 10
1413.048084
 20
2383.04226
 30
0.0
 40
6.500000000000005
100
AcDbArc
 50
289.07704
 51
349.645823
  0
ARC
  5
3EB
102
{ACAD_REACTORS
330
55A
102
}
330
1F
100
AcDbEntity
  8
LC-002-002-----0
 62
     7
370
    25
100
AcDbCircle
 10
1416.153309
 20
2374.064087
 30
0.0
 40
3.000000000000295
100
AcDbArc
 50
109.055448
 51
180.0
  0
ARC
  5
3EC
102
{ACAD_REACTORS
330
55A
102
}
330
1F
100
AcDbEntity
  8
LC-002-002-----0
 62
     7
370
    25
100
AcDbCircle
 10
1424.651447
 20
2391.629205
 30
0.0
 40
1.999999999999766
100
AcDbArc
 50
334.152631
 51
0.0
  0
ARC
  5
3ED
102
{ACAD_REACTORS
330
55A
102
}
330
1F
100
AcDbEntity
  8
LC-002-002-----0
 62
     7
370
    25
100
AcDbCircle
 10
1357.655172
 20
2391.629205
 30
0.0
 40
2.0
100
AcDbArc
 50
180.0
 51
205.847369
  0
ARC
  5
3EE
102
{ACAD_REACTORS
330
55A
102
}
330
1F
100
AcDbEntity
  8
LC-002-002-----0
 62
     7
370
    25
100
AcDbCircle
 10
1421.051513
 20
2393.372903
 30
0.0
 40
5.999999999999846
100
AcDbArc
 50
286.283517
 51
334.155028
  0
ARC
  5
3EF
102
{ACAD_REACTORS
330
55A
102
}
330
1F
100
AcDbEntity
  8
LC-002-002-----0
 62
     7
370
    25
100
AcDbCircle
 10
1361.255105
 20
2393.372903
 30
0.0
 40
6.000000000000001
100
AcDbArc
 50
205.844972
 51
253.716483
  0
ARC
  5
3F0
102
{ACAD_REACTORS
330
55A
102
}
330
1F
100
AcDbEntity
  8
LC-002-002-----0
 62
     7
370
    25
100
AcDbCircle
 10
1423.855572
 20
2383.774087
 30
0.0
 40
3.999999999999806
100
AcDbArc
 50
106.281751
 51
169.647048
  0
ARC
  5
3F1
102
{ACAD_REACTORS
330
55A
102
}
330
1F
100
AcDbEntity
  8
LC-002-002-----0
 62
     7
370
    25
100
AcDbCircle
 10
1358.451046
 20
2383.774087
 30
0.0
 40
4.00000000000002
100
AcDbArc
 50
10.352952
 51
73.718249
  0
INSERT
  5
3F6
102
{ACAD_REACTORS
330
55A
102
}
330
1F
100
AcDbEntity
  8
LC-002-002-----0
 62
     7
370
    25
100
AcDbBlockReference
  2
POLY8
 10
0.0
 20
0.0
 30
0.0
  0
LINE
  5
3F7
102
{ACAD_REACTORS
330
55A
102
}
330
1F
100
AcDbEntity
  8
LC-002-002-----0
 62
     7
370
    25
100
AcDbLine
 10
1204.687117
 20
2340.372903
 30
0.0
 11
1317.153309
 21
2340.372903
 31
0.0
  0
LINE
  5
3F8
102
{ACAD_REACTORS
330
55A
102
}
330
1F
100
AcDbEntity
  8
LC-002-002-----0
 62
     7
370
    25
100
AcDbLine
 10
1333.653309
 20
2332.668109
 30
0.0
 11
1336.153309
 21
2332.668109
 31
0.0
  0
LINE
  5
3F9
102
{ACAD_REACTORS
330
55A
102
}
330
1F
100
AcDbEntity
  8
LC-002-002-----0
 62
     7
370
    25
100
AcDbLine
 10
1332.653309
 20
2333.418109
 30
0.0
 11
1332.903309
 21
2333.418109
 31
0.0
  0
LINE
  5
3FA
102
{ACAD_REACTORS
330
55A
102
}
330
1F
100
AcDbEntity
  8
LC-002-002-----0
 62
     7
370
    25
100
AcDbLine
 10
1332.653309
 20
2334.572903
 30
0.0
 11
1319.153309
 21
2334.572903
 31
0.0
  0
LINE
  5
3FB
102
{ACAD_REACTORS
330
55A
102
}
330
1F
100
AcDbEntity
  8
LC-002-002-----0
 62
     7
370
    25
100
AcDbLine
 10
1332.653309
 20
2386.172903
 30
0.0
 11
1319.153309
 21
2386.172903
 31
0.0
  0
LINE
  5
3FC
102
{ACAD_REACTORS
330
55A
102
}
330
1F
100
AcDbEntity
  8
LC-002-002-----0
 62
     7
370
    25
100
AcDbLine
 10
1332.653309
 20
2387.327696
 30
0.0
 11
1332.903309
 21
2387.327696
 31
0.0
  0
LINE
  5
3FD
102
{ACAD_REACTORS
330
55A
102
}
330
1F
100
AcDbEntity
  8
LC-002-002-----0
 62
     7
370
    25
100
AcDbLine
 10
1333.653309
 20
2388.077696
 30
0.0
 11
1336.153309
 21
2388.077696
 31
0.0
  0
LINE
  5
3FE
102
{ACAD_REACTORS
330
55A
102
}
330
1F
100
AcDbEntity
  8
LC-002-002-----0
 62
     7
370
    25
100
AcDbLine
 10
1332.903308
 20
2333.418111
 30
0.0
 11
1333.653308
 21
2332.66811
 31
0.0
  0
LINE
  5
3FF
102
{ACAD_REACTORS
330
55A
102
}
330
1F
100
AcDbEntity
  8
LC-002-002-----0
 62
     7
370
    25
100
AcDbLine
 10
1317.153309
 20
2384.172903
 30
0.0
 11
1317.153309
 21
2336.572903
 31
0.0
  0
LINE
  5
400
102
{ACAD_REACTORS
330
55A
102
}
330
1F
100
AcDbEntity
  8
LC-002-002-----0
 62
     7
370
    25
100
AcDbLine
 10
1332.653309
 20
2387.327678
 30
0.0
 11
1332.653309
 21
2386.172903
 31
0.0
  0
LINE
  5
401
102
{ACAD_REACTORS
330
55A
102
}
330
1F
100
AcDbEntity
  8
LC-002-002-----0
 62
     7
370
    25
100
AcDbLine
 10
1333.653175
 20
2388.077562
 30
0.0
 11
1333.653175
 21
2332.668244
 31
0.0
  0
LINE
  5
402
102
{ACAD_REACTORS
330
55A
102
}
330
1F
100
AcDbEntity
  8
LC-002-002-----0
 62
     7
370
    25
100
AcDbLine
 10
1336.153309
 20
2388.077696
 30
0.0
 11
1336.153309
 21
2332.668109
 31
0.0
  0
LINE
  5
403
102
{ACAD_REACTORS
330
55A
102
}
330
1F
100
AcDbEntity
  8
LC-002-002-----0
 62
     7
370
    25
100
AcDbLine
 10
1332.903308
 20
2387.327695
 30
0.0
 11
1333.653308
 21
2388.077695
 31
0.0
  0
ARC
  5
404
102
{ACAD_REACTORS
330
55A
102
}
330
1F
100
AcDbEntity
  8
LC-002-002-----0
 62
     7
370
    25
100
AcDbCircle
 10
1319.153309
 20
2384.172903
 30
0.0
 40
2.0
100
AcDbArc
 50
90.0
 51
180.0
  0
ARC
  5
405
102
{ACAD_REACTORS
330
55A
102
}
330
1F
100
AcDbEntity
  8
LC-002-002-----0
 62
     7
370
    25
100
AcDbCircle
 10
1319.153309
 20
2336.572903
 30
0.0
 40
2.0
100
AcDbArc
 50
180.0
 51
270.0
  0
LINE
  5
406
102
{ACAD_REACTORS
330
55A
102
}
330
1F
100
AcDbEntity
  8
LC-002-002-----0
 62
     7
370
    25
100
AcDbLine
 10
1332.653309
 20
2383.585289
 30
0.0
 11
1319.153309
 21
2383.585289
 31
0.0
  0
INSERT
  5
416
102
{ACAD_REACTORS
330
55A
102
}
330
1F
100
AcDbEntity
  8
LC-002-002-----0
 62
     7
370
    25
100
AcDbBlockReference
  2
POLY9
 10
0.0
 20
0.0
 30
0.0
  0
LINE
  5
417
102
{ACAD_REACTORS
330
55A
102
}
330
1F
100
AcDbEntity
  8
LC-002-002-----0
 62
     7
370
    25
100
AcDbLine
 10
1332.653309
 20
2360.37145
 30
0.0
 11
1319.153309
 21
2360.37145
 31
0.0
  0
INSERT
  5
427
102
{ACAD_REACTORS
330
55A
102
}
330
1F
100
AcDbEntity
  8
LC-002-002-----0
 62
     7
370
    25
100
AcDbBlockReference
  2
POLY10
 10
0.0
 20
0.0
 30
0.0
  0
LINE
  5
428
102
{ACAD_REACTORS
330
55A
102
}
330
1F
100
AcDbEntity
  8
LC-002-002-----0
 62
     7
370
    25
100
AcDbLine
 10
1319.153309
 20
2337.160408
 30
0.0
 11
1332.653309
 21
2337.160408
 31
0.0
  0
INSERT
  5
438
102
{ACAD_REACTORS
330
55A
102
}
330
1F
100
AcDbEntity
  8
LC-002-002-----0
 62
     7
370
    25
100
AcDbBlockReference
  2
POLY11
 10
0.0
 20
0.0
 30
0.0
  0
LINE
  5
439
102
{ACAD_REACTORS
330
55A
102
}
330
1F
100
AcDbEntity
  8
LC-002-002-----0
 62
     7
370
    25
100
AcDbLine
 10
1336.153309
 20
2434.975131
 30
0.0
 11
1446.153309
 21
2434.975131
 31
0.0
  0
LINE
  5
43A
102
{ACAD_REACTORS
330
55A
102
}
330
1F
100
AcDbEntity
  8
LC-002-002-----0
 62
     7
370
    25
100
AcDbLine
 10
1446.153309
 20
2430.975131
 30
0.0
 11
1446.153309
 21
2434.975131
 31
0.0
  0
LINE
  5
43B
102
{ACAD_REACTORS
330
55A
102
}
330
1F
100
AcDbEntity
  8
LC-002-002-----0
 62
     7
370
    25
100
AcDbLine
 10
1428.653309
 20
2392.33245
 30
0.0
 11
1353.653309
 21
2392.33245
 31
0.0
  0
LINE
  5
43C
102
{ACAD_REACTORS
330
55A
102
}
330
1F
100
AcDbEntity
  8
LC-002-002-----0
 62
     7
370
    25
100
AcDbLine
 10
1430.658273
 20
2394.83245
 30
0.0
 11
1428.653309
 21
2394.83245
 31
0.0
  0
LINE
  5
43D
102
{ACAD_REACTORS
330
55A
102
}
330
1F
100
AcDbEntity
  8
LC-002-002-----0
 62
     7
370
    25
100
AcDbLine
 10
1433.902699
 20
2399.162225
 30
0.0
 11
1435.652674
 21
2400.172573
 31
0.0
  0
LINE
  5
43E
102
{ACAD_REACTORS
330
55A
102
}
330
1F
100
AcDbEntity
  8
LC-002-002-----0
 62
     7
370
    25
100
AcDbLine
 10
1428.653309
 20
2394.83245
 30
0.0
 11
1428.653309
 21
2392.33245
 31
0.0
  0
LINE
  5
43F
102
{ACAD_REACTORS
330
55A
102
}
330
1F
100
AcDbEntity
  8
LC-002-002-----0
 62
     7
370
    25
100
AcDbLine
 10
1438.653309
 20
2405.369092
 30
0.0
 11
1438.653309
 21
2420.83245
 31
0.0
  0
LINE
  5
440
102
{ACAD_REACTORS
330
55A
102
}
330
1F
100
AcDbEntity
  8
LC-002-002-----0
 62
     7
370
    25
100
AcDbLine
 10
1446.153309
 20
2430.514908
 30
0.0
 11
1446.153309
 21
2430.975131
 31
0.0
  0
ARC
  5
441
102
{ACAD_REACTORS
330
55A
102
}
330
1F
100
AcDbEntity
  8
LC-002-002-----0
 62
     7
370
    25
100
AcDbCircle
 10
1442.653309
 20
2420.83245
 30
0.0
 40
3.999999999999869
100
AcDbArc
 50
104.492147
 51
180.0
  0
ARC
  5
442
102
{ACAD_REACTORS
330
55A
102
}
330
1F
100
AcDbEntity
  8
LC-002-002-----0
 62
     7
370
    25
100
AcDbCircle
 10
1440.153309
 20
2430.514908
 30
0.0
 40
6.000000000000098
100
AcDbArc
 50
284.469452
 51
0.0
  0
ARC
  5
443
102
{ACAD_REACTORS
330
55A
102
}
330
1F
100
AcDbEntity
  8
LC-002-002-----0
 62
     7
370
    25
100
AcDbCircle
 10
1432.653309
 20
2405.369092
 30
0.0
 40
5.999999999999863
100
AcDbArc
 50
299.988476
 51
0.0
  0
ARC
  5
444
102
{ACAD_REACTORS
330
55A
102
}
330
1F
100
AcDbEntity
  8
LC-002-002-----0
 62
     7
370
    25
100
AcDbCircle
 10
1436.403309
 20
2394.83245
 30
0.0
 40
5.00000000000002
100
AcDbArc
 50
120.016153
 51
172.072225
  0
ARC
  5
445
102
{ACAD_REACTORS
330
55A
102
}
330
1F
100
AcDbEntity
  8
LC-002-002-----0
 62
     7
370
    25
100
AcDbCircle
 10
1430.658747
 20
2395.63245
 30
0.0
 40
0.7999999999997272
100
AcDbArc
 50
270.0
 51
352.062606
  0
LINE
  5
446
102
{ACAD_REACTORS
330
55A
102
}
330
1F
100
AcDbEntity
  8
LC-002-002-----0
 62
     7
370
    25
100
AcDbLine
 10
1336.153309
 20
2430.975131
 30
0.0
 11
1336.153309
 21
2434.975131
 31
0.0
  0
LINE
  5
447
102
{ACAD_REACTORS
330
55A
102
}
330
1F
100
AcDbEntity
  8
LC-002-002-----0
 62
     7
370
    25
100
AcDbLine
 10
1348.403919
 20
2399.162225
 30
0.0
 11
1346.653944
 21
2400.172573
 31
0.0
  0
LINE
  5
448
102
{ACAD_REACTORS
330
55A
102
}
330
1F
100
AcDbEntity
  8
LC-002-002-----0
 62
     7
370
    25
100
AcDbLine
 10
1353.653309
 20
2394.83245
 30
0.0
 11
1353.653309
 21
2392.33245
 31
0.0
  0
LINE
  5
449
102
{ACAD_REACTORS
330
55A
102
}
330
1F
100
AcDbEntity
  8
LC-002-002-----0
 62
     7
370
    25
100
AcDbLine
 10
1343.653309
 20
2405.369092
 30
0.0
 11
1343.653309
 21
2420.83245
 31
0.0
  0
LINE
  5
44A
102
{ACAD_REACTORS
330
55A
102
}
330
1F
100
AcDbEntity
  8
LC-002-002-----0
 62
     7
370
    25
100
AcDbLine
 10
1336.153309
 20
2430.514908
 30
0.0
 11
1336.153309
 21
2430.975131
 31
0.0
  0
ARC
  5
44B
102
{ACAD_REACTORS
330
55A
102
}
330
1F
100
AcDbEntity
  8
LC-002-002-----0
 62
     7
370
    25
100
AcDbCircle
 10
1339.653309
 20
2420.83245
 30
0.0
 40
4.0
100
AcDbArc
 50
0.0
 51
75.507853
  0
ARC
  5
44C
102
{ACAD_REACTORS
330
55A
102
}
330
1F
100
AcDbEntity
  8
LC-002-002-----0
 62
     7
370
    25
100
AcDbCircle
 10
1342.153309
 20
2430.514908
 30
0.0
 40
6.0
100
AcDbArc
 50
180.0
 51
255.530548
  0
ARC
  5
44D
102
{ACAD_REACTORS
330
55A
102
}
330
1F
100
AcDbEntity
  8
LC-002-002-----0
 62
     7
370
    25
100
AcDbCircle
 10
1349.653309
 20
2405.369092
 30
0.0
 40
6.0
100
AcDbArc
 50
180.0
 51
240.011524
  0
ARC
  5
44E
102
{ACAD_REACTORS
330
55A
102
}
330
1F
100
AcDbEntity
  8
LC-002-002-----0
 62
     7
370
    25
100
AcDbCircle
 10
1345.903309
 20
2394.83245
 30
0.0
 40
5.000000000000194
100
AcDbArc
 50
7.927775
 51
59.983847
  0
ARC
  5
44F
102
{ACAD_REACTORS
330
55A
102
}
330
1F
100
AcDbEntity
  8
LC-002-002-----0
 62
     7
370
    25
100
AcDbCircle
 10
1351.647872
 20
2395.63245
 30
0.0
 40
0.7999999999998813
100
AcDbArc
 50
187.937394
 51
270.0
  0
LINE
  5
450
102
{ACAD_REACTORS
330
55A
102
}
330
1F
100
AcDbEntity
  8
LC-002-002-----0
 62
     7
370
    25
100
AcDbLine
 10
1332.653309
 20
2334.572903
 30
0.0
 11
1332.653309
 21
2333.418127
 31
0.0
  0
LINE
  5
451
102
{ACAD_REACTORS
330
55A
102
}
330
1F
100
AcDbEntity
  8
LC-002-002-----0
 62
     7
370
    25
100
AcDbLine
 10
1353.653309
 20
2394.83245
 30
0.0
 11
1351.647872
 21
2394.83245
 31
0.0
  0
INSERT
  5
46E
330
1F
100
AcDbEntity
  8
LC-010-003-----0
 62
     7
370
    25
100
AcDbBlockReference
  2
LCDIM1
 10
0.0
 20
0.0
 30
0.0
  0
INSERT
  5
488
330
1F
100
AcDbEntity
  8
LC-010-003-----0
 62
     7
370
    25
100
AcDbBlockReference
  2
LCDIM2
 10
0.0
 20
0.0
 30
0.0
  0
INSERT
  5
4A2
330
1F
100
AcDbEntity
  8
LC-010-003-----0
 62
     7
370
    25
100
AcDbBlockReference
  2
LCDIM3
 10
0.0
 20
0.0
 30
0.0
  0
INSERT
  5
4BC
330
1F
100
AcDbEntity
  8
LC-010-003-----0
 62
     7
370
    25
100
AcDbBlockReference
  2
LCDIM4
 10
0.0
 20
0.0
 30
0.0
  0
LINE
  5
4BD
102
{ACAD_REACTORS
330
559
102
}
330
1F
100
AcDbEntity
  8
LC-002-002-----0
 62
     7
370
    50
100
AcDbLine
 10
482.374146
 20
2387.280484
 30
0.0
 11
480.107266
 21
2408.84841
 31
0.0
  0
ARC
  5
4BE
102
{ACAD_REACTORS
330
559
102
}
330
1F
100
AcDbEntity
  8
LC-002-002-----0
 62
     7
370
    50
100
AcDbCircle
 10
320.880207
 20
2407.280484
 30
0.0
 40
15.0
100
AcDbArc
 50
90.0
 51
174.0
  0
ARC
  5
4BF
102
{ACAD_REACTORS
330
559
102
}
330
1F
100
AcDbEntity
  8
LC-002-002-----0
 62
     7
370
    50
100
AcDbCircle
 10
465.189437
 20
2407.280484
 30
0.0
 40
14.9999999999995
100
AcDbArc
 50
6.0
 51
90.0
  0
LINE
  5
4C0
102
{ACAD_REACTORS
330
559
102
}
330
1F
100
AcDbEntity
  8
LC-002-002-----0
 62
     7
370
    50
100
AcDbLine
 10
482.374146
 20
2387.280484
 30
0.0
 11
419.874146
 21
2387.280484
 31
0.0
  0
LINE
  5
4C1
102
{ACAD_REACTORS
330
559
102
}
330
1F
100
AcDbEntity
  8
LC-002-002-----0
 62
     7
370
    50
100
AcDbLine
 10
419.874146
 20
2387.280484
 30
0.0
 11
419.874146
 21
2377.280484
 31
0.0
  0
LINE
  5
4C2
102
{ACAD_REACTORS
330
559
102
}
330
1F
100
AcDbEntity
  8
LC-002-002-----0
 62
     7
370
    50
100
AcDbLine
 10
419.874146
 20
2377.280484
 30
0.0
 11
365.374888
 21
2377.280484
 31
0.0
  0
ARC
  5
4C3
102
{ACAD_REACTORS
330
559
102
}
330
1F
100
AcDbEntity
  8
LC-004-002-RND-0
 62
     7
370
    50
100
AcDbCircle
 10
365.374888
 20
2352.280484
 30
0.0
 40
24.99999999999636
100
AcDbArc
 50
90.0
 51
174.0
  0
LINE
  5
4C4
102
{ACAD_REACTORS
330
559
102
}
330
1F
100
AcDbEntity
  8
LC-002-002-----0
 62
     7
370
    50
100
AcDbLine
 10
340.511841
 20
2354.893695
 30
0.0
 11
315.363153
 21
2115.619916
 31
0.0
  0
LINE
  5
4C5
102
{ACAD_REACTORS
330
559
102
}
330
1F
100
AcDbEntity
  8
LC-002-002-----0
 62
     7
370
    50
100
AcDbLine
 10
305.962379
 20
2408.84841
 30
0.0
 11
275.142822
 21
2115.619916
 31
0.0
  0
LINE
  5
4C6
102
{ACAD_REACTORS
330
559
102
}
330
1F
100
AcDbEntity
  8
LC-002-002-----0
 62
     7
370
    50
100
AcDbLine
 10
275.142822
 20
2422.280484
 30
0.0
 11
465.189437
 21
2422.280484
 31
0.0
  0
INSERT
  5
4D4
102
{ACAD_REACTORS
330
559
102
}
330
1F
100
AcDbEntity
  8
LC-006-005-----0
 62
     7
370
    25
100
AcDbBlockReference
  2
*X420
 10
0.0
 20
0.0
 30
0.0
  0
TEXT
  5
4D5
330
1F
100
AcDbEntity
  8
LC-005-004-----0
 62
     7
370
    35
100
AcDbText
 10
1124.123714
 20
1166.884582
 30
0.0
 40
35.0
  1
Ausschnitt Unterbau 1:20
 41
0.7
  7
LCTX0-400-0-0pDIN-Schrift
 72
     1
 11
1363.290381
 21
1166.884582
 31
0.0
100
AcDbText
  0
INSERT
  5
4EF
330
1F
100
AcDbEntity
  8
LC-010-003-----0
 62
     7
370
    25
100
AcDbBlockReference
  2
LCDIM5
 10
0.0
 20
0.0
 30
0.0
  0
CIRCLE
  5
4F0
330
1F
100
AcDbEntity
  8
LC-007-006-MLN-0
  6
ByBlock
 62
     7
370
    25
100
AcDbCircle
 10
1806.195857
 20
2706.759453
 30
0.0
 40
51.16997180060616
  0
TEXT
  5
4F1
330
1F
100
AcDbEntity
  8
LC-005-004-----0
 62
     7
370
    35
100
AcDbText
 10
1843.924084
 20
2772.676474
 30
0.0
 40
35.0
  1
Z
 41
0.8
  7
LCTX0-400-0-0pDIN-Schrift
100
AcDbText
  0
LINE
  5
4F2
330
1F
100
AcDbEntity
  8
LC-002-002-----0
 62
     7
370
    50
100
AcDbLine
 10
972.053309
 20
1964.81002
 30
0.0
 11
1810.253309
 21
1964.81002
 31
0.0
  0
LINE
  5
4F3
330
1F
100
AcDbEntity
  8
LC-002-002-----0
 62
     7
370
    50
100
AcDbLine
 10
1566.369497
 20
1128.345683
 30
0.0
 11
1190.369497
 21
1128.345683
 31
0.0
  0
ARC
  5
4F4
330
1F
100
AcDbEntity
  8
LC-004-002-RND-0
 62
     7
370
    50
100
AcDbCircle
 10
1190.369497
 20
1120.845683
 30
0.0
 40
7.5
100
AcDbArc
 50
90.0
 51
180.0
  0
LINE
  5
4F5
330
1F
100
AcDbEntity
  8
LC-002-002-----0
 62
     7
370
    50
100
AcDbLine
 10
1182.869497
 20
921.845683
 30
0.0
 11
1182.869497
 21
1120.845683
 31
0.0
  0
ARC
  5
4F6
330
1F
100
AcDbEntity
  8
LC-004-002-RND-0
 62
     7
370
    50
100
AcDbCircle
 10
1190.369497
 20
921.845683
 30
0.0
 40
7.5
100
AcDbArc
 50
180.0
 51
270.0
  0
LINE
  5
4F7
330
1F
100
AcDbEntity
  8
LC-002-002-----0
 62
     7
370
    50
100
AcDbLine
 10
1566.369497
 20
914.345683
 30
0.0
 11
1190.369497
 21
914.345683
 31
0.0
  0
LINE
  5
4F8
330
1F
100
AcDbEntity
  8
LC-002-002-----0
 62
     7
370
    50
100
AcDbLine
 10
1573.869497
 20
921.845683
 30
0.0
 11
1573.869497
 21
1120.845683
 31
0.0
  0
INSERT
  5
512
330
1F
100
AcDbEntity
  8
LC-010-003-----0
 62
     7
370
    25
100
AcDbBlockReference
  2
LCDIM6
 10
0.0
 20
0.0
 30
0.0
  0
INSERT
  5
521
330
1F
100
AcDbEntity
  8
LC-010-003-----0
 62
     7
370
    25
100
AcDbBlockReference
  2
LCDIM7
 10
0.0
 20
0.0
 30
0.0
  0
INSERT
  5
53B
330
1F
100
AcDbEntity
  8
LC-010-003-----0
 62
     7
370
    25
100
AcDbBlockReference
  2
LCDIM8
 10
0.0
 20
0.0
 30
0.0
  0
INSERT
  5
555
330
1F
100
AcDbEntity
  8
LC-010-003-----0
 62
     7
370
    25
100
AcDbBlockReference
  2
LCDIM9
 10
0.0
 20
0.0
 30
0.0
  0
TEXT
  5
556
330
1F
100
AcDbEntity
  8
LC-005-004-----0
 62
     7
370
    18
100
AcDbText
 10
1703.657955
 20
563.095584
 30
0.0
 40
17.5
  1
Material: 
 41
0.8
  7
LCTX0-400-0-0pDIN-Schrift
100
AcDbText
  0
TEXT
  5
557
330
1F
100
AcDbEntity
  8
LC-005-004-----0
 62
     7
370
    25
100
AcDbText
 10
1799.872977
 20
559.345584
 30
0.0
 40
25.0
  1
Cristadur
 41
0.8
  7
LCTX0-400-0-0pDIN-Schrift
100
AcDbText
  0
ENDSEC
  0
SECTION
  2
OBJECTS
  0
DICTIONARY
  5
C
330
0
100
AcDbDictionary
281
     1
  3
ACAD_GROUP
350
D
  3
ACAD_LAYOUT
350
1A
  3
ACAD_MLINESTYLE
350
17
  3
ACAD_PLOTSETTINGS
350
19
  3
ACAD_PLOTSTYLENAME
350
E
  0
DICTIONARY
  5
D
102
{ACAD_REACTORS
330
C
102
}
330
C
100
AcDbDictionary
281
     1
  3
LCGROUP1773
350
55D
  3
LCGROUP2597
350
55E
  3
LCGROUP2634
350
55F
  3
LCGROUP2737
350
558
  3
LCGROUP2842
350
55B
  3
LCGROUP2860
350
55C
  3
LCGROUP3037
350
55A
  3
LCGROUP34
350
559
  0
DICTIONARY
  5
1A
102
{ACAD_REACTORS
330
C
102
}
330
C
100
AcDbDictionary
281
     1
  3
Layout1
350
1E
  3
Layout2
350
26
  3
Model
350
22
  0
DICTIONARY
  5
17
102
{ACAD_REACTORS
330
C
102
}
330
C
100
AcDbDictionary
281
     1
  3
Standard
350
18
  0
DICTIONARY
  5
19
102
{ACAD_REACTORS
330
C
102
}
330
C
100
AcDbDictionary
281
     1
  0
ACDBDICTIONARYWDFLT
  5
E
102
{ACAD_REACTORS
330
C
102
}
330
C
100
AcDbDictionary
281
     1
  3
Normal
350
F
100
AcDbDictionaryWithDefault
340
F
  0
GROUP
  5
55D
102
{ACAD_REACTORS
330
D
102
}
330
D
100
AcDbGroup
300
Gruppe 4945
 70
     1
 71
     1
340
115
340
116
340
117
  0
GROUP
  5
55E
102
{ACAD_REACTORS
330
D
102
}
330
D
100
AcDbGroup
300
GRP2597
 70
     1
 71
     1
340
106
340
109
340
10B
340
20A
340
20B
340
20C
340
20D
340
20E
340
20F
340
210
340
211
340
212
340
213
340
214
340
215
340
216
340
217
340
218
340
219
340
21A
340
21B
340
21C
340
21D
340
21E
340
21F
340
220
340
221
340
222
340
223
340
224
340
225
340
226
340
229
340
22A
340
22B
340
22E
340
22F
340
235
340
236
340
237
340
238
340
239
340
269
  0
GROUP
  5
55F
102
{ACAD_REACTORS
330
D
102
}
330
D
100
AcDbGroup
300
GRP2634
 70
     1
 71
     1
340
10C
340
10D
340
10E
340
10F
340
110
340
111
340
112
340
113
340
22C
340
22D
340
230
340
231
340
232
340
233
340
234
  0
GROUP
  5
558
102
{ACAD_REACTORS
330
D
102
}
330
D
100
AcDbGroup
300
GRP2737
 70
     1
 71
     1
340
23A
340
23B
340
23C
340
23D
340
23E
340
23F
340
240
340
241
340
242
340
243
340
244
340
245
340
246
340
247
340
248
340
249
340
24A
340
24B
340
24C
340
24D
340
24E
340
24F
340
250
340
251
340
252
340
253
340
254
340
255
340
256
340
257
340
258
340
259
340
25A
340
25B
340
25C
340
25D
340
25E
340
25F
340
260
340
261
340
262
340
263
340
264
340
265
340
266
340
267
340
268
  0
GROUP
  5
55B
102
{ACAD_REACTORS
330
D
102
}
330
D
100
AcDbGroup
300
GRP2842
 70
     1
 71
     1
340
26A
340
26B
340
26C
340
26D
340
26E
340
26F
340
2BB
340
307
  0
GROUP
  5
55C
102
{ACAD_REACTORS
330
D
102
}
330
D
100
AcDbGroup
300
GRP2860
 70
     1
 71
     1
340
308
340
309
340
30A
340
30B
340
30C
340
30D
340
30E
340
30F
340
310
340
311
340
312
340
313
340
314
340
315
340
316
340
317
340
318
340
322
340
32C
340
33A
340
348
340
358
340
366
340
367
340
368
340
369
340
36A
340
36B
340
36C
340
36D
340
36E
340
36F
340
370
340
371
340
372
340
373
340
374
340
375
340
376
340
377
340
378
340
379
340
37A
340
37B
340
37C
340
37D
340
37E
340
37F
340
380
340
381
340
382
340
383
340
384
340
385
340
386
340
387
340
388
340
389
340
38A
340
38B
340
38C
340
38D
340
38E
340
38F
340
390
340
391
340
392
340
393
340
394
340
395
340
396
340
397
340
398
340
399
340
39A
340
39B
340
39C
340
39D
340
39E
340
39F
340
3A0
340
3A5
340
3A6
340
3A7
340
3A8
  0
GROUP
  5
55A
102
{ACAD_REACTORS
330
D
102
}
330
D
100
AcDbGroup
300
GRP3037
 70
     1
 71
     1
340
3A9
340
3AA
340
3AB
340
3AC
340
3AD
340
3AE
340
3AF
340
3B0
340
3B1
340
3B2
340
3B3
340
3B4
340
3B5
340
3B6
340
3B7
340
3B8
340
3B9
340
3BA
340
3BB
340
3BC
340
3BD
340
3BE
340
3BF
340
3C0
340
3C1
340
3C2
340
3C3
340
3C4
340
3C5
340
3C6
340
3C7
340
3C8
340
3C9
340
3CA
340
3CB
340
3CC
340
3CD
340
3CE
340
3CF
340
3D0
340
3D1
340
3D2
340
3D3
340
3D4
340
3D5
340
3D6
340
3D7
340
3D8
340
3D9
340
3DA
340
3DB
340
3DC
340
3DD
340
3DE
340
3DF
340
3E0
340
3E1
340
3E2
340
3E3
340
3E4
340
3E5
340
3E6
340
3E7
340
3E8
340
3E9
340
3EA
340
3EB
340
3EC
340
3ED
340
3EE
340
3EF
340
3F0
340
3F1
340
3F6
340
3F7
340
3F8
340
3F9
340
3FA
340
3FB
340
3FC
340
3FD
340
3FE
340
3FF
340
400
340
401
340
402
340
403
340
404
340
405
340
406
340
416
340
417
340
427
340
428
340
438
340
439
340
43A
340
43B
340
43C
340
43D
340
43E
340
43F
340
440
340
441
340
442
340
443
340
444
340
445
340
446
340
447
340
448
340
449
340
44A
340
44B
340
44C
340
44D
340
44E
340
44F
340
450
340
451
  0
GROUP
  5
559
102
{ACAD_REACTORS
330
D
102
}
330
D
100
AcDbGroup
300
GRP34
 70
     1
 71
     1
340
4BD
340
4BE
340
4BF
340
4C0
340
4C1
340
4C2
340
4C3
340
4C4
340
4C5
340
4C6
340
4D4
  0
LAYOUT
  5
1E
102
{ACAD_REACTORS
330
1A
102
}
330
1A
100
AcDbPlotSettings
  1

  2

  4

  6

 40
0.0
 41
0.0
 42
0.0
 43
0.0
 44
0.0
 45
0.0
 46
0.0
 47
0.0
 48
0.0
 49
0.0
140
0.0
141
0.0
142
1.0
143
1.0
 70
   688
 72
     0
 73
     0
 74
     5
  7

 75
    16
147
1.0
148
0.0
149
0.0
100
AcDbLayout
  1
Layout1
 70
     1
 71
     1
 10
0.0
 20
0.0
 11
2100.0
 21
2970.0
 12
0.0
 22
0.0
 32
0.0
 14
0.0
 24
0.0
 34
0.0
 15
2100.0
 25
2970.0
 35
0.0
146
0.0
 13
0.0
 23
0.0
 33
0.0
 16
1.0
 26
0.0
 36
0.0
 17
0.0
 27
1.0
 37
0.0
 76
     0
330
1B
  0
LAYOUT
  5
26
102
{ACAD_REACTORS
330
1A
102
}
330
1A
100
AcDbPlotSettings
  1

  2

  4

  6

 40
0.0
 41
0.0
 42
0.0
 43
0.0
 44
0.0
 45
0.0
 46
0.0
 47
0.0
 48
0.0
 49
0.0
140
0.0
141
0.0
142
1.0
143
1.0
 70
   688
 72
     0
 73
     0
 74
     5
  7

 75
    16
147
1.0
148
0.0
149
0.0
100
AcDbLayout
  1
Layout2
 70
     1
 71
     2
 10
0.0
 20
0.0
 11
0.0
 21
0.0
 12
0.0
 22
0.0
 32
0.0
 14
0.0
 24
0.0
 34
0.0
 15
0.0
 25
0.0
 35
0.0
146
0.0
 13
0.0
 23
0.0
 33
0.0
 16
1.0
 26
0.0
 36
0.0
 17
0.0
 27
1.0
 37
0.0
 76
     0
330
23
  0
LAYOUT
  5
22
102
{ACAD_REACTORS
330
1A
102
}
330
1A
100
AcDbPlotSettings
  1

  2

  4

  6

 40
0.0
 41
0.0
 42
0.0
 43
0.0
 44
0.0
 45
0.0
 46
0.0
 47
0.0
 48
0.0
 49
0.0
140
0.0
141
0.0
142
1.0
143
1.0
 70
  1776
 72
     0
 73
     0
 74
     0
  7

 75
     0
147
1.0
148
0.0
149
0.0
100
AcDbLayout
  1
Model
 70
     1
 71
     0
 10
0.0
 20
0.0
 11
2100.0
 21
2970.0
 12
0.0
 22
0.0
 32
0.0
 14
0.0
 24
0.0
 34
0.0
 15
2100.0
 25
2970.0
 35
0.0
146
0.0
 13
0.0
 23
0.0
 33
0.0
 16
1.0
 26
0.0
 36
0.0
 17
0.0
 27
1.0
 37
0.0
 76
     0
330
1F
  0
MLINESTYLE
  5
18
102
{ACAD_REACTORS
330
17
102
}
330
17
100
AcDbMlineStyle
  2
Standard
 70
     0
  3

 62
   256
 51
90.0
 52
90.0
 71
     2
 49
0.5
 62
   256
  6
BYLAYER
 49
-0.5
 62
   256
  6
BYLAYER
  0
ACDBPLACEHOLDER
  5
F
102
{ACAD_REACTORS
330
E
102
}
330
E
  0
ENDSEC
  0
EOF
