  0
SECTION
  2
HEADER
  9
$ACADVER
  1
AC1015
  9
$ACADMAINTVER
 70
     6
  9
$DWGCODEPAGE
  3
ANSI_1252
  9
$INSBASE
 10
0.0
 20
0.0
 30
0.0
  9
$EXTMIN
 10
-525.0
 20
-742.5
 30
0.0
  9
$EXTMAX
 10
1575.0
 20
2227.5
 30
0.0
  9
$LIMMIN
 10
-525.0
 20
-742.5
  9
$LIMMAX
 10
1575.0
 20
2227.5
  9
$ORTHOMODE
 70
     0
  9
$REGENMODE
 70
     1
  9
$FILLMODE
 70
     1
  9
$QTEXTMODE
 70
     0
  9
$MIRRTEXT
 70
     1
  9
$LTSCALE
 40
10.0
  9
$ATTMODE
 70
     1
  9
$TEXTSIZE
 40
2.5
  9
$TRACEWID
 40
1.0
  9
$TEXTSTYLE
  7
Standard
  9
$CLAYER
  8
0
  9
$CELTYPE
  6
ByLayer
  9
$CECOLOR
 62
     7
  9
$CELTSCALE
 40
1.0
  9
$DISPSILH
 70
     0
  9
$DIMSCALE
 40
10.0
  9
$DIMASZ
 40
3.5
  9
$DIMEXO
 40
0.625
  9
$DIMDLI
 40
3.75
  9
$DIMRND
 40
0.0
  9
$DIMDLE
 40
0.0
  9
$DIMEXE
 40
1.25
  9
$DIMTP
 40
0.0
  9
$DIMTM
 40
0.0
  9
$DIMTXT
 40
3.5
  9
$DIMCEN
 40
2.5
  9
$DIMTSZ
 40
0.0
  9
$DIMTOL
 70
     0
  9
$DIMLIM
 70
     0
  9
$DIMTIH
 70
     0
  9
$DIMTOH
 70
     0
  9
$DIMSE1
 70
     0
  9
$DIMSE2
 70
     0
  9
$DIMTAD
 70
     1
  9
$DIMZIN
 70
     8
  9
$DIMBLK
  1

  9
$DIMASO
 70
     1
  9
$DIMSHO
 70
     1
  9
$DIMPOST
  1

  9
$DIMAPOST
  1

  9
$DIMALT
 70
     0
  9
$DIMALTD
 70
     3
  9
$DIMALTF
 40
0.03937
  9
$DIMLFAC
 40
1.0
  9
$DIMTOFL
 70
     1
  9
$DIMTVP
 40
0.0
  9
$DIMTIX
 70
     0
  9
$DIMSOXD
 70
     0
  9
$DIMSAH
 70
     0
  9
$DIMBLK1
  1

  9
$DIMBLK2
  1

  9
$DIMSTYLE
  2
ISO-25
  9
$DIMCLRD
 70
     0
  9
$DIMCLRE
 70
     0
  9
$DIMCLRT
 70
     0
  9
$DIMTFAC
 40
1.0
  9
$DIMGAP
 40
0.625
  9
$DIMJUST
 70
     0
  9
$DIMSD1
 70
     0
  9
$DIMSD2
 70
     0
  9
$DIMTOLJ
 70
     0
  9
$DIMTZIN
 70
     8
  9
$DIMALTZ
 70
     0
  9
$DIMALTTZ
 70
     0
  9
$DIMUPT
 70
     0
  9
$DIMDEC
 70
     2
  9
$DIMTDEC
 70
     2
  9
$DIMALTU
 70
     2
  9
$DIMALTTD
 70
     3
  9
$DIMTXSTY
  7
Standard
  9
$DIMAUNIT
 70
     0
  9
$DIMADEC
 70
     0
  9
$DIMALTRND
 40
0.0
  9
$DIMAZIN
 70
     0
  9
$DIMDSEP
 70
    44
  9
$DIMATFIT
 70
     3
  9
$DIMFRAC
 70
     0
  9
$DIMLDRBLK
  1

  9
$DIMLUNIT
 70
     2
  9
$DIMLWD
 70
    -2
  9
$DIMLWE
 70
    -2
  9
$DIMTMOVE
 70
     0
  9
$LUNITS
 70
     2
  9
$LUPREC
 70
     4
  9
$SKETCHINC
 40
1.0
  9
$FILLETRAD
 40
10.0
  9
$AUNITS
 70
     0
  9
$AUPREC
 70
     0
  9
$MENU
  1
.
  9
$ELEVATION
 40
0.0
  9
$PELEVATION
 40
0.0
  9
$THICKNESS
 40
0.0
  9
$LIMCHECK
 70
     0
  9
$CHAMFERA
 40
10.0
  9
$CHAMFERB
 40
10.0
  9
$CHAMFERC
 40
20.0
  9
$CHAMFERD
 40
0.0
  9
$SKPOLY
 70
     0
  9
$TDCREATE
 40
2454390.62657015
  9
$TDUCREATE
 40
2454390.543236817
  9
$TDUPDATE
 40
2454390.626570162
  9
$TDUUPDATE
 40
2454390.543236829
  9
$TDINDWG
 40
0.0000000116
  9
$TDUSRTIMER
 40
0.0000000116
  9
$USRTIMER
 70
     1
  9
$ANGBASE
 50
0.0
  9
$ANGDIR
 70
     0
  9
$PDMODE
 70
     0
  9
$PDSIZE
 40
0.0
  9
$PLINEWID
 40
0.0
  9
$SPLFRAME
 70
     0
  9
$SPLINETYPE
 70
     6
  9
$SPLINESEGS
 70
     8
  9
$HANDSEED
  5
5BA
  9
$SURFTAB1
 70
     6
  9
$SURFTAB2
 70
     6
  9
$SURFTYPE
 70
     6
  9
$SURFU
 70
     6
  9
$SURFV
 70
     6
  9
$UCSBASE
  2

  9
$UCSNAME
  2

  9
$UCSORG
 10
0.0
 20
0.0
 30
0.0
  9
$UCSXDIR
 10
1.0
 20
0.0
 30
0.0
  9
$UCSYDIR
 10
0.0
 20
1.0
 30
0.0
  9
$UCSORTHOREF
  2

  9
$UCSORTHOVIEW
 70
     0
  9
$UCSORGTOP
 10
0.0
 20
0.0
 30
0.0
  9
$UCSORGBOTTOM
 10
0.0
 20
0.0
 30
0.0
  9
$UCSORGLEFT
 10
0.0
 20
0.0
 30
0.0
  9
$UCSORGRIGHT
 10
0.0
 20
0.0
 30
0.0
  9
$UCSORGFRONT
 10
0.0
 20
0.0
 30
0.0
  9
$UCSORGBACK
 10
0.0
 20
0.0
 30
0.0
  9
$PUCSBASE
  2

  9
$PUCSNAME
  2

  9
$PUCSORG
 10
0.0
 20
0.0
 30
0.0
  9
$PUCSXDIR
 10
1.0
 20
0.0
 30
0.0
  9
$PUCSYDIR
 10
0.0
 20
1.0
 30
0.0
  9
$PUCSORTHOREF
  2

  9
$PUCSORTHOVIEW
 70
     0
  9
$PUCSORGTOP
 10
0.0
 20
0.0
 30
0.0
  9
$PUCSORGBOTTOM
 10
0.0
 20
0.0
 30
0.0
  9
$PUCSORGLEFT
 10
0.0
 20
0.0
 30
0.0
  9
$PUCSORGRIGHT
 10
0.0
 20
0.0
 30
0.0
  9
$PUCSORGFRONT
 10
0.0
 20
0.0
 30
0.0
  9
$PUCSORGBACK
 10
0.0
 20
0.0
 30
0.0
  9
$USERI1
 70
     0
  9
$USERI2
 70
     0
  9
$USERI3
 70
     0
  9
$USERI4
 70
     0
  9
$USERI5
 70
     0
  9
$USERR1
 40
0.0
  9
$USERR2
 40
0.0
  9
$USERR3
 40
0.0
  9
$USERR4
 40
0.0
  9
$USERR5
 40
0.0
  9
$WORLDVIEW
 70
     1
  9
$SHADEDGE
 70
     3
  9
$SHADEDIF
 70
    70
  9
$TILEMODE
 70
     1
  9
$MAXACTVP
 70
    64
  9
$PINSBASE
 10
0.0
 20
0.0
 30
0.0
  9
$PLIMCHECK
 70
     0
  9
$PEXTMIN
 10
-525.0
 20
-742.5
 30
0.0
  9
$PEXTMAX
 10
1575.0
 20
2227.5
 30
0.0
  9
$PLIMMIN
 10
-525.0
 20
-742.5
  9
$PLIMMAX
 10
1575.0
 20
2227.5
  9
$UNITMODE
 70
     0
  9
$VISRETAIN
 70
     1
  9
$PLINEGEN
 70
     0
  9
$PSLTSCALE
 70
     1
  9
$TREEDEPTH
 70
  3020
  9
$CMLSTYLE
  2
Standard
  9
$CMLJUST
 70
     0
  9
$CMLSCALE
 40
20.0
  9
$PROXYGRAPHICS
 70
     1
  9
$MEASUREMENT
 70
     1
  9
$CELWEIGHT
370
    -1
  9
$ENDCAPS
280
     0
  9
$JOINSTYLE
280
     0
  9
$LWDISPLAY
290
     0
  9
$INSUNITS
 70
     4
  9
$HYPERLINKBASE
  1

  9
$STYLESHEET
  1

  9
$XEDIT
290
     1
  9
$CEPSNTYPE
380
     0
  9
$PSTYLEMODE
290
     1
  9
$FINGERPRINTGUID
  2
{FAEB1C30-E019-11D5-929B-00C0DF256EC4}
  9
$VERSIONGUID
  2
{FAEB1C32-E019-11D5-929B-00C0DF256EC4}
  9
$EXTNAMES
290
     1
  9
$PSVPSCALE
 40
0.0
  9
$OLESTARTUP
290
     0
  0
ENDSEC
  0
SECTION
  2
CLASSES
  0
CLASS
  1
ACDBDICTIONARYWDFLT
  2
AcDbDictionaryWithDefault
  3
ObjectDBX Classes
 90
        0
280
     0
281
     0
  0
CLASS
  1
ACDBPLACEHOLDER
  2
AcDbPlaceHolder
  3
ObjectDBX Classes
 90
        0
280
     0
281
     0
  0
CLASS
  1
LAYOUT
  2
AcDbLayout
  3
ObjectDBX Classes
 90
        0
280
     0
281
     0
  0
ENDSEC
  0
SECTION
  2
TABLES
  0
TABLE
  2
VPORT
  5
8
330
0
100
AcDbSymbolTable
 70
     2
  0
VPORT
  5
29
330
8
100
AcDbSymbolTableRecord
100
AcDbViewportTableRecord
  2
*ACTIVE
 70
     0
 10
0.0
 20
0.0
 11
1.0
 21
1.0
 12
525.0
 22
742.5
 13
0.0
 23
0.0
 14
1.0
 24
1.0
 15
0.0
 25
0.0
 16
0.0
 26
0.0
 36
1.0
 17
0.0
 27
0.0
 37
0.0
 40
2970.0
 41
0.707071
 42
50.0
 43
0.0
 44
0.0
 50
0.0
 51
0.0
 71
    16
 72
   100
 73
     1
 74
     0
 75
     0
 76
     0
 77
     0
 78
     0
281
     0
 65
     0
110
0.0
120
0.0
130
0.0
111
1.0
121
0.0
131
0.0
112
0.0
122
1.0
132
0.0
 79
     0
146
0.0
  0
ENDTAB
  0
TABLE
  2
LTYPE
  5
5
330
0
100
AcDbSymbolTable
 70
     4
  0
LTYPE
  5
14
330
5
100
AcDbSymbolTableRecord
100
AcDbLinetypeTableRecord
  2
ByBlock
 70
     0
  3

 72
    65
 73
     0
 40
0.0
  0
LTYPE
  5
15
330
5
100
AcDbSymbolTableRecord
100
AcDbLinetypeTableRecord
  2
ByLayer
 70
     0
  3

 72
    65
 73
     0
 40
0.0
  0
LTYPE
  5
16
330
5
100
AcDbSymbolTableRecord
100
AcDbLinetypeTableRecord
  2
Continuous
 70
     0
  3
Solid line
 72
    65
 73
     0
 40
0.0
  0
LTYPE
  5
2A
330
5
100
AcDbSymbolTableRecord
100
AcDbLinetypeTableRecord
  2
DASHED
 70
     0
  3
__ __ __ __ __
 72
    65
 73
     2
 40
6.25
 49
5.0
 74
     4
 75
     0
340
0
 46
1.0
 50
0.0
 44
0.0
 45
0.0
 49
-1.25
 74
     4
 75
     0
340
0
 46
1.0
 50
0.0
 44
0.0
 45
0.0
  0
LTYPE
  5
107
330
5
100
AcDbSymbolTableRecord
100
AcDbLinetypeTableRecord
  2
CENTER
 70
     0
  3
__ . __ . __ . __ . __
 72
    65
 73
     4
 40
7.5
 49
5.0
 74
     4
 75
     0
340
0
 46
1.0
 50
0.0
 44
0.0
 45
0.0
 49
-1.25
 74
     4
 75
     0
340
0
 46
1.0
 50
0.0
 44
0.0
 45
0.0
 49
0.0
 74
     4
 75
     0
340
0
 46
1.0
 50
0.0
 44
0.0
 45
0.0
 49
-1.25
 74
     4
 75
     0
340
0
 46
1.0
 50
0.0
 44
0.0
 45
0.0
  0
LTYPE
  5
151
330
5
100
AcDbSymbolTableRecord
100
AcDbLinetypeTableRecord
  2
DASHDOT
 70
     0
  3
__ . __ . __ . __ . __
 72
    65
 73
     4
 40
7.5
 49
5.0
 74
     4
 75
     0
340
0
 46
1.0
 50
0.0
 44
0.0
 45
0.0
 49
-1.25
 74
     4
 75
     0
340
0
 46
1.0
 50
0.0
 44
0.0
 45
0.0
 49
0.0
 74
     4
 75
     0
340
0
 46
1.0
 50
0.0
 44
0.0
 45
0.0
 49
-1.25
 74
     4
 75
     0
340
0
 46
1.0
 50
0.0
 44
0.0
 45
0.0
  0
ENDTAB
  0
TABLE
  2
LAYER
  5
2
330
0
100
AcDbSymbolTable
 70
    17
  0
LAYER
  5
10
330
2
100
AcDbSymbolTableRecord
100
AcDbLayerTableRecord
  2
0
 70
     0
 62
     7
  6
Continuous
370
    -3
390
F
  0
LAYER
  5
2B
330
2
100
AcDbSymbolTableRecord
100
AcDbLayerTableRecord
  2
LC-INFO-1-10-mm-A4H-0
 70
     1
 62
     7
  6
ByBlock
370
    -3
390
F
  0
LAYER
  5
2C
330
2
100
AcDbSymbolTableRecord
100
AcDbLayerTableRecord
  2
LC-CUT-HIDDEN
 70
     0
 62
     7
  6
DASHED
370
    -3
390
F
  0
LAYER
  5
2D
330
2
100
AcDbSymbolTableRecord
100
AcDbLayerTableRecord
  2
LC-VIEWPORT
 70
     0
 62
     7
  6
ByBlock
370
    -3
390
F
  0
LAYER
  5
2E
330
2
100
AcDbSymbolTableRecord
100
AcDbLayerTableRecord
  2
LC-3D-HIDDEN
 70
     0
 62
     9
  6
DASHED
370
    -3
390
F
  0
LAYER
  5
33
330
2
100
AcDbSymbolTableRecord
100
AcDbLayerTableRecord
  2
LC-001-111-----0
 70
     0
 62
   253
  6
ByBlock
370
    -3
390
F
  0
LAYER
  5
A1
330
2
100
AcDbSymbolTableRecord
100
AcDbLayerTableRecord
  2
LC-002-002-----0
 70
     0
 62
     1
  6
ByBlock
370
    -3
390
F
  0
LAYER
  5
102
330
2
100
AcDbSymbolTableRecord
100
AcDbLayerTableRecord
  2
LC-003-230-ZVN-0
 70
     0
 62
     7
  6
ByBlock
370
    -3
390
F
  0
LAYER
  5
108
330
2
100
AcDbSymbolTableRecord
100
AcDbLayerTableRecord
  2
LC-004-006-MLN-0
 70
     0
 62
     2
  6
CENTER
370
    -3
390
F
  0
LAYER
  5
131
330
2
100
AcDbSymbolTableRecord
100
AcDbLayerTableRecord
  2
LC-005-001-RND-0
 70
     0
 62
     1
  6
ByBlock
370
    -3
390
F
  0
LAYER
  5
133
330
2
100
AcDbSymbolTableRecord
100
AcDbLayerTableRecord
  2
LC-006-001-----0
 70
     0
 62
     1
  6
ByBlock
370
    -3
390
F
  0
LAYER
  5
169
330
2
100
AcDbSymbolTableRecord
100
AcDbLayerTableRecord
  2
LC-007-003-MTH-0
 70
     0
 62
     2
  6
ByBlock
370
    -3
390
F
  0
LAYER
  5
16C
330
2
100
AcDbSymbolTableRecord
100
AcDbLayerTableRecord
  2
LC-008-003-MTG-0
 70
     0
 62
     2
  6
ByBlock
370
    -3
390
F
  0
LAYER
  5
16E
330
2
100
AcDbSymbolTableRecord
100
AcDbLayerTableRecord
  2
LC-009-003-----0
 70
     0
 62
     2
  6
ByBlock
370
    -3
390
F
  0
LAYER
  5
1DF
330
2
100
AcDbSymbolTableRecord
100
AcDbLayerTableRecord
  2
LC-010-002-RND-0
 70
     0
 62
     1
  6
ByBlock
370
    -3
390
F
  0
LAYER
  5
227
330
2
100
AcDbSymbolTableRecord
100
AcDbLayerTableRecord
  2
LC-011-004-----0
 70
     0
 62
     7
  6
ByBlock
370
    -3
390
F
  0
LAYER
  5
4B2
330
2
100
AcDbSymbolTableRecord
100
AcDbLayerTableRecord
  2
LC-012-005-----0
 70
     0
 62
     2
  6
ByBlock
370
    -3
390
F
  0
ENDTAB
  0
TABLE
  2
STYLE
  5
3
330
0
100
AcDbSymbolTable
 70
     2
  0
STYLE
  5
11
330
3
100
AcDbSymbolTableRecord
100
AcDbTextStyleTableRecord
  2
Standard
 70
     0
 40
0.0
 41
1.0
 50
0.0
 71
     0
 42
2.5
  3
txt
  4

  0
STYLE
  5
2F
330
3
100
AcDbSymbolTableRecord
100
AcDbTextStyleTableRecord
  2
LCTX0-400-0-0pDIN-Schrift
 70
     0
 40
0.0
 41
0.8
 50
0.0
 71
     0
 42
3.5
  3
TXT
  4

  0
ENDTAB
  0
TABLE
  2
VIEW
  5
6
330
0
100
AcDbSymbolTable
 70
     0
  0
ENDTAB
  0
TABLE
  2
UCS
  5
7
330
0
100
AcDbSymbolTable
 70
     0
  0
ENDTAB
  0
TABLE
  2
APPID
  5
9
330
0
100
AcDbSymbolTable
 70
     1
  0
APPID
  5
12
330
9
100
AcDbSymbolTableRecord
100
AcDbRegAppTableRecord
  2
ACAD
 70
     0
  0
ENDTAB
  0
TABLE
  2
DIMSTYLE
  5
A
330
0
100
AcDbSymbolTable
 70
     1
100
AcDbDimStyleTable
  0
DIMSTYLE
105
27
330
A
100
AcDbSymbolTableRecord
100
AcDbDimStyleTableRecord
  2
ISO-25
 70
     0
 41
2.5
 42
0.625
 43
3.75
 44
1.25
 73
     0
 74
     0
 77
     1
 78
     8
140
2.5
141
2.5
143
0.03937
147
0.625
171
     3
172
     1
271
     2
272
     2
274
     3
278
    44
283
     0
284
     8
340
11
  0
ENDTAB
  0
TABLE
  2
BLOCK_RECORD
  5
1
330
0
100
AcDbSymbolTable
 70
    36
  0
BLOCK_RECORD
  5
1F
330
1
100
AcDbSymbolTableRecord
100
AcDbBlockTableRecord
  2
*Model_Space
340
22
  0
BLOCK_RECORD
  5
1B
330
1
100
AcDbSymbolTableRecord
100
AcDbBlockTableRecord
  2
*Paper_Space
340
1E
  0
BLOCK_RECORD
  5
23
330
1
100
AcDbSymbolTableRecord
100
AcDbBlockTableRecord
  2
*Paper_Space0
340
26
  0
BLOCK_RECORD
  5
30
330
1
100
AcDbSymbolTableRecord
100
AcDbBlockTableRecord
  2
SYM1
340
0
102
{BLKREFS
331
103
102
}
  0
BLOCK_RECORD
  5
166
330
1
100
AcDbSymbolTableRecord
100
AcDbBlockTableRecord
  2
LCDIM1
340
0
102
{BLKREFS
331
182
102
}
  0
BLOCK_RECORD
  5
1A8
330
1
100
AcDbSymbolTableRecord
100
AcDbBlockTableRecord
  2
LCDIM2
340
0
102
{BLKREFS
331
1C1
102
}
  0
BLOCK_RECORD
  5
1E4
330
1
100
AcDbSymbolTableRecord
100
AcDbBlockTableRecord
  2
LCDIM3
340
0
102
{BLKREFS
331
1FD
102
}
  0
BLOCK_RECORD
  5
1FE
330
1
100
AcDbSymbolTableRecord
100
AcDbBlockTableRecord
  2
LCDIM4
340
0
102
{BLKREFS
331
217
102
}
  0
BLOCK_RECORD
  5
218
330
1
100
AcDbSymbolTableRecord
100
AcDbBlockTableRecord
  2
LCDIM5
340
0
102
{BLKREFS
331
226
102
}
  0
BLOCK_RECORD
  5
273
330
1
100
AcDbSymbolTableRecord
100
AcDbBlockTableRecord
  2
POLY1
340
0
102
{BLKREFS
331
277
102
}
  0
BLOCK_RECORD
  5
287
330
1
100
AcDbSymbolTableRecord
100
AcDbBlockTableRecord
  2
POLY2
340
0
102
{BLKREFS
331
296
102
}
  0
BLOCK_RECORD
  5
298
330
1
100
AcDbSymbolTableRecord
100
AcDbBlockTableRecord
  2
POLY3
340
0
102
{BLKREFS
331
2A7
102
}
  0
BLOCK_RECORD
  5
2A9
330
1
100
AcDbSymbolTableRecord
100
AcDbBlockTableRecord
  2
POLY4
340
0
102
{BLKREFS
331
2B8
102
}
  0
BLOCK_RECORD
  5
328
330
1
100
AcDbSymbolTableRecord
100
AcDbBlockTableRecord
  2
POLY5
340
0
102
{BLKREFS
331
33F
102
}
  0
BLOCK_RECORD
  5
340
330
1
100
AcDbSymbolTableRecord
100
AcDbBlockTableRecord
  2
POLY6
340
0
102
{BLKREFS
331
349
102
}
  0
BLOCK_RECORD
  5
34A
330
1
100
AcDbSymbolTableRecord
100
AcDbBlockTableRecord
  2
POLY7
340
0
102
{BLKREFS
331
35B
102
}
  0
BLOCK_RECORD
  5
35C
330
1
100
AcDbSymbolTableRecord
100
AcDbBlockTableRecord
  2
POLY8
340
0
102
{BLKREFS
331
385
102
}
  0
BLOCK_RECORD
  5
3B8
330
1
100
AcDbSymbolTableRecord
100
AcDbBlockTableRecord
  2
POLY9
340
0
102
{BLKREFS
331
3C1
102
}
  0
BLOCK_RECORD
  5
3C2
330
1
100
AcDbSymbolTableRecord
100
AcDbBlockTableRecord
  2
POLY10
340
0
102
{BLKREFS
331
3CB
102
}
  0
BLOCK_RECORD
  5
3CC
330
1
100
AcDbSymbolTableRecord
100
AcDbBlockTableRecord
  2
POLY11
340
0
102
{BLKREFS
331
3D5
102
}
  0
BLOCK_RECORD
  5
3D6
330
1
100
AcDbSymbolTableRecord
100
AcDbBlockTableRecord
  2
POLY12
340
0
102
{BLKREFS
331
421
102
}
  0
BLOCK_RECORD
  5
422
330
1
100
AcDbSymbolTableRecord
100
AcDbBlockTableRecord
  2
POLY13
340
0
102
{BLKREFS
331
42B
102
}
  0
BLOCK_RECORD
  5
42C
330
1
100
AcDbSymbolTableRecord
100
AcDbBlockTableRecord
  2
POLY14
340
0
102
{BLKREFS
331
435
102
}
  0
BLOCK_RECORD
  5
436
330
1
100
AcDbSymbolTableRecord
100
AcDbBlockTableRecord
  2
POLY15
340
0
102
{BLKREFS
331
43F
102
}
  0
BLOCK_RECORD
  5
440
330
1
100
AcDbSymbolTableRecord
100
AcDbBlockTableRecord
  2
POLY16
340
0
102
{BLKREFS
331
48B
102
}
  0
BLOCK_RECORD
  5
495
330
1
100
AcDbSymbolTableRecord
100
AcDbBlockTableRecord
  2
LCDIM6
340
0
102
{BLKREFS
331
4AE
102
}
  0
BLOCK_RECORD
  5
4AF
330
1
100
AcDbSymbolTableRecord
100
AcDbBlockTableRecord
  2
*X124
340
0
102
{BLKREFS
331
4B7
102
}
  0
BLOCK_RECORD
  5
4BE
330
1
100
AcDbSymbolTableRecord
100
AcDbBlockTableRecord
  2
*X225
340
0
102
{BLKREFS
331
4C4
102
}
  0
BLOCK_RECORD
  5
4C7
330
1
100
AcDbSymbolTableRecord
100
AcDbBlockTableRecord
  2
LCDIM7
340
0
102
{BLKREFS
331
4E0
102
}
  0
BLOCK_RECORD
  5
4E1
330
1
100
AcDbSymbolTableRecord
100
AcDbBlockTableRecord
  2
*X327
340
0
102
{BLKREFS
331
4E9
102
}
  0
BLOCK_RECORD
  5
4EA
330
1
100
AcDbSymbolTableRecord
100
AcDbBlockTableRecord
  2
*X428
340
0
102
{BLKREFS
331
4F3
102
}
  0
BLOCK_RECORD
  5
4F4
330
1
100
AcDbSymbolTableRecord
100
AcDbBlockTableRecord
  2
LCDIM8
340
0
102
{BLKREFS
331
50D
102
}
  0
BLOCK_RECORD
  5
50E
330
1
100
AcDbSymbolTableRecord
100
AcDbBlockTableRecord
  2
LCDIM9
340
0
102
{BLKREFS
331
527
102
}
  0
BLOCK_RECORD
  5
528
330
1
100
AcDbSymbolTableRecord
100
AcDbBlockTableRecord
  2
LCDIM10
340
0
102
{BLKREFS
331
541
102
}
  0
BLOCK_RECORD
  5
542
330
1
100
AcDbSymbolTableRecord
100
AcDbBlockTableRecord
  2
LCDIM11
340
0
102
{BLKREFS
331
55B
102
}
  0
BLOCK_RECORD
  5
568
330
1
100
AcDbSymbolTableRecord
100
AcDbBlockTableRecord
  2
LCDIM12
340
0
102
{BLKREFS
331
581
102
}
  0
BLOCK_RECORD
  5
582
330
1
100
AcDbSymbolTableRecord
100
AcDbBlockTableRecord
  2
LCDIM13
340
0
102
{BLKREFS
331
59B
102
}
  0
BLOCK_RECORD
  5
59C
330
1
100
AcDbSymbolTableRecord
100
AcDbBlockTableRecord
  2
LCDIM14
340
0
102
{BLKREFS
331
5AA
102
}
  0
ENDTAB
  0
ENDSEC
  0
SECTION
  2
BLOCKS
  0
BLOCK
  5
20
330
1F
100
AcDbEntity
  8
0
100
AcDbBlockBegin
  2
*Model_Space
 70
     0
 71
     0
 10
0.0
 20
0.0
 30
0.0
  3
*Model_Space
  1

  0
ENDBLK
  5
21
330
1F
100
AcDbEntity
  8
0
100
AcDbBlockEnd
  0
BLOCK
  5
1C
330
1B
100
AcDbEntity
 67
     1
  8
0
100
AcDbBlockBegin
  2
*Paper_Space
 70
     0
 71
     0
 10
0.0
 20
0.0
 30
0.0
  3
*Paper_Space
  1

  0
ENDBLK
  5
1D
330
1B
100
AcDbEntity
 67
     1
  8
0
100
AcDbBlockEnd
  0
BLOCK
  5
24
330
23
100
AcDbEntity
  8
0
100
AcDbBlockBegin
  2
*Paper_Space0
 70
     0
 71
     0
 10
0.0
 20
0.0
 30
0.0
  3
*Paper_Space0
  1

  0
ENDBLK
  5
25
330
23
100
AcDbEntity
  8
0
100
AcDbBlockEnd
  0
BLOCK
  5
31
330
30
100
AcDbEntity
  8
0
100
AcDbBlockBegin
  2
SYM1
 70
     0
 71
     0
 10
-525.0
 20
-742.5
 30
0.0
  3
SYM1
  1

  4
SYM1
  0
LINE
  5
34
330
30
100
AcDbEntity
  8
LC-001-111-----0
 62
   253
370
    50
100
AcDbLine
 10
1525.0
 20
-692.5
 30
0.0
 11
1525.0
 21
2177.5
 31
0.0
  0
LINE
  5
35
330
30
100
AcDbEntity
  8
LC-001-111-----0
 62
   253
370
    25
100
AcDbLine
 10
-347.0
 20
-522.5
 30
0.0
 11
199.0
 21
-522.5
 31
0.0
  0
LINE
  5
36
330
30
100
AcDbEntity
  8
LC-001-111-----0
 62
   253
370
    35
100
AcDbLine
 10
199.0
 20
-522.5
 30
0.0
 11
1525.0
 21
-522.5
 31
0.0
  0
LINE
  5
37
330
30
100
AcDbEntity
  8
LC-001-111-----0
 62
   253
370
    50
100
AcDbLine
 10
-347.0
 20
-140.0
 30
0.0
 11
1525.0
 21
-140.0
 31
0.0
  0
LINE
  5
38
330
30
100
AcDbEntity
  8
LC-001-111-----0
 62
   253
370
    25
100
AcDbLine
 10
-347.0
 20
-650.0
 30
0.0
 11
1525.0
 21
-650.0
 31
0.0
  0
LINE
  5
39
330
30
100
AcDbEntity
  8
LC-001-111-----0
 62
   253
370
    25
100
AcDbLine
 10
-347.0
 20
-607.5
 30
0.0
 11
199.0
 21
-607.5
 31
0.0
  0
LINE
  5
3A
330
30
100
AcDbEntity
  8
LC-001-111-----0
 62
   253
370
    25
100
AcDbLine
 10
-347.0
 20
-565.0
 30
0.0
 11
199.0
 21
-565.0
 31
0.0
  0
LINE
  5
3B
330
30
100
AcDbEntity
  8
LC-001-111-----0
 62
   253
370
    25
100
AcDbLine
 10
-347.0
 20
-480.0
 30
0.0
 11
641.0
 21
-480.0
 31
0.0
  0
LINE
  5
3C
330
30
100
AcDbEntity
  8
LC-001-111-----0
 62
   253
370
    25
100
AcDbLine
 10
-347.0
 20
-437.5
 30
0.0
 11
641.0
 21
-437.5
 31
0.0
  0
LINE
  5
3D
330
30
100
AcDbEntity
  8
LC-001-111-----0
 62
   253
370
    25
100
AcDbLine
 10
-347.0
 20
-395.0
 30
0.0
 11
641.0
 21
-395.0
 31
0.0
  0
LINE
  5
3E
330
30
100
AcDbEntity
  8
LC-001-111-----0
 62
   253
370
    25
100
AcDbLine
 10
-347.0
 20
-352.5
 30
0.0
 11
641.0
 21
-352.5
 31
0.0
  0
LINE
  5
3F
330
30
100
AcDbEntity
  8
LC-001-111-----0
 62
   253
370
    35
100
AcDbLine
 10
-347.0
 20
-310.0
 30
0.0
 11
1525.0
 21
-310.0
 31
0.0
  0
LINE
  5
40
330
30
100
AcDbEntity
  8
LC-001-111-----0
 62
   253
370
    25
100
AcDbLine
 10
303.0
 20
-480.0
 30
0.0
 11
303.0
 21
-310.0
 31
0.0
  0
LINE
  5
41
330
30
100
AcDbEntity
  8
LC-001-111-----0
 62
   253
370
    35
100
AcDbLine
 10
1395.0
 20
-650.0
 30
0.0
 11
1395.0
 21
-522.5
 31
0.0
  0
LINE
  5
42
330
30
100
AcDbEntity
  8
LC-001-111-----0
 62
   253
370
    25
100
AcDbLine
 10
641.0
 20
-203.75
 30
0.0
 11
1525.0
 21
-203.75
 31
0.0
  0
LINE
  5
43
330
30
100
AcDbEntity
  8
LC-001-111-----0
 62
   253
370
    25
100
AcDbLine
 10
-269.0
 20
-692.5
 30
0.0
 11
-269.0
 21
-310.0
 31
0.0
  0
LINE
  5
44
330
30
100
AcDbEntity
  8
LC-001-111-----0
 62
   253
370
    25
100
AcDbLine
 10
-9.0
 20
-692.5
 30
0.0
 11
-9.0
 21
-310.0
 31
0.0
  0
LINE
  5
45
330
30
100
AcDbEntity
  8
LC-001-111-----0
 62
   253
370
    25
100
AcDbLine
 10
121.0
 20
-692.5
 30
0.0
 11
121.0
 21
-310.0
 31
0.0
  0
LINE
  5
46
330
30
100
AcDbEntity
  8
LC-001-111-----0
 62
   253
370
    35
100
AcDbLine
 10
199.0
 20
-692.5
 30
0.0
 11
199.0
 21
-140.0
 31
0.0
  0
LINE
  5
47
330
30
100
AcDbEntity
  8
LC-001-111-----0
 62
   253
370
    35
100
AcDbLine
 10
641.0
 20
-692.5
 30
0.0
 11
641.0
 21
-140.0
 31
0.0
  0
LINE
  5
48
330
30
100
AcDbEntity
  8
LC-001-111-----0
 62
   253
370
    25
100
AcDbLine
 10
1395.0
 20
-607.5
 30
0.0
 11
1525.0
 21
-607.5
 31
0.0
  0
LINE
  5
49
330
30
100
AcDbEntity
  8
LC-001-111-----0
 62
   253
370
    25
100
AcDbLine
 10
459.0
 20
-522.5
 30
0.0
 11
459.0
 21
-140.0
 31
0.0
  0
LINE
  5
4A
330
30
100
AcDbEntity
  8
LC-001-111-----0
 62
   253
370
    25
100
AcDbLine
 10
1161.0
 20
-203.75
 30
0.0
 11
1161.0
 21
-140.0
 31
0.0
  0
LINE
  5
4B
330
30
100
AcDbEntity
  8
LC-001-111-----0
 62
   253
370
    25
100
AcDbLine
 10
1083.0
 20
-692.5
 30
0.0
 11
1083.0
 21
-650.0
 31
0.0
  0
LINE
  5
4C
330
30
100
AcDbEntity
  8
LC-001-111-----0
 62
   253
370
    50
100
AcDbLine
 10
-347.0
 20
-692.5
 30
0.0
 11
-347.0
 21
2177.5
 31
0.0
  0
LINE
  5
4D
330
30
100
AcDbEntity
  8
LC-001-111-----0
 62
   253
370
    50
100
AcDbLine
 10
-347.0
 20
2177.5
 30
0.0
 11
1525.0
 21
2177.5
 31
0.0
  0
TEXT
  5
4E
330
30
100
AcDbEntity
  8
LC-001-111-----0
 62
     7
370
    25
100
AcDbText
 10
955.339286
 20
-184.375
 30
0.0
 40
25.0
  1
1:5
 41
0.75
  7
LCTX0-400-0-0pDIN-Schrift
 72
     1
 11
979.0
 21
-184.375
 31
0.0
100
AcDbText
  0
TEXT
  5
4F
330
30
100
AcDbEntity
  8
LC-001-111-----0
 62
     7
370
    25
100
AcDbText
 10
214.839286
 20
-343.75
 30
0.0
 40
25.0
  1
2004
 41
0.75
  7
LCTX0-400-0-0pDIN-Schrift
 72
     1
 11
251.0
 21
-343.75
 31
0.0
100
AcDbText
  0
TEXT
  5
50
330
30
100
AcDbEntity
  8
LC-001-111-----0
 62
     7
370
    25
100
AcDbText
 10
335.464286
 20
-386.25
 30
0.0
 40
25.0
  1
11.05.
 41
0.75
  7
LCTX0-400-0-0pDIN-Schrift
 72
     1
 11
381.0
 21
-386.25
 31
0.0
100
AcDbText
  0
TEXT
  5
51
330
30
100
AcDbEntity
  8
LC-001-111-----0
 62
     7
370
    25
100
AcDbText
 10
531.696429
 20
-386.25
 30
0.0
 40
25.0
  1
HÄ
 41
0.75
  7
LCTX0-400-0-0pDIN-Schrift
 72
     1
 11
550.0
 21
-386.25
 31
0.0
100
AcDbText
  0
TEXT
  5
52
330
30
100
AcDbEntity
  8
LC-001-111-----0
 62
   253
370
    20
100
AcDbText
 10
658.923077
 20
-181.875
 30
0.0
 40
20.0
  1
Maßstab
 41
0.75
  7
LCTX0-400-0-0pDIN-Schrift
100
AcDbText
  0
TEXT
  5
53
330
30
100
AcDbEntity
  8
LC-001-111-----0
 62
   253
370
    20
100
AcDbText
 10
344.928571
 20
-341.25
 30
0.0
 40
20.0
  1
Datum
 41
0.75
  7
LCTX0-400-0-0pDIN-Schrift
 72
     1
 11
381.0
 21
-341.25
 31
0.0
100
AcDbText
  0
TEXT
  5
54
330
30
100
AcDbEntity
  8
LC-001-111-----0
 62
   253
370
    20
100
AcDbText
 10
517.857143
 20
-341.25
 30
0.0
 40
20.0
  1
Name
 41
0.75
  7
LCTX0-400-0-0pDIN-Schrift
 72
     1
 11
550.0
 21
-341.25
 31
0.0
100
AcDbText
  0
TEXT
  5
55
330
30
100
AcDbEntity
  8
LC-001-111-----0
 62
   253
370
    20
100
AcDbText
 10
216.923077
 20
-383.75
 30
0.0
 40
20.0
  1
Bearb.
 41
0.75
  7
LCTX0-400-0-0pDIN-Schrift
100
AcDbText
  0
TEXT
  5
56
330
30
100
AcDbEntity
  8
LC-001-111-----0
 62
   253
370
    20
100
AcDbText
 10
216.923077
 20
-426.25
 30
0.0
 40
20.0
  1
Gepr.
 41
0.75
  7
LCTX0-400-0-0pDIN-Schrift
100
AcDbText
  0
TEXT
  5
57
330
30
100
AcDbEntity
  8
LC-001-111-----0
 62
   253
370
    20
100
AcDbText
 10
216.923077
 20
-468.75
 30
0.0
 40
20.0
  1
Norm
 41
0.75
  7
LCTX0-400-0-0pDIN-Schrift
100
AcDbText
  0
TEXT
  5
58
330
30
100
AcDbEntity
  8
LC-001-111-----0
 62
   253
370
    20
100
AcDbText
 10
1412.923077
 20
-553.75
 30
0.0
 40
20.0
  1
Blatt
 41
0.75
  7
LCTX0-400-0-0pDIN-Schrift
100
AcDbText
  0
TEXT
  5
59
330
30
100
AcDbEntity
  8
LC-001-111-----0
 62
   253
370
    20
100
AcDbText
 10
1487.076923
 20
-638.75
 30
0.0
 40
20.0
  1
Bl.
 41
0.75
  7
LCTX0-400-0-0pDIN-Schrift
 72
     2
 11
1512.076923
 21
-638.75
 31
0.0
100
AcDbText
  0
TEXT
  5
5A
330
30
100
AcDbEntity
  8
LC-001-111-----0
 62
   253
370
    20
100
AcDbText
 10
-325.0
 20
-681.25
 30
0.0
 40
20.0
  1
Zust.
 41
0.6
  7
LCTX0-400-0-0pDIN-Schrift
 72
     1
 11
-303.0
 21
-681.25
 31
0.0
100
AcDbText
  0
TEXT
  5
5B
330
30
100
AcDbEntity
  8
LC-001-111-----0
 62
   253
370
    20
100
AcDbText
 10
-190.071429
 20
-681.25
 30
0.0
 40
20.0
  1
Änderung
 41
0.75
  7
LCTX0-400-0-0pDIN-Schrift
 72
     1
 11
-139.0
 21
-681.25
 31
0.0
100
AcDbText
  0
TEXT
  5
5C
330
30
100
AcDbEntity
  8
LC-001-111-----0
 62
   253
370
    20
100
AcDbText
 10
19.928571
 20
-681.25
 30
0.0
 40
20.0
  1
Datum
 41
0.75
  7
LCTX0-400-0-0pDIN-Schrift
 72
     1
 11
56.0
 21
-681.25
 31
0.0
100
AcDbText
  0
TEXT
  5
5D
330
30
100
AcDbEntity
  8
LC-001-111-----0
 62
   253
370
    20
100
AcDbText
 10
127.857143
 20
-681.25
 30
0.0
 40
20.0
  1
Name
 41
0.75
  7
LCTX0-400-0-0pDIN-Schrift
 72
     1
 11
160.0
 21
-681.25
 31
0.0
100
AcDbText
  0
TEXT
  5
5E
330
30
100
AcDbEntity
  8
LC-001-111-----0
 62
     7
370
    50
100
AcDbText
 10
887.464286
 20
-398.75
 30
0.0
 40
50.0
  1
X-tra N-100
 41
0.75
  7
LCTX0-400-0-0pDIN-Schrift
 72
     1
 11
1083.0
 21
-398.75
 31
0.0
100
AcDbText
  0
TEXT
  5
5F
330
30
100
AcDbEntity
  8
LC-001-111-----0
 62
     7
370
    35
100
AcDbText
 10
980.677014
 20
-476.25
 30
0.0
 40
35.0
  1
Euro N-100
 41
0.75
  7
LCTX0-400-0-0pDIN-Schrift
100
AcDbText
  0
TEXT
  5
60
330
30
100
AcDbEntity
  8
LC-001-111-----0
 62
     7
370
    50
100
AcDbText
 10
803.714286
 20
-611.25
 30
0.0
 40
50.0
  1
4.00.629.04.00
 41
0.75
  7
LCTX0-400-0-0pDIN-Schrift
 72
     1
 11
1018.0
 21
-611.25
 31
0.0
100
AcDbText
  0
ARC
  5
61
330
30
100
AcDbEntity
  8
LC-001-111-----0
 62
   253
370
    25
100
AcDbCircle
 10
233.903191
 20
-567.932256
 30
0.0
 40
20.81533311668206
100
AcDbArc
 50
62.408264
 51
94.48185
  0
LINE
  5
62
330
30
100
AcDbEntity
  8
LC-001-111-----0
 62
   253
370
    50
100
AcDbLine
 10
-347.0
 20
-692.5
 30
0.0
 11
1525.0
 21
-692.5
 31
0.0
  0
LINE
  5
63
330
30
100
AcDbEntity
  8
LC-001-111-----0
 62
   253
370
    25
100
AcDbLine
 10
-475.0
 20
742.5
 30
0.0
 11
-525.0
 21
742.5
 31
0.0
  0
LINE
  5
64
330
30
100
AcDbEntity
  8
LC-001-111-----0
 62
   253
370
    25
100
AcDbLine
 10
538.835603
 20
-547.330853
 30
0.0
 11
538.835603
 21
-585.350853
 31
0.0
  0
LINE
  5
65
330
30
100
AcDbEntity
  8
LC-001-111-----0
 62
   253
370
    25
100
AcDbLine
 10
1575.0
 20
2227.5
 30
0.0
 11
1575.0
 21
-742.5
 31
0.0
  0
LINE
  5
66
330
30
100
AcDbEntity
  8
LC-001-111-----0
 62
   253
370
    25
100
AcDbLine
 10
1575.0
 20
-742.5
 30
0.0
 11
-525.0
 21
-742.5
 31
0.0
  0
LINE
  5
67
330
30
100
AcDbEntity
  8
LC-001-111-----0
 62
   253
370
    25
100
AcDbLine
 10
-525.0
 20
-742.5
 30
0.0
 11
-525.0
 21
2227.5
 31
0.0
  0
LINE
  5
68
330
30
100
AcDbEntity
  8
LC-001-111-----0
 62
   253
370
    25
100
AcDbLine
 10
1575.0
 20
2227.5
 30
0.0
 11
-525.0
 21
2227.5
 31
0.0
  0
TEXT
  5
69
330
30
100
AcDbEntity
  8
LC-001-111-----0
 62
   253
370
    20
100
AcDbText
 10
238.0
 20
-631.340853
 30
0.0
 40
20.0
  1
Hofbauerstraße1 · D-94209 REGEN
 41
0.65
  7
LCTX0-400-0-0pDIN-Schrift
 72
     1
 11
420.0
 21
-631.340853
 31
0.0
100
AcDbText
  0
ARC
  5
6A
330
30
100
AcDbEntity
  8
LC-001-111-----0
 62
   253
370
    25
100
AcDbCircle
 10
233.032826
 20
-556.828252
 30
0.0
 40
9.677270814709825
100
AcDbArc
 50
94.48185
 51
252.731329
  0
ARC
  5
6B
330
30
100
AcDbEntity
  8
LC-001-111-----0
 62
   253
370
    25
100
AcDbCircle
 10
298.845603
 20
-566.340853
 30
0.0
 40
19.01000000000013
100
AcDbArc
 50
74.719456
 51
285.280544
  0
LINE
  5
6C
330
30
100
AcDbEntity
  8
LC-001-111-----0
 62
   253
370
    25
100
AcDbLine
 10
303.855603
 20
-584.678792
 30
0.0
 11
303.855603
 21
-579.295852
 31
0.0
  0
ARC
  5
6D
330
30
100
AcDbEntity
  8
LC-001-111-----0
 62
   253
370
    25
100
AcDbCircle
 10
298.845603
 20
-566.340853
 30
0.0
 40
13.88999999999995
100
AcDbArc
 50
68.857352
 51
291.142648
  0
ARC
  5
6E
330
30
100
AcDbEntity
  8
LC-001-111-----0
 62
   253
370
    25
100
AcDbCircle
 10
298.845603
 20
-566.340853
 30
0.0
 40
12.39000000000002
100
AcDbArc
 50
58.303227
 51
301.696773
  0
ARC
  5
6F
330
30
100
AcDbEntity
  8
LC-001-111-----0
 62
   253
370
    25
100
AcDbCircle
 10
494.845603
 20
-566.340853
 30
0.0
 40
19.01000000000013
100
AcDbArc
 50
74.719456
 51
285.280544
  0
LINE
  5
70
330
30
100
AcDbEntity
  8
LC-001-111-----0
 62
   253
370
    25
100
AcDbLine
 10
305.355603
 20
-576.882769
 30
0.0
 11
305.355603
 21
-585.790274
 31
0.0
  0
LINE
  5
71
330
30
100
AcDbEntity
  8
LC-001-111-----0
 62
   253
370
    25
100
AcDbLine
 10
230.160101
 20
-566.069303
 30
0.0
 11
237.683613
 21
-568.408104
 31
0.0
  0
ARC
  5
72
330
30
100
AcDbEntity
  8
LC-001-111-----0
 62
   253
370
    25
100
AcDbCircle
 10
298.845603
 20
-566.340853
 30
0.0
 40
20.51000000000012
100
AcDbArc
 50
71.493868
 51
288.506132
  0
LINE
  5
73
330
30
100
AcDbEntity
  8
LC-001-111-----0
 62
   253
370
    25
100
AcDbLine
 10
499.855603
 20
-584.678792
 30
0.0
 11
499.855603
 21
-579.295852
 31
0.0
  0
LINE
  5
74
330
30
100
AcDbEntity
  8
LC-001-111-----0
 62
   253
370
    25
100
AcDbLine
 10
305.355603
 20
-546.891431
 30
0.0
 11
305.355603
 21
-555.798937
 31
0.0
  0
ARC
  5
75
330
30
100
AcDbEntity
  8
LC-001-111-----0
 62
   253
370
    25
100
AcDbCircle
 10
494.845603
 20
-566.340853
 30
0.0
 40
13.88999999999995
100
AcDbArc
 50
68.857352
 51
291.142648
  0
LINE
  5
76
330
30
100
AcDbEntity
  8
LC-001-111-----0
 62
   253
370
    25
100
AcDbLine
 10
337.835603
 20
-586.850853
 30
0.0
 11
337.835603
 21
-545.830853
 31
0.0
  0
LINE
  5
77
330
30
100
AcDbEntity
  8
LC-001-111-----0
 62
   253
370
    25
100
AcDbLine
 10
337.835603
 20
-545.830853
 30
0.0
 11
347.355603
 21
-545.830853
 31
0.0
  0
LINE
  5
78
330
30
100
AcDbEntity
  8
LC-001-111-----0
 62
   253
370
    25
100
AcDbLine
 10
347.355603
 20
-545.830853
 30
0.0
 11
347.355603
 21
-562.980853
 31
0.0
  0
LINE
  5
79
330
30
100
AcDbEntity
  8
LC-001-111-----0
 62
   253
370
    25
100
AcDbLine
 10
347.355603
 20
-562.980853
 30
0.0
 11
362.335603
 21
-562.980853
 31
0.0
  0
LINE
  5
7A
330
30
100
AcDbEntity
  8
LC-001-111-----0
 62
   253
370
    25
100
AcDbLine
 10
362.335603
 20
-562.980853
 30
0.0
 11
362.335603
 21
-545.830853
 31
0.0
  0
LINE
  5
7B
330
30
100
AcDbEntity
  8
LC-001-111-----0
 62
   253
370
    25
100
AcDbLine
 10
362.335603
 20
-545.830853
 30
0.0
 11
371.855603
 21
-545.830853
 31
0.0
  0
LINE
  5
7C
330
30
100
AcDbEntity
  8
LC-001-111-----0
 62
   253
370
    25
100
AcDbLine
 10
371.855603
 20
-545.830853
 30
0.0
 11
371.855603
 21
-586.850853
 31
0.0
  0
LINE
  5
7D
330
30
100
AcDbEntity
  8
LC-001-111-----0
 62
   253
370
    25
100
AcDbLine
 10
371.855603
 20
-586.850853
 30
0.0
 11
362.335603
 21
-586.850853
 31
0.0
  0
LINE
  5
7E
330
30
100
AcDbEntity
  8
LC-001-111-----0
 62
   253
370
    25
100
AcDbLine
 10
362.335603
 20
-586.850853
 30
0.0
 11
362.335603
 21
-569.700853
 31
0.0
  0
LINE
  5
7F
330
30
100
AcDbEntity
  8
LC-001-111-----0
 62
   253
370
    25
100
AcDbLine
 10
362.335603
 20
-569.700853
 30
0.0
 11
347.355603
 21
-569.700853
 31
0.0
  0
LINE
  5
80
330
30
100
AcDbEntity
  8
LC-001-111-----0
 62
   253
370
    25
100
AcDbLine
 10
347.355603
 20
-569.700853
 30
0.0
 11
347.355603
 21
-586.850853
 31
0.0
  0
LINE
  5
81
330
30
100
AcDbEntity
  8
LC-001-111-----0
 62
   253
370
    25
100
AcDbLine
 10
347.355603
 20
-586.850853
 30
0.0
 11
337.835603
 21
-586.850853
 31
0.0
  0
CIRCLE
  5
82
330
30
100
AcDbEntity
  8
LC-001-111-----0
 62
   253
370
    25
100
AcDbCircle
 10
421.345603
 20
-566.340853
 30
0.0
 40
12.39000000000044
  0
CIRCLE
  5
83
330
30
100
AcDbEntity
  8
LC-001-111-----0
 62
   253
370
    25
100
AcDbCircle
 10
421.345603
 20
-566.340853
 30
0.0
 40
20.51000000000049
  0
ARC
  5
84
330
30
100
AcDbEntity
  8
LC-001-111-----0
 62
   253
370
    25
100
AcDbCircle
 10
494.845603
 20
-566.340853
 30
0.0
 40
12.39000000000002
100
AcDbArc
 50
58.303227
 51
301.696773
  0
LINE
  5
85
330
30
100
AcDbEntity
  8
LC-001-111-----0
 62
   253
370
    25
100
AcDbLine
 10
339.335603
 20
-547.330853
 30
0.0
 11
339.335603
 21
-585.350853
 31
0.0
  0
LINE
  5
86
330
30
100
AcDbEntity
  8
LC-001-111-----0
 62
   253
370
    25
100
AcDbLine
 10
501.355603
 20
-576.882769
 30
0.0
 11
501.355603
 21
-585.790274
 31
0.0
  0
LINE
  5
87
330
30
100
AcDbEntity
  8
LC-001-111-----0
 62
   253
370
    25
100
AcDbLine
 10
339.335603
 20
-585.350853
 30
0.0
 11
345.855603
 21
-585.350853
 31
0.0
  0
LINE
  5
88
330
30
100
AcDbEntity
  8
LC-001-111-----0
 62
   253
370
    25
100
AcDbLine
 10
345.855603
 20
-585.350853
 30
0.0
 11
345.855603
 21
-568.200853
 31
0.0
  0
LINE
  5
89
330
30
100
AcDbEntity
  8
LC-001-111-----0
 62
   253
370
    25
100
AcDbLine
 10
345.855603
 20
-568.200853
 30
0.0
 11
363.835603
 21
-568.200853
 31
0.0
  0
LINE
  5
8A
330
30
100
AcDbEntity
  8
LC-001-111-----0
 62
   253
370
    25
100
AcDbLine
 10
363.835603
 20
-568.200853
 30
0.0
 11
363.835603
 21
-585.350853
 31
0.0
  0
LINE
  5
8B
330
30
100
AcDbEntity
  8
LC-001-111-----0
 62
   253
370
    25
100
AcDbLine
 10
363.835603
 20
-585.350853
 30
0.0
 11
370.355603
 21
-585.350853
 31
0.0
  0
LINE
  5
8C
330
30
100
AcDbEntity
  8
LC-001-111-----0
 62
   253
370
    25
100
AcDbLine
 10
370.355603
 20
-585.350853
 30
0.0
 11
370.355603
 21
-547.330853
 31
0.0
  0
LINE
  5
8D
330
30
100
AcDbEntity
  8
LC-001-111-----0
 62
   253
370
    25
100
AcDbLine
 10
370.355603
 20
-547.330853
 30
0.0
 11
363.835603
 21
-547.330853
 31
0.0
  0
LINE
  5
8E
330
30
100
AcDbEntity
  8
LC-001-111-----0
 62
   253
370
    25
100
AcDbLine
 10
363.835603
 20
-547.330853
 30
0.0
 11
363.835603
 21
-564.480853
 31
0.0
  0
LINE
  5
8F
330
30
100
AcDbEntity
  8
LC-001-111-----0
 62
   253
370
    25
100
AcDbLine
 10
363.835603
 20
-564.480853
 30
0.0
 11
345.855603
 21
-564.480853
 31
0.0
  0
LINE
  5
90
330
30
100
AcDbEntity
  8
LC-001-111-----0
 62
   253
370
    25
100
AcDbLine
 10
345.855603
 20
-564.480853
 30
0.0
 11
345.855603
 21
-547.330853
 31
0.0
  0
CIRCLE
  5
91
330
30
100
AcDbEntity
  8
LC-001-111-----0
 62
   253
370
    25
100
AcDbCircle
 10
421.345603
 20
-566.340853
 30
0.0
 40
19.01000000000049
  0
ARC
  5
92
330
30
100
AcDbEntity
  8
LC-001-111-----0
 62
   253
370
    25
100
AcDbCircle
 10
235.836588
 20
-574.34966
 30
0.0
 40
6.222024781007809
100
AcDbArc
 50
268.246912
 51
72.731329
  0
ARC
  5
93
330
30
100
AcDbEntity
  8
LC-001-111-----0
 62
   253
370
    25
100
AcDbCircle
 10
236.412387
 20
-555.536821
 30
0.0
 40
25.04367341134793
100
AcDbArc
 50
239.19233
 51
268.246912
  0
LINE
  5
94
330
30
100
AcDbEntity
  8
LC-001-111-----0
 62
   253
370
    25
100
AcDbLine
 10
223.586073
 20
-577.046615
 30
0.0
 11
223.586073
 21
-582.149466
 31
0.0
  0
ARC
  5
95
330
30
100
AcDbEntity
  8
LC-001-111-----0
 62
   253
370
    25
100
AcDbCircle
 10
235.81067
 20
-562.04924
 30
0.0
 40
23.52572762426598
100
AcDbArc
 50
238.692783
 51
274.343327
  0
ARC
  5
96
330
30
100
AcDbEntity
  8
LC-001-111-----0
 62
   253
370
    25
100
AcDbCircle
 10
494.845603
 20
-566.340853
 30
0.0
 40
20.51000000000012
100
AcDbArc
 50
71.493868
 51
288.506132
  0
ARC
  5
97
330
30
100
AcDbEntity
  8
LC-001-111-----0
 62
   253
370
    25
100
AcDbCircle
 10
236.779647
 20
-574.807178
 30
0.0
 40
10.73104525444845
100
AcDbArc
 50
274.343327
 51
74.255463
  0
LINE
  5
98
330
30
100
AcDbEntity
  8
LC-001-111-----0
 62
   253
370
    25
100
AcDbLine
 10
501.355603
 20
-546.891431
 30
0.0
 11
501.355603
 21
-555.798937
 31
0.0
  0
LINE
  5
99
330
30
100
AcDbEntity
  8
LC-001-111-----0
 62
   253
370
    25
100
AcDbLine
 10
239.691502
 20
-564.47875
 30
0.0
 11
232.135251
 21
-562.348444
 31
0.0
  0
LINE
  5
9A
330
30
100
AcDbEntity
  8
LC-001-111-----0
 62
   253
370
    25
100
AcDbLine
 10
499.855603
 20
-553.385854
 30
0.0
 11
499.855603
 21
-548.002914
 31
0.0
  0
ARC
  5
9B
330
30
100
AcDbEntity
  8
LC-001-111-----0
 62
   253
370
    25
100
AcDbCircle
 10
233.632108
 20
-557.039052
 30
0.0
 40
5.516360130100407
100
AcDbArc
 50
90.951212
 51
254.255463
  0
ARC
  5
9C
330
30
100
AcDbEntity
  8
LC-001-111-----0
 62
   253
370
    25
100
AcDbCircle
 10
233.906662
 20
-573.575134
 30
0.0
 40
22.05472179307857
100
AcDbArc
 50
64.088485
 51
90.951212
  0
LINE
  5
9D
330
30
100
AcDbEntity
  8
LC-001-111-----0
 62
   253
370
    25
100
AcDbLine
 10
243.544191
 20
-553.737574
 30
0.0
 11
243.544191
 21
-549.484242
 31
0.0
  0
LINE
  5
9E
330
30
100
AcDbEntity
  8
LC-001-111-----0
 62
   253
370
    25
100
AcDbLine
 10
546.855603
 20
-564.986168
 30
0.0
 11
562.818366
 21
-545.830853
 31
0.0
  0
LINE
  5
9F
330
30
100
AcDbEntity
  8
LC-001-111-----0
 62
   253
370
    25
100
AcDbLine
 10
562.818366
 20
-545.830853
 30
0.0
 11
574.299433
 21
-545.830853
 31
0.0
  0
LINE
  5
A0
330
30
100
AcDbEntity
  8
LC-001-111-----0
 62
   253
370
    25
100
AcDbLine
 10
574.299433
 20
-545.830853
 30
0.0
 11
557.207766
 21
-566.340853
 31
0.0
  0
LINE
  5
A2
330
30
100
AcDbEntity
  8
LC-002-002-----0
 62
     1
370
    25
100
AcDbLine
 10
618.855603
 20
-582.536568
 30
0.0
 11
618.855603
 21
-550.145138
 31
0.0
  0
LINE
  5
A3
330
30
100
AcDbEntity
  8
LC-002-002-----0
 62
     1
370
    25
100
AcDbLine
 10
618.855603
 20
-550.145138
 30
0.0
 11
602.659888
 21
-566.340853
 31
0.0
  0
LINE
  5
A4
330
30
100
AcDbEntity
  8
LC-002-002-----0
 62
     1
370
    25
100
AcDbLine
 10
602.659888
 20
-566.340853
 30
0.0
 11
618.855603
 21
-582.536568
 31
0.0
  0
LINE
  5
A5
330
30
100
AcDbEntity
  8
LC-002-002-----0
 62
     1
370
    25
100
AcDbLine
 10
617.355603
 20
-578.915248
 30
0.0
 11
617.355603
 21
-553.766458
 31
0.0
  0
LINE
  5
A6
330
30
100
AcDbEntity
  8
LC-001-111-----0
 62
   253
370
    25
100
AcDbLine
 10
557.207766
 20
-566.340853
 30
0.0
 11
574.299433
 21
-586.850853
 31
0.0
  0
LINE
  5
A7
330
30
100
AcDbEntity
  8
LC-001-111-----0
 62
   253
370
    25
100
AcDbLine
 10
574.299433
 20
-586.850853
 30
0.0
 11
562.818366
 21
-586.850853
 31
0.0
  0
LINE
  5
A8
330
30
100
AcDbEntity
  8
LC-001-111-----0
 62
   253
370
    25
100
AcDbLine
 10
562.818366
 20
-586.850853
 30
0.0
 11
546.855603
 21
-567.695538
 31
0.0
  0
LINE
  5
A9
330
30
100
AcDbEntity
  8
LC-001-111-----0
 62
   253
370
    25
100
AcDbLine
 10
537.335603
 20
-586.850853
 30
0.0
 11
537.335603
 21
-545.830853
 31
0.0
  0
LINE
  5
AA
330
30
100
AcDbEntity
  8
LC-001-111-----0
 62
   253
370
    25
100
AcDbLine
 10
303.855603
 20
-553.385854
 30
0.0
 11
303.855603
 21
-548.002914
 31
0.0
  0
ARC
  5
AB
330
30
100
AcDbEntity
  8
LC-001-111-----0
 62
   253
370
    25
100
AcDbCircle
 10
233.903191
 20
-567.932256
 30
0.0
 40
19.31533311668199
100
AcDbArc
 50
65.072024
 51
94.48185
  0
LINE
  5
AC
330
30
100
AcDbEntity
  8
LC-001-111-----0
 62
   253
370
    25
100
AcDbLine
 10
538.835603
 20
-585.350853
 30
0.0
 11
545.355603
 21
-585.350853
 31
0.0
  0
LINE
  5
AD
330
30
100
AcDbEntity
  8
LC-001-111-----0
 62
   253
370
    25
100
AcDbLine
 10
545.355603
 20
-585.350853
 30
0.0
 11
545.355603
 21
-547.330853
 31
0.0
  0
LINE
  5
AE
330
30
100
AcDbEntity
  8
LC-001-111-----0
 62
   253
370
    25
100
AcDbLine
 10
545.355603
 20
-547.330853
 30
0.0
 11
538.835603
 21
-547.330853
 31
0.0
  0
LINE
  5
AF
330
30
100
AcDbEntity
  8
LC-001-111-----0
 62
   253
370
    25
100
AcDbLine
 10
540.335603
 20
-548.830853
 30
0.0
 11
540.335603
 21
-583.850853
 31
0.0
  0
LINE
  5
B0
330
30
100
AcDbEntity
  8
LC-002-002-----0
 62
     1
370
    25
100
AcDbLine
 10
617.355603
 20
-553.766458
 30
0.0
 11
604.781208
 21
-566.340853
 31
0.0
  0
LINE
  5
B1
330
30
100
AcDbEntity
  8
LC-002-002-----0
 62
     1
370
    25
100
AcDbLine
 10
604.781208
 20
-566.340853
 30
0.0
 11
617.355603
 21
-578.915248
 31
0.0
  0
LINE
  5
B2
330
30
100
AcDbEntity
  8
LC-001-111-----0
 62
   253
370
    25
100
AcDbLine
 10
537.335603
 20
-545.830853
 30
0.0
 11
546.855603
 21
-545.830853
 31
0.0
  0
LINE
  5
B3
330
30
100
AcDbEntity
  8
LC-001-111-----0
 62
   253
370
    25
100
AcDbLine
 10
546.855603
 20
-545.830853
 30
0.0
 11
546.855603
 21
-586.850853
 31
0.0
  0
LINE
  5
B4
330
30
100
AcDbEntity
  8
LC-001-111-----0
 62
   253
370
    25
100
AcDbLine
 10
546.855603
 20
-586.850853
 30
0.0
 11
537.335603
 21
-586.850853
 31
0.0
  0
ARC
  5
B5
330
30
100
AcDbEntity
  8
LC-001-111-----0
 62
   253
370
    25
100
AcDbCircle
 10
233.032826
 20
-556.828252
 30
0.0
 40
8.177270814709827
100
AcDbArc
 50
94.48185
 51
252.731329
  0
LINE
  5
B6
330
30
100
AcDbEntity
  8
LC-001-111-----0
 62
   253
370
    25
100
AcDbLine
 10
230.60538
 20
-564.636918
 30
0.0
 11
238.128892
 21
-566.975719
 31
0.0
  0
ARC
  5
B7
330
30
100
AcDbEntity
  8
LC-001-111-----0
 62
   253
370
    25
100
AcDbCircle
 10
235.836588
 20
-574.34966
 30
0.0
 40
7.722024781007788
100
AcDbArc
 50
268.246912
 51
72.731329
  0
LINE
  5
B8
330
30
100
AcDbEntity
  8
LC-001-111-----0
 62
   253
370
    25
100
AcDbLine
 10
302.355603
 20
-551.356461
 30
0.0
 11
302.355603
 21
-549.186262
 31
0.0
  0
ARC
  5
B9
330
30
100
AcDbEntity
  8
LC-001-111-----0
 62
   253
370
    25
100
AcDbCircle
 10
298.845603
 20
-566.340853
 30
0.0
 40
17.50999999999991
100
AcDbArc
 50
78.436322
 51
281.563678
  0
LINE
  5
BA
330
30
100
AcDbEntity
  8
LC-001-111-----0
 62
   253
370
    25
100
AcDbLine
 10
302.355603
 20
-583.495444
 30
0.0
 11
302.355603
 21
-581.325245
 31
0.0
  0
LINE
  5
BB
330
30
100
AcDbEntity
  8
LC-002-002-----0
 62
     1
370
    25
100
AcDbLine
 10
620.355603
 20
-546.523818
 30
0.0
 11
620.355603
 21
-586.157888
 31
0.0
  0
LINE
  5
BC
330
30
100
AcDbEntity
  8
LC-002-002-----0
 62
     1
370
    25
100
AcDbLine
 10
620.355603
 20
-586.157888
 30
0.0
 11
600.538568
 21
-566.340853
 31
0.0
  0
LINE
  5
BD
330
30
100
AcDbEntity
  8
LC-002-002-----0
 62
     1
370
    25
100
AcDbLine
 10
600.538568
 20
-566.340853
 30
0.0
 11
620.355603
 21
-546.523818
 31
0.0
  0
LINE
  5
BE
330
30
100
AcDbEntity
  8
LC-001-111-----0
 62
   253
370
    25
100
AcDbLine
 10
540.335603
 20
-583.850853
 30
0.0
 11
543.855603
 21
-583.850853
 31
0.0
  0
LINE
  5
BF
330
30
100
AcDbEntity
  8
LC-001-111-----0
 62
   253
370
    25
100
AcDbLine
 10
543.855603
 20
-583.850853
 30
0.0
 11
543.855603
 21
-548.830853
 31
0.0
  0
LINE
  5
C0
330
30
100
AcDbEntity
  8
LC-001-111-----0
 62
   253
370
    25
100
AcDbLine
 10
543.855603
 20
-548.830853
 30
0.0
 11
540.335603
 21
-548.830853
 31
0.0
  0
LINE
  5
C1
330
30
100
AcDbEntity
  8
LC-001-111-----0
 62
   253
370
    25
100
AcDbLine
 10
542.095603
 20
-550.330853
 30
0.0
 11
542.095603
 21
-582.350853
 31
0.0
  0
ARC
  5
C2
330
30
100
AcDbEntity
  8
LC-001-111-----0
 62
   253
370
    25
100
AcDbCircle
 10
298.845603
 20
-566.340853
 30
0.0
 40
15.38999999999989
100
AcDbArc
 50
76.816519
 51
283.183481
  0
LINE
  5
C3
330
30
100
AcDbEntity
  8
LC-001-111-----0
 62
   253
370
    25
100
AcDbLine
 10
345.855603
 20
-547.330853
 30
0.0
 11
339.335603
 21
-547.330853
 31
0.0
  0
LINE
  5
C4
330
30
100
AcDbEntity
  8
LC-001-111-----0
 62
   253
370
    25
100
AcDbLine
 10
571.09687
 20
-547.330853
 30
0.0
 11
563.520928
 21
-547.330853
 31
0.0
  0
LINE
  5
C5
330
30
100
AcDbEntity
  8
LC-001-111-----0
 62
   253
370
    25
100
AcDbLine
 10
340.835603
 20
-583.850853
 30
0.0
 11
344.355603
 21
-583.850853
 31
0.0
  0
LINE
  5
C6
330
30
100
AcDbEntity
  8
LC-001-111-----0
 62
   253
370
    25
100
AcDbLine
 10
498.355603
 20
-551.356461
 30
0.0
 11
498.355603
 21
-549.186262
 31
0.0
  0
LINE
  5
C7
330
30
100
AcDbEntity
  8
LC-001-111-----0
 62
   253
370
    25
100
AcDbLine
 10
367.095603
 20
-550.330853
 30
0.0
 11
367.095603
 21
-582.350853
 31
0.0
  0
TEXT
  5
C8
330
30
100
AcDbEntity
  8
LC-001-111-----0
 62
     1
370
    15
100
AcDbText
 10
1386.928571
 20
-721.25
 30
0.0
 40
15.0
  1
Xtra-N100
 41
0.75
  7
LCTX0-400-0-0pDIN-Schrift
 72
     1
 11
1433.0
 21
-721.25
 31
0.0
100
AcDbText
  0
CIRCLE
  5
C9
330
30
100
AcDbEntity
  8
LC-001-111-----0
 62
   253
370
    25
100
AcDbCircle
 10
421.345603
 20
-566.340853
 30
0.0
 40
17.51000000000053
  0
LINE
  5
CA
330
30
100
AcDbEntity
  8
LC-001-111-----0
 62
   253
370
    25
100
AcDbLine
 10
563.520928
 20
-547.330853
 30
0.0
 11
547.679261
 21
-566.340853
 31
0.0
  0
ARC
  5
CB
330
30
100
AcDbEntity
  8
LC-001-111-----0
 62
   253
370
    25
100
AcDbCircle
 10
494.845603
 20
-566.340853
 30
0.0
 40
17.51000000000002
100
AcDbArc
 50
78.436322
 51
281.563678
  0
ARC
  5
CC
330
30
100
AcDbEntity
  8
LC-001-111-----0
 62
   253
370
    25
100
AcDbCircle
 10
236.412387
 20
-555.536821
 30
0.0
 40
26.54367341134785
100
AcDbArc
 50
244.741378
 51
268.246912
  0
LINE
  5
CD
330
30
100
AcDbEntity
  8
LC-001-111-----0
 62
   253
370
    25
100
AcDbLine
 10
498.355603
 20
-583.495444
 30
0.0
 11
498.355603
 21
-581.325245
 31
0.0
  0
LINE
  5
CE
330
30
100
AcDbEntity
  8
LC-002-002-----0
 62
     1
370
    25
100
AcDbLine
 10
615.855603
 20
-575.293927
 30
0.0
 11
615.855603
 21
-557.387779
 31
0.0
  0
LINE
  5
CF
330
30
100
AcDbEntity
  8
LC-002-002-----0
 62
     1
370
    25
100
AcDbLine
 10
615.855603
 20
-557.387779
 30
0.0
 11
606.902529
 21
-566.340853
 31
0.0
  0
LINE
  5
D0
330
30
100
AcDbEntity
  8
LC-002-002-----0
 62
     1
370
    25
100
AcDbLine
 10
606.902529
 20
-566.340853
 30
0.0
 11
615.855603
 21
-575.293927
 31
0.0
  0
CIRCLE
  5
D1
330
30
100
AcDbEntity
  8
LC-001-111-----0
 62
   253
370
    25
100
AcDbCircle
 10
421.345603
 20
-566.340853
 30
0.0
 40
13.89000000000003
  0
LINE
  5
D2
330
30
100
AcDbEntity
  8
LC-001-111-----0
 62
   253
370
    25
100
AcDbLine
 10
365.335603
 20
-583.850853
 30
0.0
 11
368.855603
 21
-583.850853
 31
0.0
  0
LINE
  5
D3
330
30
100
AcDbEntity
  8
LC-001-111-----0
 62
   253
370
    25
100
AcDbLine
 10
368.855603
 20
-583.850853
 30
0.0
 11
368.855603
 21
-548.830853
 31
0.0
  0
ARC
  5
D4
330
30
100
AcDbEntity
  8
LC-001-111-----0
 62
   253
370
    25
100
AcDbCircle
 10
233.906662
 20
-573.575134
 30
0.0
 40
20.554721793079
100
AcDbArc
 50
57.190491
 51
90.951212
  0
ARC
  5
D5
330
30
100
AcDbEntity
  8
LC-001-111-----0
 62
   253
370
    25
100
AcDbCircle
 10
236.779647
 20
-574.807178
 30
0.0
 40
12.23104525444841
100
AcDbArc
 50
274.343327
 51
74.255463
  0
LINE
  5
D6
330
30
100
AcDbEntity
  8
LC-001-111-----0
 62
   253
370
    25
100
AcDbLine
 10
368.855603
 20
-548.830853
 30
0.0
 11
365.335603
 21
-548.830853
 31
0.0
  0
LINE
  5
D7
330
30
100
AcDbEntity
  8
LC-001-111-----0
 62
   253
370
    25
100
AcDbLine
 10
365.335603
 20
-548.830853
 30
0.0
 11
365.335603
 21
-583.850853
 31
0.0
  0
LINE
  5
D8
330
30
100
AcDbEntity
  8
LC-001-111-----0
 62
   253
370
    25
100
AcDbLine
 10
365.335603
 20
-566.340853
 30
0.0
 11
344.355603
 21
-566.340853
 31
0.0
  0
LINE
  5
D9
330
30
100
AcDbEntity
  8
LC-001-111-----0
 62
   253
370
    25
100
AcDbLine
 10
344.355603
 20
-583.850853
 30
0.0
 11
344.355603
 21
-548.830853
 31
0.0
  0
LINE
  5
DA
330
30
100
AcDbEntity
  8
LC-001-111-----0
 62
   253
370
    25
100
AcDbLine
 10
344.355603
 20
-548.830853
 30
0.0
 11
340.835603
 21
-548.830853
 31
0.0
  0
LINE
  5
DB
330
30
100
AcDbEntity
  8
LC-001-111-----0
 62
   253
370
    25
100
AcDbLine
 10
340.835603
 20
-548.830853
 30
0.0
 11
340.835603
 21
-583.850853
 31
0.0
  0
LINE
  5
DC
330
30
100
AcDbEntity
  8
LC-001-111-----0
 62
   253
370
    25
100
AcDbLine
 10
342.595603
 20
-550.330853
 30
0.0
 11
342.595603
 21
-582.350853
 31
0.0
  0
CIRCLE
  5
DD
330
30
100
AcDbEntity
  8
LC-001-111-----0
 62
   253
370
    25
100
AcDbCircle
 10
421.345603
 20
-566.340853
 30
0.0
 40
15.38999999999984
  0
LINE
  5
DE
330
30
100
AcDbEntity
  8
LC-001-111-----0
 62
   253
370
    25
100
AcDbLine
 10
547.679261
 20
-566.340853
 30
0.0
 11
563.520928
 21
-585.350853
 31
0.0
  0
LINE
  5
DF
330
30
100
AcDbEntity
  8
LC-001-111-----0
 62
   253
370
    25
100
AcDbLine
 10
563.520928
 20
-585.350853
 30
0.0
 11
571.09687
 21
-585.350853
 31
0.0
  0
LINE
  5
E0
330
30
100
AcDbEntity
  8
LC-001-111-----0
 62
   253
370
    25
100
AcDbLine
 10
571.09687
 20
-585.350853
 30
0.0
 11
555.255204
 21
-566.340853
 31
0.0
  0
LINE
  5
E1
330
30
100
AcDbEntity
  8
LC-001-111-----0
 62
   253
370
    25
100
AcDbLine
 10
245.044191
 20
-556.29937
 30
0.0
 11
245.044191
 21
-548.596998
 31
0.0
  0
ARC
  5
E2
330
30
100
AcDbEntity
  8
LC-001-111-----0
 62
   253
370
    25
100
AcDbCircle
 10
236.412387
 20
-555.536821
 30
0.0
 40
23.54367341134796
100
AcDbArc
 50
232.518913
 51
268.246912
  0
ARC
  5
E3
330
30
100
AcDbEntity
  8
LC-001-111-----0
 62
   253
370
    25
100
AcDbCircle
 10
235.836588
 20
-574.34966
 30
0.0
 40
4.722024781007852
100
AcDbArc
 50
268.246912
 51
72.731329
  0
LINE
  5
E4
330
30
100
AcDbEntity
  8
LC-001-111-----0
 62
   253
370
    25
100
AcDbLine
 10
232.542274
 20
-560.904723
 30
0.0
 11
240.098525
 21
-563.035028
 31
0.0
  0
ARC
  5
E5
330
30
100
AcDbEntity
  8
LC-001-111-----0
 62
   253
370
    25
100
AcDbCircle
 10
233.632108
 20
-557.039052
 30
0.0
 40
4.016360130100328
100
AcDbArc
 50
90.951212
 51
254.255463
  0
ARC
  5
E6
330
30
100
AcDbEntity
  8
LC-001-111-----0
 62
   253
370
    25
100
AcDbCircle
 10
233.032826
 20
-556.828252
 30
0.0
 40
11.17727081470977
100
AcDbArc
 50
94.48185
 51
252.731329
  0
LINE
  5
E7
330
30
100
AcDbEntity
  8
LC-001-111-----0
 62
   253
370
    25
100
AcDbLine
 10
237.238334
 20
-569.840489
 30
0.0
 11
229.714822
 21
-567.501688
 31
0.0
  0
LINE
  5
E8
330
30
100
AcDbEntity
  8
LC-001-111-----0
 62
   253
370
    25
100
AcDbLine
 10
222.086073
 20
-574.220003
 30
0.0
 11
222.086073
 21
-582.975837
 31
0.0
  0
ARC
  5
E9
330
30
100
AcDbEntity
  8
LC-001-111-----0
 62
   253
370
    25
100
AcDbCircle
 10
233.903191
 20
-567.932256
 30
0.0
 40
22.31533311668187
100
AcDbArc
 50
60.049399
 51
94.48185
  0
ARC
  5
EA
330
30
100
AcDbEntity
  8
LC-001-111-----0
 62
   253
370
    25
100
AcDbCircle
 10
235.81067
 20
-562.04924
 30
0.0
 40
25.02572762426599
100
AcDbArc
 50
236.741348
 51
274.343327
  0
LINE
  5
EB
330
30
100
AcDbEntity
  8
LC-001-111-----0
 62
   253
370
    25
100
AcDbLine
 10
555.255204
 20
-566.340853
 30
0.0
 11
571.09687
 21
-547.330853
 31
0.0
  0
LINE
  5
EC
330
30
100
AcDbEntity
  8
LC-001-111-----0
 62
   253
370
    25
100
AcDbLine
 10
225.086073
 20
-579.542679
 30
0.0
 11
225.086073
 21
-581.287631
 31
0.0
  0
LINE
  5
ED
330
30
100
AcDbEntity
  8
LC-001-111-----0
 62
   253
370
    25
100
AcDbLine
 10
553.302641
 20
-566.340853
 30
0.0
 11
567.894308
 21
-548.830853
 31
0.0
  0
LINE
  5
EE
330
30
100
AcDbEntity
  8
LC-002-002-----0
 62
     1
370
    25
100
AcDbLine
 10
614.355603
 20
-571.672607
 30
0.0
 11
614.355603
 21
-561.009099
 31
0.0
  0
LINE
  5
EF
330
30
100
AcDbEntity
  8
LC-002-002-----0
 62
     1
370
    25
100
AcDbLine
 10
614.355603
 20
-561.009099
 30
0.0
 11
609.023849
 21
-566.340853
 31
0.0
  0
LINE
  5
F0
330
30
100
AcDbEntity
  8
LC-002-002-----0
 62
     1
370
    25
100
AcDbLine
 10
609.023849
 20
-566.340853
 30
0.0
 11
614.355603
 21
-571.672607
 31
0.0
  0
LINE
  5
F1
330
30
100
AcDbEntity
  8
LC-002-002-----0
 62
     1
370
    25
100
AcDbLine
 10
612.855603
 20
-568.051287
 30
0.0
 11
612.855603
 21
-564.630419
 31
0.0
  0
LINE
  5
F2
330
30
100
AcDbEntity
  8
LC-002-002-----0
 62
     1
370
    25
100
AcDbLine
 10
612.855603
 20
-564.630419
 30
0.0
 11
611.145169
 21
-566.340853
 31
0.0
  0
LINE
  5
F3
330
30
100
AcDbEntity
  8
LC-002-002-----0
 62
     1
370
    25
100
AcDbLine
 10
611.145169
 20
-566.340853
 30
0.0
 11
612.855603
 21
-568.051287
 31
0.0
  0
LINE
  5
F4
330
30
100
AcDbEntity
  8
LC-001-111-----0
 62
   253
370
    25
100
AcDbLine
 10
567.894308
 20
-548.830853
 30
0.0
 11
564.22349
 21
-548.830853
 31
0.0
  0
LINE
  5
F5
330
30
100
AcDbEntity
  8
LC-001-111-----0
 62
   253
370
    25
100
AcDbLine
 10
564.22349
 20
-548.830853
 30
0.0
 11
549.631824
 21
-566.340853
 31
0.0
  0
ARC
  5
F6
330
30
100
AcDbEntity
  8
LC-001-111-----0
 62
   253
370
    25
100
AcDbCircle
 10
494.845603
 20
-566.340853
 30
0.0
 40
15.39
100
AcDbArc
 50
76.816519
 51
283.183481
  0
LINE
  5
F7
330
30
100
AcDbEntity
  8
LC-001-111-----0
 62
   253
370
    25
100
AcDbLine
 10
549.631824
 20
-566.340853
 30
0.0
 11
564.22349
 21
-583.850853
 31
0.0
  0
LINE
  5
F8
330
30
100
AcDbEntity
  8
LC-001-111-----0
 62
   253
370
    25
100
AcDbLine
 10
564.22349
 20
-583.850853
 30
0.0
 11
567.894308
 21
-583.850853
 31
0.0
  0
LINE
  5
F9
330
30
100
AcDbEntity
  8
LC-001-111-----0
 62
   253
370
    25
100
AcDbLine
 10
567.894308
 20
-583.850853
 30
0.0
 11
553.302641
 21
-566.340853
 31
0.0
  0
LINE
  5
FA
330
30
100
AcDbEntity
  8
LC-001-111-----0
 62
   253
370
    25
100
AcDbLine
 10
551.467232
 20
-566.340853
 30
0.0
 11
565.098623
 21
-549.983185
 31
0.0
  0
LINE
  5
FB
330
30
100
AcDbEntity
  8
LC-001-111-----0
 62
   253
370
    25
100
AcDbLine
 10
551.467232
 20
-566.340853
 30
0.0
 11
565.098623
 21
-582.698521
 31
0.0
  0
ARC
  5
FC
330
30
100
AcDbEntity
  8
LC-001-111-----0
 62
   253
370
    25
100
AcDbCircle
 10
235.81067
 20
-562.04924
 30
0.0
 40
22.02572762426589
100
AcDbArc
 50
240.862164
 51
274.343327
  0
ARC
  5
FD
330
30
100
AcDbEntity
  8
LC-001-111-----0
 62
   253
370
    25
100
AcDbCircle
 10
236.779647
 20
-574.807178
 30
0.0
 40
9.231045254448453
100
AcDbArc
 50
274.343327
 51
74.255463
  0
LINE
  5
FE
330
30
100
AcDbEntity
  8
LC-001-111-----0
 62
   253
370
    25
100
AcDbLine
 10
239.284479
 20
-565.922471
 30
0.0
 11
231.728228
 21
-563.792166
 31
0.0
  0
ARC
  5
FF
330
30
100
AcDbEntity
  8
LC-001-111-----0
 62
   253
370
    25
100
AcDbCircle
 10
233.632108
 20
-557.039052
 30
0.0
 40
7.016360130100368
100
AcDbArc
 50
90.951212
 51
254.255463
  0
ARC
  5
100
330
30
100
AcDbEntity
  8
LC-001-111-----0
 62
   253
370
    25
100
AcDbCircle
 10
233.906662
 20
-573.575134
 30
0.0
 40
23.55472179307861
100
AcDbArc
 50
69.789306
 51
90.951212
  0
LINE
  5
101
330
30
100
AcDbEntity
  8
LC-001-111-----0
 62
   253
370
    25
100
AcDbLine
 10
242.044191
 20
-551.470711
 30
0.0
 11
242.044191
 21
-550.416371
 31
0.0
  0
ENDBLK
  5
32
330
30
100
AcDbEntity
  8
0
100
AcDbBlockEnd
  0
BLOCK
  5
167
330
166
100
AcDbEntity
  8
0
100
AcDbBlockBegin
  2
LCDIM1
 70
     0
 71
     0
 10
0.0
 20
0.0
 30
0.0
  3
LCDIM1
  1

  4
LCDIM1
  0
LINE
  5
16A
330
166
100
AcDbEntity
  8
LC-007-003-MTH-0
 62
     7
370
    25
100
AcDbLine
 10
117.427815
 20
764.24
 30
0.0
 11
35.0
 21
764.24
 31
0.0
  0
LINE
  5
16B
330
166
100
AcDbEntity
  8
LC-007-003-MTH-0
 62
     7
370
    25
100
AcDbLine
 10
117.427815
 20
1164.24
 30
0.0
 11
35.0
 21
1164.24
 31
0.0
  0
LINE
  5
16D
330
166
100
AcDbEntity
  8
LC-008-003-MTG-0
 62
     7
370
    25
100
AcDbLine
 10
50.0
 20
764.24
 30
0.0
 11
50.0
 21
1164.24
 31
0.0
  0
LINE
  5
16F
330
166
100
AcDbEntity
  8
LC-009-003-----0
 62
     7
370
    25
100
AcDbLine
 10
46.736845
 20
789.026122
 30
0.0
 11
50.0
 21
764.24
 31
0.0
  0
LINE
  5
170
330
166
100
AcDbEntity
  8
LC-009-003-----0
 62
     7
370
    25
100
AcDbLine
 10
50.0
 20
764.24
 30
0.0
 11
53.263155
 21
789.026122
 31
0.0
  0
LINE
  5
171
330
166
100
AcDbEntity
  8
LC-009-003-----0
 62
     7
370
    25
100
AcDbLine
 10
53.263155
 20
789.026122
 30
0.0
 11
46.736845
 21
789.026122
 31
0.0
  0
LINE
  5
172
330
166
100
AcDbEntity
  8
LC-009-003-----0
 62
     7
370
    25
100
AcDbLine
 10
47.585265
 20
789.08173
 30
0.0
 11
50.0
 21
770.74
 31
0.0
  0
LINE
  5
173
330
166
100
AcDbEntity
  8
LC-009-003-----0
 62
     7
370
    25
100
AcDbLine
 10
50.0
 20
770.74
 30
0.0
 11
52.414735
 21
789.08173
 31
0.0
  0
LINE
  5
174
330
166
100
AcDbEntity
  8
LC-009-003-----0
 62
     7
370
    25
100
AcDbLine
 10
48.433686
 20
789.137339
 30
0.0
 11
50.0
 21
777.24
 31
0.0
  0
LINE
  5
175
330
166
100
AcDbEntity
  8
LC-009-003-----0
 62
     7
370
    25
100
AcDbLine
 10
50.0
 20
777.24
 30
0.0
 11
51.566314
 21
789.137339
 31
0.0
  0
LINE
  5
176
330
166
100
AcDbEntity
  8
LC-009-003-----0
 62
     7
370
    25
100
AcDbLine
 10
49.282106
 20
789.192947
 30
0.0
 11
50.0
 21
783.74
 31
0.0
  0
LINE
  5
177
330
166
100
AcDbEntity
  8
LC-009-003-----0
 62
     7
370
    25
100
AcDbLine
 10
50.0
 20
783.74
 30
0.0
 11
50.717894
 21
789.192947
 31
0.0
  0
LINE
  5
178
330
166
100
AcDbEntity
  8
LC-009-003-----0
 62
     7
370
    25
100
AcDbLine
 10
53.263155
 20
1139.453878
 30
0.0
 11
50.0
 21
1164.24
 31
0.0
  0
LINE
  5
179
330
166
100
AcDbEntity
  8
LC-009-003-----0
 62
     7
370
    25
100
AcDbLine
 10
50.0
 20
1164.24
 30
0.0
 11
46.736845
 21
1139.453878
 31
0.0
  0
LINE
  5
17A
330
166
100
AcDbEntity
  8
LC-009-003-----0
 62
     7
370
    25
100
AcDbLine
 10
46.736845
 20
1139.453878
 30
0.0
 11
53.263155
 21
1139.453878
 31
0.0
  0
LINE
  5
17B
330
166
100
AcDbEntity
  8
LC-009-003-----0
 62
     7
370
    25
100
AcDbLine
 10
52.414735
 20
1139.39827
 30
0.0
 11
50.0
 21
1157.74
 31
0.0
  0
LINE
  5
17C
330
166
100
AcDbEntity
  8
LC-009-003-----0
 62
     7
370
    25
100
AcDbLine
 10
50.0
 20
1157.74
 30
0.0
 11
47.585265
 21
1139.39827
 31
0.0
  0
LINE
  5
17D
330
166
100
AcDbEntity
  8
LC-009-003-----0
 62
     7
370
    25
100
AcDbLine
 10
51.566314
 20
1139.342661
 30
0.0
 11
50.0
 21
1151.24
 31
0.0
  0
LINE
  5
17E
330
166
100
AcDbEntity
  8
LC-009-003-----0
 62
     7
370
    25
100
AcDbLine
 10
50.0
 20
1151.24
 30
0.0
 11
48.433686
 21
1139.342661
 31
0.0
  0
LINE
  5
17F
330
166
100
AcDbEntity
  8
LC-009-003-----0
 62
     7
370
    25
100
AcDbLine
 10
50.717894
 20
1139.287053
 30
0.0
 11
50.0
 21
1144.74
 31
0.0
  0
LINE
  5
180
330
166
100
AcDbEntity
  8
LC-009-003-----0
 62
     7
370
    25
100
AcDbLine
 10
50.0
 20
1144.74
 30
0.0
 11
49.282106
 21
1139.287053
 31
0.0
  0
TEXT
  5
181
330
166
100
AcDbEntity
  8
LC-009-003-----0
 62
     7
370
    25
100
AcDbText
 10
35.0
 20
935.668571
 30
0.0
 40
25.0
  1
400
 50
90.0
 41
0.8
  7
LCTX0-400-0-0pDIN-Schrift
 72
     1
 11
35.0
 21
964.24
 31
0.0
100
AcDbText
  0
ENDBLK
  5
168
330
166
100
AcDbEntity
  8
0
100
AcDbBlockEnd
  0
BLOCK
  5
1A9
330
1A8
100
AcDbEntity
  8
0
100
AcDbBlockBegin
  2
LCDIM2
 70
     0
 71
     0
 10
0.0
 20
0.0
 30
0.0
  3
LCDIM2
  1

  4
LCDIM2
  0
LINE
  5
1AB
330
1A8
100
AcDbEntity
  8
LC-007-003-MTH-0
 62
     7
370
    25
100
AcDbLine
 10
249.177815
 20
1574.03
 30
0.0
 11
315.0
 21
1574.03
 31
0.0
  0
LINE
  5
1AC
330
1A8
100
AcDbEntity
  8
LC-007-003-MTH-0
 62
     7
370
    25
100
AcDbLine
 10
180.826199
 20
1779.03
 30
0.0
 11
315.0
 21
1779.03
 31
0.0
  0
LINE
  5
1AD
330
1A8
100
AcDbEntity
  8
LC-008-003-MTG-0
 62
     7
370
    25
100
AcDbLine
 10
300.0
 20
1574.03
 30
0.0
 11
300.0
 21
1779.03
 31
0.0
  0
LINE
  5
1AE
330
1A8
100
AcDbEntity
  8
LC-009-003-----0
 62
     7
370
    25
100
AcDbLine
 10
296.736845
 20
1598.816122
 30
0.0
 11
300.0
 21
1574.03
 31
0.0
  0
LINE
  5
1AF
330
1A8
100
AcDbEntity
  8
LC-009-003-----0
 62
     7
370
    25
100
AcDbLine
 10
300.0
 20
1574.03
 30
0.0
 11
303.263155
 21
1598.816122
 31
0.0
  0
LINE
  5
1B0
330
1A8
100
AcDbEntity
  8
LC-009-003-----0
 62
     7
370
    25
100
AcDbLine
 10
303.263155
 20
1598.816122
 30
0.0
 11
296.736845
 21
1598.816122
 31
0.0
  0
LINE
  5
1B1
330
1A8
100
AcDbEntity
  8
LC-009-003-----0
 62
     7
370
    25
100
AcDbLine
 10
297.585265
 20
1598.87173
 30
0.0
 11
300.0
 21
1580.53
 31
0.0
  0
LINE
  5
1B2
330
1A8
100
AcDbEntity
  8
LC-009-003-----0
 62
     7
370
    25
100
AcDbLine
 10
300.0
 20
1580.53
 30
0.0
 11
302.414735
 21
1598.87173
 31
0.0
  0
LINE
  5
1B3
330
1A8
100
AcDbEntity
  8
LC-009-003-----0
 62
     7
370
    25
100
AcDbLine
 10
298.433686
 20
1598.927339
 30
0.0
 11
300.0
 21
1587.03
 31
0.0
  0
LINE
  5
1B4
330
1A8
100
AcDbEntity
  8
LC-009-003-----0
 62
     7
370
    25
100
AcDbLine
 10
300.0
 20
1587.03
 30
0.0
 11
301.566314
 21
1598.927339
 31
0.0
  0
LINE
  5
1B5
330
1A8
100
AcDbEntity
  8
LC-009-003-----0
 62
     7
370
    25
100
AcDbLine
 10
299.282106
 20
1598.982947
 30
0.0
 11
300.0
 21
1593.53
 31
0.0
  0
LINE
  5
1B6
330
1A8
100
AcDbEntity
  8
LC-009-003-----0
 62
     7
370
    25
100
AcDbLine
 10
300.0
 20
1593.53
 30
0.0
 11
300.717894
 21
1598.982947
 31
0.0
  0
LINE
  5
1B7
330
1A8
100
AcDbEntity
  8
LC-009-003-----0
 62
     7
370
    25
100
AcDbLine
 10
303.263155
 20
1754.243878
 30
0.0
 11
300.0
 21
1779.03
 31
0.0
  0
LINE
  5
1B8
330
1A8
100
AcDbEntity
  8
LC-009-003-----0
 62
     7
370
    25
100
AcDbLine
 10
300.0
 20
1779.03
 30
0.0
 11
296.736845
 21
1754.243878
 31
0.0
  0
LINE
  5
1B9
330
1A8
100
AcDbEntity
  8
LC-009-003-----0
 62
     7
370
    25
100
AcDbLine
 10
296.736845
 20
1754.243878
 30
0.0
 11
303.263155
 21
1754.243878
 31
0.0
  0
LINE
  5
1BA
330
1A8
100
AcDbEntity
  8
LC-009-003-----0
 62
     7
370
    25
100
AcDbLine
 10
302.414735
 20
1754.18827
 30
0.0
 11
300.0
 21
1772.53
 31
0.0
  0
LINE
  5
1BB
330
1A8
100
AcDbEntity
  8
LC-009-003-----0
 62
     7
370
    25
100
AcDbLine
 10
300.0
 20
1772.53
 30
0.0
 11
297.585265
 21
1754.18827
 31
0.0
  0
LINE
  5
1BC
330
1A8
100
AcDbEntity
  8
LC-009-003-----0
 62
     7
370
    25
100
AcDbLine
 10
301.566314
 20
1754.132661
 30
0.0
 11
300.0
 21
1766.03
 31
0.0
  0
LINE
  5
1BD
330
1A8
100
AcDbEntity
  8
LC-009-003-----0
 62
     7
370
    25
100
AcDbLine
 10
300.0
 20
1766.03
 30
0.0
 11
298.433686
 21
1754.132661
 31
0.0
  0
LINE
  5
1BE
330
1A8
100
AcDbEntity
  8
LC-009-003-----0
 62
     7
370
    25
100
AcDbLine
 10
300.717894
 20
1754.077053
 30
0.0
 11
300.0
 21
1759.53
 31
0.0
  0
LINE
  5
1BF
330
1A8
100
AcDbEntity
  8
LC-009-003-----0
 62
     7
370
    25
100
AcDbLine
 10
300.0
 20
1759.53
 30
0.0
 11
299.282106
 21
1754.077053
 31
0.0
  0
TEXT
  5
1C0
330
1A8
100
AcDbEntity
  8
LC-009-003-----0
 62
     7
370
    25
100
AcDbText
 10
285.0
 20
1651.002773
 30
0.0
 40
25.0
  1
205
 50
90.0
 41
0.8
  7
LCTX0-400-0-0pDIN-Schrift
 72
     1
 11
285.0
 21
1679.574202
 31
0.0
100
AcDbText
  0
ENDBLK
  5
1AA
330
1A8
100
AcDbEntity
  8
0
100
AcDbBlockEnd
  0
BLOCK
  5
1E5
330
1E4
100
AcDbEntity
  8
0
100
AcDbBlockBegin
  2
LCDIM3
 70
     0
 71
     0
 10
0.0
 20
0.0
 30
0.0
  3
LCDIM3
  1

  4
LCDIM3
  0
LINE
  5
1E7
330
1E4
100
AcDbEntity
  8
LC-007-003-MTH-0
 62
     7
370
    25
100
AcDbLine
 10
-3.514686
 20
132.63817
 30
0.0
 11
-3.514686
 21
35.0
 31
0.0
  0
LINE
  5
1E8
330
1E4
100
AcDbEntity
  8
LC-007-003-MTH-0
 62
     7
370
    25
100
AcDbLine
 10
186.485314
 20
132.63817
 30
0.0
 11
186.485314
 21
35.0
 31
0.0
  0
LINE
  5
1E9
330
1E4
100
AcDbEntity
  8
LC-008-003-MTG-0
 62
     7
370
    25
100
AcDbLine
 10
-3.514686
 20
50.0
 30
0.0
 11
186.485314
 21
50.0
 31
0.0
  0
LINE
  5
1EA
330
1E4
100
AcDbEntity
  8
LC-009-003-----0
 62
     7
370
    25
100
AcDbLine
 10
21.271436
 20
53.263155
 30
0.0
 11
-3.514686
 21
50.0
 31
0.0
  0
LINE
  5
1EB
330
1E4
100
AcDbEntity
  8
LC-009-003-----0
 62
     7
370
    25
100
AcDbLine
 10
-3.514686
 20
50.0
 30
0.0
 11
21.271436
 21
46.736845
 31
0.0
  0
LINE
  5
1EC
330
1E4
100
AcDbEntity
  8
LC-009-003-----0
 62
     7
370
    25
100
AcDbLine
 10
21.271436
 20
46.736845
 30
0.0
 11
21.271436
 21
53.263155
 31
0.0
  0
LINE
  5
1ED
330
1E4
100
AcDbEntity
  8
LC-009-003-----0
 62
     7
370
    25
100
AcDbLine
 10
21.327045
 20
52.414735
 30
0.0
 11
2.985314
 21
50.0
 31
0.0
  0
LINE
  5
1EE
330
1E4
100
AcDbEntity
  8
LC-009-003-----0
 62
     7
370
    25
100
AcDbLine
 10
2.985314
 20
50.0
 30
0.0
 11
21.327045
 21
47.585265
 31
0.0
  0
LINE
  5
1EF
330
1E4
100
AcDbEntity
  8
LC-009-003-----0
 62
     7
370
    25
100
AcDbLine
 10
21.382653
 20
51.566314
 30
0.0
 11
9.485315
 21
50.0
 31
0.0
  0
LINE
  5
1F0
330
1E4
100
AcDbEntity
  8
LC-009-003-----0
 62
     7
370
    25
100
AcDbLine
 10
9.485315
 20
50.0
 30
0.0
 11
21.382653
 21
48.433686
 31
0.0
  0
LINE
  5
1F1
330
1E4
100
AcDbEntity
  8
LC-009-003-----0
 62
     7
370
    25
100
AcDbLine
 10
21.438261
 20
50.717894
 30
0.0
 11
15.985315
 21
50.0
 31
0.0
  0
LINE
  5
1F2
330
1E4
100
AcDbEntity
  8
LC-009-003-----0
 62
     7
370
    25
100
AcDbLine
 10
15.985315
 20
50.0
 30
0.0
 11
21.438261
 21
49.282106
 31
0.0
  0
LINE
  5
1F3
330
1E4
100
AcDbEntity
  8
LC-009-003-----0
 62
     7
370
    25
100
AcDbLine
 10
161.699192
 20
46.736845
 30
0.0
 11
186.485314
 21
50.0
 31
0.0
  0
LINE
  5
1F4
330
1E4
100
AcDbEntity
  8
LC-009-003-----0
 62
     7
370
    25
100
AcDbLine
 10
186.485314
 20
50.0
 30
0.0
 11
161.699192
 21
53.263155
 31
0.0
  0
LINE
  5
1F5
330
1E4
100
AcDbEntity
  8
LC-009-003-----0
 62
     7
370
    25
100
AcDbLine
 10
161.699192
 20
53.263155
 30
0.0
 11
161.699192
 21
46.736845
 31
0.0
  0
LINE
  5
1F6
330
1E4
100
AcDbEntity
  8
LC-009-003-----0
 62
     7
370
    25
100
AcDbLine
 10
161.643584
 20
47.585265
 30
0.0
 11
179.985314
 21
50.0
 31
0.0
  0
LINE
  5
1F7
330
1E4
100
AcDbEntity
  8
LC-009-003-----0
 62
     7
370
    25
100
AcDbLine
 10
179.985314
 20
50.0
 30
0.0
 11
161.643584
 21
52.414735
 31
0.0
  0
LINE
  5
1F8
330
1E4
100
AcDbEntity
  8
LC-009-003-----0
 62
     7
370
    25
100
AcDbLine
 10
161.587976
 20
48.433686
 30
0.0
 11
173.485314
 21
50.0
 31
0.0
  0
LINE
  5
1F9
330
1E4
100
AcDbEntity
  8
LC-009-003-----0
 62
     7
370
    25
100
AcDbLine
 10
173.485314
 20
50.0
 30
0.0
 11
161.587976
 21
51.566314
 31
0.0
  0
LINE
  5
1FA
330
1E4
100
AcDbEntity
  8
LC-009-003-----0
 62
     7
370
    25
100
AcDbLine
 10
161.532367
 20
49.282106
 30
0.0
 11
166.985314
 21
50.0
 31
0.0
  0
LINE
  5
1FB
330
1E4
100
AcDbEntity
  8
LC-009-003-----0
 62
     7
370
    25
100
AcDbLine
 10
166.985314
 20
50.0
 30
0.0
 11
161.532367
 21
50.717894
 31
0.0
  0
TEXT
  5
1FC
330
1E4
100
AcDbEntity
  8
LC-009-003-----0
 62
     7
370
    25
100
AcDbText
 10
67.075387
 20
65.0
 30
0.0
 40
25.0
  1
380
 41
0.7
  7
LCTX0-400-0-0pDIN-Schrift
 72
     1
 11
92.075387
 21
65.0
 31
0.0
100
AcDbText
  0
ENDBLK
  5
1E6
330
1E4
100
AcDbEntity
  8
0
100
AcDbBlockEnd
  0
BLOCK
  5
1FF
330
1FE
100
AcDbEntity
  8
0
100
AcDbBlockBegin
  2
LCDIM4
 70
     0
 71
     0
 10
0.0
 20
0.0
 30
0.0
  3
LCDIM4
  1

  4
LCDIM4
  0
LINE
  5
201
330
1FE
100
AcDbEntity
  8
LC-007-003-MTH-0
 62
     7
370
    25
100
AcDbLine
 10
181.485314
 20
127.63817
 30
0.0
 11
315.0
 21
127.63817
 31
0.0
  0
LINE
  5
202
330
1FE
100
AcDbEntity
  8
LC-007-003-MTH-0
 62
     7
370
    25
100
AcDbLine
 10
181.485314
 20
317.63817
 30
0.0
 11
315.0
 21
317.63817
 31
0.0
  0
LINE
  5
203
330
1FE
100
AcDbEntity
  8
LC-008-003-MTG-0
 62
     7
370
    25
100
AcDbLine
 10
300.0
 20
127.63817
 30
0.0
 11
300.0
 21
317.63817
 31
0.0
  0
LINE
  5
204
330
1FE
100
AcDbEntity
  8
LC-009-003-----0
 62
     7
370
    25
100
AcDbLine
 10
296.736845
 20
152.424292
 30
0.0
 11
300.0
 21
127.63817
 31
0.0
  0
LINE
  5
205
330
1FE
100
AcDbEntity
  8
LC-009-003-----0
 62
     7
370
    25
100
AcDbLine
 10
300.0
 20
127.63817
 30
0.0
 11
303.263155
 21
152.424292
 31
0.0
  0
LINE
  5
206
330
1FE
100
AcDbEntity
  8
LC-009-003-----0
 62
     7
370
    25
100
AcDbLine
 10
303.263155
 20
152.424292
 30
0.0
 11
296.736845
 21
152.424292
 31
0.0
  0
LINE
  5
207
330
1FE
100
AcDbEntity
  8
LC-009-003-----0
 62
     7
370
    25
100
AcDbLine
 10
297.585265
 20
152.479901
 30
0.0
 11
300.0
 21
134.13817
 31
0.0
  0
LINE
  5
208
330
1FE
100
AcDbEntity
  8
LC-009-003-----0
 62
     7
370
    25
100
AcDbLine
 10
300.0
 20
134.13817
 30
0.0
 11
302.414735
 21
152.479901
 31
0.0
  0
LINE
  5
209
330
1FE
100
AcDbEntity
  8
LC-009-003-----0
 62
     7
370
    25
100
AcDbLine
 10
298.433686
 20
152.535509
 30
0.0
 11
300.0
 21
140.638171
 31
0.0
  0
LINE
  5
20A
330
1FE
100
AcDbEntity
  8
LC-009-003-----0
 62
     7
370
    25
100
AcDbLine
 10
300.0
 20
140.638171
 30
0.0
 11
301.566314
 21
152.535509
 31
0.0
  0
LINE
  5
20B
330
1FE
100
AcDbEntity
  8
LC-009-003-----0
 62
     7
370
    25
100
AcDbLine
 10
299.282106
 20
152.591117
 30
0.0
 11
300.0
 21
147.138171
 31
0.0
  0
LINE
  5
20C
330
1FE
100
AcDbEntity
  8
LC-009-003-----0
 62
     7
370
    25
100
AcDbLine
 10
300.0
 20
147.138171
 30
0.0
 11
300.717894
 21
152.591117
 31
0.0
  0
LINE
  5
20D
330
1FE
100
AcDbEntity
  8
LC-009-003-----0
 62
     7
370
    25
100
AcDbLine
 10
303.263155
 20
292.852048
 30
0.0
 11
300.0
 21
317.63817
 31
0.0
  0
LINE
  5
20E
330
1FE
100
AcDbEntity
  8
LC-009-003-----0
 62
     7
370
    25
100
AcDbLine
 10
300.0
 20
317.63817
 30
0.0
 11
296.736845
 21
292.852048
 31
0.0
  0
LINE
  5
20F
330
1FE
100
AcDbEntity
  8
LC-009-003-----0
 62
     7
370
    25
100
AcDbLine
 10
296.736845
 20
292.852048
 30
0.0
 11
303.263155
 21
292.852048
 31
0.0
  0
LINE
  5
210
330
1FE
100
AcDbEntity
  8
LC-009-003-----0
 62
     7
370
    25
100
AcDbLine
 10
302.414735
 20
292.79644
 30
0.0
 11
300.0
 21
311.13817
 31
0.0
  0
LINE
  5
211
330
1FE
100
AcDbEntity
  8
LC-009-003-----0
 62
     7
370
    25
100
AcDbLine
 10
300.0
 20
311.13817
 30
0.0
 11
297.585265
 21
292.79644
 31
0.0
  0
LINE
  5
212
330
1FE
100
AcDbEntity
  8
LC-009-003-----0
 62
     7
370
    25
100
AcDbLine
 10
301.566314
 20
292.740832
 30
0.0
 11
300.0
 21
304.63817
 31
0.0
  0
LINE
  5
213
330
1FE
100
AcDbEntity
  8
LC-009-003-----0
 62
     7
370
    25
100
AcDbLine
 10
300.0
 20
304.63817
 30
0.0
 11
298.433686
 21
292.740832
 31
0.0
  0
LINE
  5
214
330
1FE
100
AcDbEntity
  8
LC-009-003-----0
 62
     7
370
    25
100
AcDbLine
 10
300.717894
 20
292.685223
 30
0.0
 11
300.0
 21
298.13817
 31
0.0
  0
LINE
  5
215
330
1FE
100
AcDbEntity
  8
LC-009-003-----0
 62
     7
370
    25
100
AcDbLine
 10
300.0
 20
298.13817
 30
0.0
 11
299.282106
 21
292.685223
 31
0.0
  0
TEXT
  5
216
330
1FE
100
AcDbEntity
  8
LC-009-003-----0
 62
     7
370
    25
100
AcDbText
 10
285.0
 20
192.659219
 30
0.0
 40
25.0
  1
380
 50
90.0
 41
0.7
  7
LCTX0-400-0-0pDIN-Schrift
 72
     1
 11
285.0
 21
217.659219
 31
0.0
100
AcDbText
  0
ENDBLK
  5
200
330
1FE
100
AcDbEntity
  8
0
100
AcDbBlockEnd
  0
BLOCK
  5
219
330
218
100
AcDbEntity
  8
0
100
AcDbBlockBegin
  2
LCDIM5
 70
     0
 71
     0
 10
0.0
 20
0.0
 30
0.0
  3
LCDIM5
  1

  4
LCDIM5
  0
TEXT
  5
21B
330
218
100
AcDbEntity
  8
LC-009-003-----0
 62
     7
370
    25
100
AcDbText
 10
37.258848
 20
174.106472
 30
0.0
 40
25.0
  1
R10
 50
33.320698
 41
0.7
  7
LCTX0-400-0-0pDIN-Schrift
100
AcDbText
  0
LINE
  5
21C
330
218
100
AcDbEntity
  8
LC-008-003-MTG-0
 62
     7
370
    25
100
AcDbLine
 10
72.586419
 20
179.379641
 30
0.0
 11
-2.692731
 21
129.891547
 31
0.0
  0
LINE
  5
21D
330
218
100
AcDbEntity
  8
LC-009-003-----0
 62
     7
370
    25
100
AcDbLine
 10
16.226244
 20
146.233897
 30
0.0
 11
-2.692731
 21
129.891547
 31
0.0
  0
LINE
  5
21E
330
218
100
AcDbEntity
  8
LC-009-003-----0
 62
     7
370
    25
100
AcDbLine
 10
-2.692731
 20
129.891547
 30
0.0
 11
19.811307
 21
140.780454
 31
0.0
  0
LINE
  5
21F
330
218
100
AcDbEntity
  8
LC-009-003-----0
 62
     7
370
    25
100
AcDbLine
 10
19.811307
 20
140.780454
 30
0.0
 11
16.226244
 21
146.233897
 31
0.0
  0
LINE
  5
220
330
218
100
AcDbEntity
  8
LC-009-003-----0
 62
     7
370
    25
100
AcDbLine
 10
16.738769
 20
145.555497
 30
0.0
 11
2.738728
 21
133.462157
 31
0.0
  0
LINE
  5
221
330
218
100
AcDbEntity
  8
LC-009-003-----0
 62
     7
370
    25
100
AcDbLine
 10
2.738728
 20
133.462157
 30
0.0
 11
19.391715
 21
141.519949
 31
0.0
  0
LINE
  5
222
330
218
100
AcDbEntity
  8
LC-009-003-----0
 62
     7
370
    25
100
AcDbLine
 10
17.251294
 20
144.877096
 30
0.0
 11
8.170186
 21
137.032768
 31
0.0
  0
LINE
  5
223
330
218
100
AcDbEntity
  8
LC-009-003-----0
 62
     7
370
    25
100
AcDbLine
 10
8.170186
 20
137.032768
 30
0.0
 11
18.972124
 21
142.259444
 31
0.0
  0
LINE
  5
224
330
218
100
AcDbEntity
  8
LC-009-003-----0
 62
     7
370
    25
100
AcDbLine
 10
17.763819
 20
144.198696
 30
0.0
 11
13.601645
 21
140.603379
 31
0.0
  0
LINE
  5
225
330
218
100
AcDbEntity
  8
LC-009-003-----0
 62
     7
370
    25
100
AcDbLine
 10
13.601645
 20
140.603379
 30
0.0
 11
18.552533
 21
142.998938
 31
0.0
  0
ENDBLK
  5
21A
330
218
100
AcDbEntity
  8
0
100
AcDbBlockEnd
  0
BLOCK
  5
274
330
273
100
AcDbEntity
  8
0
100
AcDbBlockBegin
  2
POLY1
 70
     0
 71
     0
 10
0.0
 20
0.0
 30
0.0
  3
POLY1
  1

  4
POLY1
  0
LINE
  5
276
330
273
100
AcDbEntity
  8
LC-002-002-----0
 62
     7
370
    25
100
AcDbLine
 10
770.626568
 20
1137.645693
 30
0.0
 11
770.601552
 21
1137.620653
 31
0.0
  0
ENDBLK
  5
275
330
273
100
AcDbEntity
  8
0
100
AcDbBlockEnd
  0
BLOCK
  5
288
330
287
100
AcDbEntity
  8
0
100
AcDbBlockBegin
  2
POLY2
 70
     0
 71
     0
 10
0.0
 20
0.0
 30
0.0
  3
POLY2
  1

  4
POLY2
  0
LINE
  5
28A
330
287
100
AcDbEntity
  8
LC-002-002-----0
 62
     7
370
    25
100
AcDbLine
 10
813.814033
 20
1080.24
 30
0.0
 11
813.814033
 21
1080.24
 31
0.0
  0
LINE
  5
28B
330
287
100
AcDbEntity
  8
LC-002-002-----0
 62
     7
370
    25
100
AcDbLine
 10
813.814033
 20
1080.24
 30
0.0
 11
813.755095
 21
1080.754773
 31
0.0
  0
LINE
  5
28C
330
287
100
AcDbEntity
  8
LC-002-002-----0
 62
     7
370
    25
100
AcDbLine
 10
813.755095
 20
1080.754773
 30
0.0
 11
813.755095
 21
1080.754773
 31
0.0
  0
LINE
  5
28D
330
287
100
AcDbEntity
  8
LC-002-002-----0
 62
     7
370
    25
100
AcDbLine
 10
813.755095
 20
1080.754773
 30
0.0
 11
813.581549
 21
1081.236131
 31
0.0
  0
LINE
  5
28E
330
287
100
AcDbEntity
  8
LC-002-002-----0
 62
     7
370
    25
100
AcDbLine
 10
813.581549
 20
1081.236131
 30
0.0
 11
813.581549
 21
1081.236131
 31
0.0
  0
LINE
  5
28F
330
287
100
AcDbEntity
  8
LC-002-002-----0
 62
     7
370
    25
100
AcDbLine
 10
813.581549
 20
1081.236131
 30
0.0
 11
813.305414
 21
1081.649698
 31
0.0
  0
LINE
  5
290
330
287
100
AcDbEntity
  8
LC-002-002-----0
 62
     7
370
    25
100
AcDbLine
 10
813.305414
 20
1081.649698
 30
0.0
 11
813.305414
 21
1081.649698
 31
0.0
  0
LINE
  5
291
330
287
100
AcDbEntity
  8
LC-002-002-----0
 62
     7
370
    25
100
AcDbLine
 10
813.305414
 20
1081.649698
 30
0.0
 11
812.944068
 21
1081.968644
 31
0.0
  0
LINE
  5
292
330
287
100
AcDbEntity
  8
LC-002-002-----0
 62
     7
370
    25
100
AcDbLine
 10
812.944068
 20
1081.968644
 30
0.0
 11
812.944068
 21
1081.968644
 31
0.0
  0
LINE
  5
293
330
287
100
AcDbEntity
  8
LC-002-002-----0
 62
     7
370
    25
100
AcDbLine
 10
812.944068
 20
1081.968644
 30
0.0
 11
812.520682
 21
1082.170607
 31
0.0
  0
LINE
  5
294
330
287
100
AcDbEntity
  8
LC-002-002-----0
 62
     7
370
    25
100
AcDbLine
 10
812.520682
 20
1082.170607
 30
0.0
 11
812.520682
 21
1082.170607
 31
0.0
  0
LINE
  5
295
330
287
100
AcDbEntity
  8
LC-002-002-----0
 62
     7
370
    25
100
AcDbLine
 10
812.520682
 20
1082.170607
 30
0.0
 11
812.063199
 21
1082.24
 31
0.0
  0
ENDBLK
  5
289
330
287
100
AcDbEntity
  8
0
100
AcDbBlockEnd
  0
BLOCK
  5
299
330
298
100
AcDbEntity
  8
0
100
AcDbBlockBegin
  2
POLY3
 70
     0
 71
     0
 10
0.0
 20
0.0
 30
0.0
  3
POLY3
  1

  4
POLY3
  0
LINE
  5
29B
330
298
100
AcDbEntity
  8
LC-002-002-----0
 62
     7
370
    25
100
AcDbLine
 10
790.601552
 20
1080.24
 30
0.0
 11
790.601552
 21
1080.24
 31
0.0
  0
LINE
  5
29C
330
298
100
AcDbEntity
  8
LC-002-002-----0
 62
     7
370
    25
100
AcDbLine
 10
790.601552
 20
1080.24
 30
0.0
 11
790.601586
 21
1080.754788
 31
0.0
  0
LINE
  5
29D
330
298
100
AcDbEntity
  8
LC-002-002-----0
 62
     7
370
    25
100
AcDbLine
 10
790.601586
 20
1080.754788
 30
0.0
 11
790.601586
 21
1080.754788
 31
0.0
  0
LINE
  5
29E
330
298
100
AcDbEntity
  8
LC-002-002-----0
 62
     7
370
    25
100
AcDbLine
 10
790.601586
 20
1080.754788
 30
0.0
 11
790.601549
 21
1081.236158
 31
0.0
  0
LINE
  5
29F
330
298
100
AcDbEntity
  8
LC-002-002-----0
 62
     7
370
    25
100
AcDbLine
 10
790.601549
 20
1081.236158
 30
0.0
 11
790.601549
 21
1081.236158
 31
0.0
  0
LINE
  5
2A0
330
298
100
AcDbEntity
  8
LC-002-002-----0
 62
     7
370
    25
100
AcDbLine
 10
790.601549
 20
1081.236158
 30
0.0
 11
790.601555
 21
1081.649728
 31
0.0
  0
LINE
  5
2A1
330
298
100
AcDbEntity
  8
LC-002-002-----0
 62
     7
370
    25
100
AcDbLine
 10
790.601555
 20
1081.649728
 30
0.0
 11
790.601555
 21
1081.649728
 31
0.0
  0
LINE
  5
2A2
330
298
100
AcDbEntity
  8
LC-002-002-----0
 62
     7
370
    25
100
AcDbLine
 10
790.601555
 20
1081.649728
 30
0.0
 11
790.60153
 21
1081.968665
 31
0.0
  0
LINE
  5
2A3
330
298
100
AcDbEntity
  8
LC-002-002-----0
 62
     7
370
    25
100
AcDbLine
 10
790.60153
 20
1081.968665
 30
0.0
 11
790.60153
 21
1081.968665
 31
0.0
  0
LINE
  5
2A4
330
298
100
AcDbEntity
  8
LC-002-002-----0
 62
     7
370
    25
100
AcDbLine
 10
790.60153
 20
1081.968665
 30
0.0
 11
790.601579
 21
1082.170621
 31
0.0
  0
LINE
  5
2A5
330
298
100
AcDbEntity
  8
LC-002-002-----0
 62
     7
370
    25
100
AcDbLine
 10
790.601579
 20
1082.170621
 30
0.0
 11
790.601579
 21
1082.170621
 31
0.0
  0
LINE
  5
2A6
330
298
100
AcDbEntity
  8
LC-002-002-----0
 62
     7
370
    25
100
AcDbLine
 10
790.601579
 20
1082.170621
 30
0.0
 11
790.601561
 21
1082.24
 31
0.0
  0
ENDBLK
  5
29A
330
298
100
AcDbEntity
  8
0
100
AcDbBlockEnd
  0
BLOCK
  5
2AA
330
2A9
100
AcDbEntity
  8
0
100
AcDbBlockBegin
  2
POLY4
 70
     0
 71
     0
 10
0.0
 20
0.0
 30
0.0
  3
POLY4
  1

  4
POLY4
  0
LINE
  5
2AC
330
2A9
100
AcDbEntity
  8
LC-002-002-----0
 62
     7
370
    25
100
AcDbLine
 10
767.389071
 20
1080.24
 30
0.0
 11
767.389071
 21
1080.24
 31
0.0
  0
LINE
  5
2AD
330
2A9
100
AcDbEntity
  8
LC-002-002-----0
 62
     7
370
    25
100
AcDbLine
 10
767.389071
 20
1080.24
 30
0.0
 11
767.448009
 21
1080.754773
 31
0.0
  0
LINE
  5
2AE
330
2A9
100
AcDbEntity
  8
LC-002-002-----0
 62
     7
370
    25
100
AcDbLine
 10
767.448009
 20
1080.754773
 30
0.0
 11
767.448009
 21
1080.754773
 31
0.0
  0
LINE
  5
2AF
330
2A9
100
AcDbEntity
  8
LC-002-002-----0
 62
     7
370
    25
100
AcDbLine
 10
767.448009
 20
1080.754773
 30
0.0
 11
767.621555
 21
1081.236131
 31
0.0
  0
LINE
  5
2B0
330
2A9
100
AcDbEntity
  8
LC-002-002-----0
 62
     7
370
    25
100
AcDbLine
 10
767.621555
 20
1081.236131
 30
0.0
 11
767.621555
 21
1081.236131
 31
0.0
  0
LINE
  5
2B1
330
2A9
100
AcDbEntity
  8
LC-002-002-----0
 62
     7
370
    25
100
AcDbLine
 10
767.621555
 20
1081.236131
 30
0.0
 11
767.89769
 21
1081.649698
 31
0.0
  0
LINE
  5
2B2
330
2A9
100
AcDbEntity
  8
LC-002-002-----0
 62
     7
370
    25
100
AcDbLine
 10
767.89769
 20
1081.649698
 30
0.0
 11
767.89769
 21
1081.649698
 31
0.0
  0
LINE
  5
2B3
330
2A9
100
AcDbEntity
  8
LC-002-002-----0
 62
     7
370
    25
100
AcDbLine
 10
767.89769
 20
1081.649698
 30
0.0
 11
768.259036
 21
1081.968644
 31
0.0
  0
LINE
  5
2B4
330
2A9
100
AcDbEntity
  8
LC-002-002-----0
 62
     7
370
    25
100
AcDbLine
 10
768.259036
 20
1081.968644
 30
0.0
 11
768.259036
 21
1081.968644
 31
0.0
  0
LINE
  5
2B5
330
2A9
100
AcDbEntity
  8
LC-002-002-----0
 62
     7
370
    25
100
AcDbLine
 10
768.259036
 20
1081.968644
 30
0.0
 11
768.682422
 21
1082.170607
 31
0.0
  0
LINE
  5
2B6
330
2A9
100
AcDbEntity
  8
LC-002-002-----0
 62
     7
370
    25
100
AcDbLine
 10
768.682422
 20
1082.170607
 30
0.0
 11
768.682422
 21
1082.170607
 31
0.0
  0
LINE
  5
2B7
330
2A9
100
AcDbEntity
  8
LC-002-002-----0
 62
     7
370
    25
100
AcDbLine
 10
768.682422
 20
1082.170607
 30
0.0
 11
769.139905
 21
1082.24
 31
0.0
  0
ENDBLK
  5
2AB
330
2A9
100
AcDbEntity
  8
0
100
AcDbBlockEnd
  0
BLOCK
  5
329
330
328
100
AcDbEntity
  8
0
100
AcDbBlockBegin
  2
POLY5
 70
     0
 71
     0
 10
0.0
 20
0.0
 30
0.0
  3
POLY5
  1

  4
POLY5
  0
LINE
  5
32B
330
328
100
AcDbEntity
  8
LC-002-002-----0
 62
     7
370
    25
100
AcDbLine
 10
1021.778941
 20
1138.866241
 30
0.0
 11
1021.778941
 21
1138.866241
 31
0.0
  0
LINE
  5
32C
330
328
100
AcDbEntity
  8
LC-002-002-----0
 62
     7
370
    25
100
AcDbLine
 10
1021.778941
 20
1138.866241
 30
0.0
 11
1021.564008
 21
1138.825077
 31
0.0
  0
LINE
  5
32D
330
328
100
AcDbEntity
  8
LC-002-002-----0
 62
     7
370
    25
100
AcDbLine
 10
1021.564008
 20
1138.825077
 30
0.0
 11
1021.564008
 21
1138.825077
 31
0.0
  0
LINE
  5
32E
330
328
100
AcDbEntity
  8
LC-002-002-----0
 62
     7
370
    25
100
AcDbLine
 10
1021.564008
 20
1138.825077
 30
0.0
 11
1021.349046
 21
1138.75201
 31
0.0
  0
LINE
  5
32F
330
328
100
AcDbEntity
  8
LC-002-002-----0
 62
     7
370
    25
100
AcDbLine
 10
1021.349046
 20
1138.75201
 30
0.0
 11
1021.349046
 21
1138.75201
 31
0.0
  0
LINE
  5
330
330
328
100
AcDbEntity
  8
LC-002-002-----0
 62
     7
370
    25
100
AcDbLine
 10
1021.349046
 20
1138.75201
 30
0.0
 11
1021.143538
 21
1138.655469
 31
0.0
  0
LINE
  5
331
330
328
100
AcDbEntity
  8
LC-002-002-----0
 62
     7
370
    25
100
AcDbLine
 10
1021.143538
 20
1138.655469
 30
0.0
 11
1021.143538
 21
1138.655469
 31
0.0
  0
LINE
  5
332
330
328
100
AcDbEntity
  8
LC-002-002-----0
 62
     7
370
    25
100
AcDbLine
 10
1021.143538
 20
1138.655469
 30
0.0
 11
1020.949438
 21
1138.540882
 31
0.0
  0
LINE
  5
333
330
328
100
AcDbEntity
  8
LC-002-002-----0
 62
     7
370
    25
100
AcDbLine
 10
1020.949438
 20
1138.540882
 30
0.0
 11
1020.949438
 21
1138.540882
 31
0.0
  0
LINE
  5
334
330
328
100
AcDbEntity
  8
LC-002-002-----0
 62
     7
370
    25
100
AcDbLine
 10
1020.949438
 20
1138.540882
 30
0.0
 11
1020.769736
 21
1138.414575
 31
0.0
  0
LINE
  5
335
330
328
100
AcDbEntity
  8
LC-002-002-----0
 62
     7
370
    25
100
AcDbLine
 10
1020.769736
 20
1138.414575
 30
0.0
 11
1020.769736
 21
1138.414575
 31
0.0
  0
LINE
  5
336
330
328
100
AcDbEntity
  8
LC-002-002-----0
 62
     7
370
    25
100
AcDbLine
 10
1020.769736
 20
1138.414575
 30
0.0
 11
1020.60356
 21
1138.278827
 31
0.0
  0
LINE
  5
337
330
328
100
AcDbEntity
  8
LC-002-002-----0
 62
     7
370
    25
100
AcDbLine
 10
1020.60356
 20
1138.278827
 30
0.0
 11
1020.60356
 21
1138.278827
 31
0.0
  0
LINE
  5
338
330
328
100
AcDbEntity
  8
LC-002-002-----0
 62
     7
370
    25
100
AcDbLine
 10
1020.60356
 20
1138.278827
 30
0.0
 11
1020.451377
 21
1138.134983
 31
0.0
  0
LINE
  5
339
330
328
100
AcDbEntity
  8
LC-002-002-----0
 62
     7
370
    25
100
AcDbLine
 10
1020.451377
 20
1138.134983
 30
0.0
 11
1020.451377
 21
1138.134983
 31
0.0
  0
LINE
  5
33A
330
328
100
AcDbEntity
  8
LC-002-002-----0
 62
     7
370
    25
100
AcDbLine
 10
1020.451377
 20
1138.134983
 30
0.0
 11
1020.314791
 21
1137.985267
 31
0.0
  0
LINE
  5
33B
330
328
100
AcDbEntity
  8
LC-002-002-----0
 62
     7
370
    25
100
AcDbLine
 10
1020.314791
 20
1137.985267
 30
0.0
 11
1020.314791
 21
1137.985267
 31
0.0
  0
LINE
  5
33C
330
328
100
AcDbEntity
  8
LC-002-002-----0
 62
     7
370
    25
100
AcDbLine
 10
1020.314791
 20
1137.985267
 30
0.0
 11
1020.19591
 21
1137.833277
 31
0.0
  0
LINE
  5
33D
330
328
100
AcDbEntity
  8
LC-002-002-----0
 62
     7
370
    25
100
AcDbLine
 10
1020.19591
 20
1137.833277
 30
0.0
 11
1020.19591
 21
1137.833277
 31
0.0
  0
LINE
  5
33E
330
328
100
AcDbEntity
  8
LC-002-002-----0
 62
     7
370
    25
100
AcDbLine
 10
1020.19591
 20
1137.833277
 30
0.0
 11
1020.096696
 21
1137.683922
 31
0.0
  0
ENDBLK
  5
32A
330
328
100
AcDbEntity
  8
0
100
AcDbBlockEnd
  0
BLOCK
  5
341
330
340
100
AcDbEntity
  8
0
100
AcDbBlockBegin
  2
POLY6
 70
     0
 71
     0
 10
0.0
 20
0.0
 30
0.0
  3
POLY6
  1

  4
POLY6
  0
LINE
  5
343
330
340
100
AcDbEntity
  8
LC-002-002-----0
 62
     7
370
    25
100
AcDbLine
 10
1019.76302
 20
1137.146097
 30
0.0
 11
1019.76302
 21
1137.146097
 31
0.0
  0
LINE
  5
344
330
340
100
AcDbEntity
  8
LC-002-002-----0
 62
     7
370
    25
100
AcDbLine
 10
1019.76302
 20
1137.146097
 30
0.0
 11
1019.800643
 21
1137.20555
 31
0.0
  0
LINE
  5
345
330
340
100
AcDbEntity
  8
LC-002-002-----0
 62
     7
370
    25
100
AcDbLine
 10
1019.800643
 20
1137.20555
 30
0.0
 11
1019.800643
 21
1137.20555
 31
0.0
  0
LINE
  5
346
330
340
100
AcDbEntity
  8
LC-002-002-----0
 62
     7
370
    25
100
AcDbLine
 10
1019.800643
 20
1137.20555
 30
0.0
 11
1019.91255
 21
1137.384692
 31
0.0
  0
LINE
  5
347
330
340
100
AcDbEntity
  8
LC-002-002-----0
 62
     7
370
    25
100
AcDbLine
 10
1019.91255
 20
1137.384692
 30
0.0
 11
1019.91255
 21
1137.384692
 31
0.0
  0
LINE
  5
348
330
340
100
AcDbEntity
  8
LC-002-002-----0
 62
     7
370
    25
100
AcDbLine
 10
1019.91255
 20
1137.384692
 30
0.0
 11
1020.096696
 21
1137.683922
 31
0.0
  0
ENDBLK
  5
342
330
340
100
AcDbEntity
  8
0
100
AcDbBlockEnd
  0
BLOCK
  5
34B
330
34A
100
AcDbEntity
  8
0
100
AcDbBlockBegin
  2
POLY7
 70
     0
 71
     0
 10
0.0
 20
0.0
 30
0.0
  3
POLY7
  1

  4
POLY7
  0
LINE
  5
34D
330
34A
100
AcDbEntity
  8
LC-002-002-----0
 62
     7
370
    25
100
AcDbLine
 10
1014.424614
 20
1154.624908
 30
0.0
 11
1014.424614
 21
1154.624908
 31
0.0
  0
LINE
  5
34E
330
34A
100
AcDbEntity
  8
LC-002-002-----0
 62
     7
370
    25
100
AcDbLine
 10
1014.424614
 20
1154.624908
 30
0.0
 11
1014.299815
 21
1154.641802
 31
0.0
  0
LINE
  5
34F
330
34A
100
AcDbEntity
  8
LC-002-002-----0
 62
     7
370
    25
100
AcDbLine
 10
1014.299815
 20
1154.641802
 30
0.0
 11
1014.299815
 21
1154.641802
 31
0.0
  0
LINE
  5
350
330
34A
100
AcDbEntity
  8
LC-002-002-----0
 62
     7
370
    25
100
AcDbLine
 10
1014.299815
 20
1154.641802
 30
0.0
 11
1014.240808
 21
1154.646104
 31
0.0
  0
LINE
  5
351
330
34A
100
AcDbEntity
  8
LC-002-002-----0
 62
     7
370
    25
100
AcDbLine
 10
1014.240808
 20
1154.646104
 30
0.0
 11
1014.240808
 21
1154.646104
 31
0.0
  0
LINE
  5
352
330
34A
100
AcDbEntity
  8
LC-002-002-----0
 62
     7
370
    25
100
AcDbLine
 10
1014.240808
 20
1154.646104
 30
0.0
 11
1014.181678
 21
1154.648076
 31
0.0
  0
LINE
  5
353
330
34A
100
AcDbEntity
  8
LC-002-002-----0
 62
     7
370
    25
100
AcDbLine
 10
1014.181678
 20
1154.648076
 30
0.0
 11
1014.181678
 21
1154.648076
 31
0.0
  0
LINE
  5
354
330
34A
100
AcDbEntity
  8
LC-002-002-----0
 62
     7
370
    25
100
AcDbLine
 10
1014.181678
 20
1154.648076
 30
0.0
 11
1014.122517
 21
1154.647715
 31
0.0
  0
LINE
  5
355
330
34A
100
AcDbEntity
  8
LC-002-002-----0
 62
     7
370
    25
100
AcDbLine
 10
1014.122517
 20
1154.647715
 30
0.0
 11
1014.122517
 21
1154.647715
 31
0.0
  0
LINE
  5
356
330
34A
100
AcDbEntity
  8
LC-002-002-----0
 62
     7
370
    25
100
AcDbLine
 10
1014.122517
 20
1154.647715
 30
0.0
 11
1014.063415
 21
1154.64502
 31
0.0
  0
LINE
  5
357
330
34A
100
AcDbEntity
  8
LC-002-002-----0
 62
     7
370
    25
100
AcDbLine
 10
1014.063415
 20
1154.64502
 30
0.0
 11
1014.063415
 21
1154.64502
 31
0.0
  0
LINE
  5
358
330
34A
100
AcDbEntity
  8
LC-002-002-----0
 62
     7
370
    25
100
AcDbLine
 10
1014.063415
 20
1154.64502
 30
0.0
 11
1014.004466
 21
1154.639998
 31
0.0
  0
LINE
  5
359
330
34A
100
AcDbEntity
  8
LC-002-002-----0
 62
     7
370
    25
100
AcDbLine
 10
1014.004466
 20
1154.639998
 30
0.0
 11
1014.004466
 21
1154.639998
 31
0.0
  0
LINE
  5
35A
330
34A
100
AcDbEntity
  8
LC-002-002-----0
 62
     7
370
    25
100
AcDbLine
 10
1014.004466
 20
1154.639998
 30
0.0
 11
1013.735461
 21
1154.586404
 31
0.0
  0
ENDBLK
  5
34C
330
34A
100
AcDbEntity
  8
0
100
AcDbBlockEnd
  0
BLOCK
  5
35D
330
35C
100
AcDbEntity
  8
0
100
AcDbBlockBegin
  2
POLY8
 70
     0
 71
     0
 10
0.0
 20
0.0
 30
0.0
  3
POLY8
  1

  4
POLY8
  0
LINE
  5
35F
330
35C
100
AcDbEntity
  8
LC-002-002-----0
 62
     7
370
    25
100
AcDbLine
 10
862.926324
 20
1145.197363
 30
0.0
 11
862.926324
 21
1145.197363
 31
0.0
  0
LINE
  5
360
330
35C
100
AcDbEntity
  8
LC-002-002-----0
 62
     7
370
    25
100
AcDbLine
 10
862.926324
 20
1145.197363
 30
0.0
 11
862.926361
 21
1145.052379
 31
0.0
  0
LINE
  5
361
330
35C
100
AcDbEntity
  8
LC-002-002-----0
 62
     7
370
    25
100
AcDbLine
 10
862.926361
 20
1145.052379
 30
0.0
 11
862.926361
 21
1145.052379
 31
0.0
  0
LINE
  5
362
330
35C
100
AcDbEntity
  8
LC-002-002-----0
 62
     7
370
    25
100
AcDbLine
 10
862.926361
 20
1145.052379
 30
0.0
 11
862.926801
 21
1144.627738
 31
0.0
  0
LINE
  5
363
330
35C
100
AcDbEntity
  8
LC-002-002-----0
 62
     7
370
    25
100
AcDbLine
 10
862.926801
 20
1144.627738
 30
0.0
 11
862.926801
 21
1144.627738
 31
0.0
  0
LINE
  5
364
330
35C
100
AcDbEntity
  8
LC-002-002-----0
 62
     7
370
    25
100
AcDbLine
 10
862.926801
 20
1144.627738
 30
0.0
 11
862.926373
 21
1143.92339
 31
0.0
  0
LINE
  5
365
330
35C
100
AcDbEntity
  8
LC-002-002-----0
 62
     7
370
    25
100
AcDbLine
 10
862.926373
 20
1143.92339
 30
0.0
 11
862.926373
 21
1143.92339
 31
0.0
  0
LINE
  5
366
330
35C
100
AcDbEntity
  8
LC-002-002-----0
 62
     7
370
    25
100
AcDbLine
 10
862.926373
 20
1143.92339
 30
0.0
 11
862.926233
 21
1142.92498
 31
0.0
  0
LINE
  5
367
330
35C
100
AcDbEntity
  8
LC-002-002-----0
 62
     7
370
    25
100
AcDbLine
 10
862.926233
 20
1142.92498
 30
0.0
 11
862.926233
 21
1142.92498
 31
0.0
  0
LINE
  5
368
330
35C
100
AcDbEntity
  8
LC-002-002-----0
 62
     7
370
    25
100
AcDbLine
 10
862.926233
 20
1142.92498
 30
0.0
 11
862.926276
 21
1141.579884
 31
0.0
  0
LINE
  5
369
330
35C
100
AcDbEntity
  8
LC-002-002-----0
 62
     7
370
    25
100
AcDbLine
 10
862.926276
 20
1141.579884
 30
0.0
 11
862.926276
 21
1141.579884
 31
0.0
  0
LINE
  5
36A
330
35C
100
AcDbEntity
  8
LC-002-002-----0
 62
     7
370
    25
100
AcDbLine
 10
862.926276
 20
1141.579884
 30
0.0
 11
862.926293
 21
1139.888031
 31
0.0
  0
LINE
  5
36B
330
35C
100
AcDbEntity
  8
LC-002-002-----0
 62
     7
370
    25
100
AcDbLine
 10
862.926293
 20
1139.888031
 30
0.0
 11
862.926293
 21
1139.888031
 31
0.0
  0
LINE
  5
36C
330
35C
100
AcDbEntity
  8
LC-002-002-----0
 62
     7
370
    25
100
AcDbLine
 10
862.926293
 20
1139.888031
 30
0.0
 11
862.926597
 21
1137.884726
 31
0.0
  0
LINE
  5
36D
330
35C
100
AcDbEntity
  8
LC-002-002-----0
 62
     7
370
    25
100
AcDbLine
 10
862.926597
 20
1137.884726
 30
0.0
 11
862.926597
 21
1137.884726
 31
0.0
  0
LINE
  5
36E
330
35C
100
AcDbEntity
  8
LC-002-002-----0
 62
     7
370
    25
100
AcDbLine
 10
862.926597
 20
1137.884726
 30
0.0
 11
862.926445
 21
1135.626289
 31
0.0
  0
LINE
  5
36F
330
35C
100
AcDbEntity
  8
LC-002-002-----0
 62
     7
370
    25
100
AcDbLine
 10
862.926445
 20
1135.626289
 30
0.0
 11
862.926445
 21
1135.626289
 31
0.0
  0
LINE
  5
370
330
35C
100
AcDbEntity
  8
LC-002-002-----0
 62
     7
370
    25
100
AcDbLine
 10
862.926445
 20
1135.626289
 30
0.0
 11
862.92641
 21
1133.203359
 31
0.0
  0
LINE
  5
371
330
35C
100
AcDbEntity
  8
LC-002-002-----0
 62
     7
370
    25
100
AcDbLine
 10
862.92641
 20
1133.203359
 30
0.0
 11
862.92641
 21
1133.203359
 31
0.0
  0
LINE
  5
372
330
35C
100
AcDbEntity
  8
LC-002-002-----0
 62
     7
370
    25
100
AcDbLine
 10
862.92641
 20
1133.203359
 30
0.0
 11
862.926412
 21
1130.721165
 31
0.0
  0
LINE
  5
373
330
35C
100
AcDbEntity
  8
LC-002-002-----0
 62
     7
370
    25
100
AcDbLine
 10
862.926412
 20
1130.721165
 30
0.0
 11
862.926412
 21
1130.721165
 31
0.0
  0
LINE
  5
374
330
35C
100
AcDbEntity
  8
LC-002-002-----0
 62
     7
370
    25
100
AcDbLine
 10
862.926412
 20
1130.721165
 30
0.0
 11
862.926462
 21
1128.308821
 31
0.0
  0
LINE
  5
375
330
35C
100
AcDbEntity
  8
LC-002-002-----0
 62
     7
370
    25
100
AcDbLine
 10
862.926462
 20
1128.308821
 30
0.0
 11
862.926462
 21
1128.308821
 31
0.0
  0
LINE
  5
376
330
35C
100
AcDbEntity
  8
LC-002-002-----0
 62
     7
370
    25
100
AcDbLine
 10
862.926462
 20
1128.308821
 30
0.0
 11
862.926598
 21
1126.069752
 31
0.0
  0
LINE
  5
377
330
35C
100
AcDbEntity
  8
LC-002-002-----0
 62
     7
370
    25
100
AcDbLine
 10
862.926598
 20
1126.069752
 30
0.0
 11
862.926598
 21
1126.069752
 31
0.0
  0
LINE
  5
378
330
35C
100
AcDbEntity
  8
LC-002-002-----0
 62
     7
370
    25
100
AcDbLine
 10
862.926598
 20
1126.069752
 30
0.0
 11
862.926299
 21
1124.087909
 31
0.0
  0
LINE
  5
379
330
35C
100
AcDbEntity
  8
LC-002-002-----0
 62
     7
370
    25
100
AcDbLine
 10
862.926299
 20
1124.087909
 30
0.0
 11
862.926299
 21
1124.087909
 31
0.0
  0
LINE
  5
37A
330
35C
100
AcDbEntity
  8
LC-002-002-----0
 62
     7
370
    25
100
AcDbLine
 10
862.926299
 20
1124.087909
 30
0.0
 11
862.926286
 21
1122.413617
 31
0.0
  0
LINE
  5
37B
330
35C
100
AcDbEntity
  8
LC-002-002-----0
 62
     7
370
    25
100
AcDbLine
 10
862.926286
 20
1122.413617
 30
0.0
 11
862.926286
 21
1122.413617
 31
0.0
  0
LINE
  5
37C
330
35C
100
AcDbEntity
  8
LC-002-002-----0
 62
     7
370
    25
100
AcDbLine
 10
862.926286
 20
1122.413617
 30
0.0
 11
862.926231
 21
1121.078465
 31
0.0
  0
LINE
  5
37D
330
35C
100
AcDbEntity
  8
LC-002-002-----0
 62
     7
370
    25
100
AcDbLine
 10
862.926231
 20
1121.078465
 30
0.0
 11
862.926231
 21
1121.078465
 31
0.0
  0
LINE
  5
37E
330
35C
100
AcDbEntity
  8
LC-002-002-----0
 62
     7
370
    25
100
AcDbLine
 10
862.926231
 20
1121.078465
 30
0.0
 11
862.926362
 21
1120.082531
 31
0.0
  0
LINE
  5
37F
330
35C
100
AcDbEntity
  8
LC-002-002-----0
 62
     7
370
    25
100
AcDbLine
 10
862.926362
 20
1120.082531
 30
0.0
 11
862.926362
 21
1120.082531
 31
0.0
  0
LINE
  5
380
330
35C
100
AcDbEntity
  8
LC-002-002-----0
 62
     7
370
    25
100
AcDbLine
 10
862.926362
 20
1120.082531
 30
0.0
 11
862.92677
 21
1119.376435
 31
0.0
  0
LINE
  5
381
330
35C
100
AcDbEntity
  8
LC-002-002-----0
 62
     7
370
    25
100
AcDbLine
 10
862.92677
 20
1119.376435
 30
0.0
 11
862.92677
 21
1119.376435
 31
0.0
  0
LINE
  5
382
330
35C
100
AcDbEntity
  8
LC-002-002-----0
 62
     7
370
    25
100
AcDbLine
 10
862.92677
 20
1119.376435
 30
0.0
 11
862.926331
 21
1118.948787
 31
0.0
  0
LINE
  5
383
330
35C
100
AcDbEntity
  8
LC-002-002-----0
 62
     7
370
    25
100
AcDbLine
 10
862.926331
 20
1118.948787
 30
0.0
 11
862.926331
 21
1118.948787
 31
0.0
  0
LINE
  5
384
330
35C
100
AcDbEntity
  8
LC-002-002-----0
 62
     7
370
    25
100
AcDbLine
 10
862.926331
 20
1118.948787
 30
0.0
 11
862.926292
 21
1118.802282
 31
0.0
  0
ENDBLK
  5
35E
330
35C
100
AcDbEntity
  8
0
100
AcDbBlockEnd
  0
BLOCK
  5
3B9
330
3B8
100
AcDbEntity
  8
0
100
AcDbBlockBegin
  2
POLY9
 70
     0
 71
     0
 10
0.0
 20
0.0
 30
0.0
  3
POLY9
  1

  4
POLY9
  0
LINE
  5
3BB
330
3B8
100
AcDbEntity
  8
LC-002-002-----0
 62
     7
370
    25
100
AcDbLine
 10
825.638762
 20
1075.49
 30
0.0
 11
825.638762
 21
1075.49
 31
0.0
  0
LINE
  5
3BC
330
3B8
100
AcDbEntity
  8
LC-002-002-----0
 62
     7
370
    25
100
AcDbLine
 10
825.638762
 20
1075.49
 30
0.0
 11
825.573799
 21
1075.665926
 31
0.0
  0
LINE
  5
3BD
330
3B8
100
AcDbEntity
  8
LC-002-002-----0
 62
     7
370
    25
100
AcDbLine
 10
825.573799
 20
1075.665926
 30
0.0
 11
825.573799
 21
1075.665926
 31
0.0
  0
LINE
  5
3BE
330
3B8
100
AcDbEntity
  8
LC-002-002-----0
 62
     7
370
    25
100
AcDbLine
 10
825.573799
 20
1075.665926
 30
0.0
 11
825.51278
 21
1075.832613
 31
0.0
  0
LINE
  5
3BF
330
3B8
100
AcDbEntity
  8
LC-002-002-----0
 62
     7
370
    25
100
AcDbLine
 10
825.51278
 20
1075.832613
 30
0.0
 11
825.51278
 21
1075.832613
 31
0.0
  0
LINE
  5
3C0
330
3B8
100
AcDbEntity
  8
LC-002-002-----0
 62
     7
370
    25
100
AcDbLine
 10
825.51278
 20
1075.832613
 30
0.0
 11
825.45564
 21
1075.99
 31
0.0
  0
ENDBLK
  5
3BA
330
3B8
100
AcDbEntity
  8
0
100
AcDbBlockEnd
  0
BLOCK
  5
3C3
330
3C2
100
AcDbEntity
  8
0
100
AcDbBlockBegin
  2
POLY10
 70
     0
 71
     0
 10
0.0
 20
0.0
 30
0.0
  3
POLY10
  1

  4
POLY10
  0
LINE
  5
3C5
330
3C2
100
AcDbEntity
  8
LC-002-002-----0
 62
     7
370
    25
100
AcDbLine
 10
827.256251
 20
1075.99
 30
0.0
 11
827.256251
 21
1075.99
 31
0.0
  0
LINE
  5
3C6
330
3C2
100
AcDbEntity
  8
LC-002-002-----0
 62
     7
370
    25
100
AcDbLine
 10
827.256251
 20
1075.99
 30
0.0
 11
826.861642
 21
1075.832628
 31
0.0
  0
LINE
  5
3C7
330
3C2
100
AcDbEntity
  8
LC-002-002-----0
 62
     7
370
    25
100
AcDbLine
 10
826.861642
 20
1075.832628
 30
0.0
 11
826.861642
 21
1075.832628
 31
0.0
  0
LINE
  5
3C8
330
3C2
100
AcDbEntity
  8
LC-002-002-----0
 62
     7
370
    25
100
AcDbLine
 10
826.861642
 20
1075.832628
 30
0.0
 11
826.46584
 21
1075.665942
 31
0.0
  0
LINE
  5
3C9
330
3C2
100
AcDbEntity
  8
LC-002-002-----0
 62
     7
370
    25
100
AcDbLine
 10
826.46584
 20
1075.665942
 30
0.0
 11
826.46584
 21
1075.665942
 31
0.0
  0
LINE
  5
3CA
330
3C2
100
AcDbEntity
  8
LC-002-002-----0
 62
     7
370
    25
100
AcDbLine
 10
826.46584
 20
1075.665942
 30
0.0
 11
826.069004
 21
1075.49
 31
0.0
  0
ENDBLK
  5
3C4
330
3C2
100
AcDbEntity
  8
0
100
AcDbBlockEnd
  0
BLOCK
  5
3CD
330
3CC
100
AcDbEntity
  8
0
100
AcDbBlockBegin
  2
POLY11
 70
     0
 71
     0
 10
0.0
 20
0.0
 30
0.0
  3
POLY11
  1

  4
POLY11
  0
LINE
  5
3CF
330
3CC
100
AcDbEntity
  8
LC-002-002-----0
 62
     7
370
    25
100
AcDbLine
 10
842.523403
 20
1075.49
 30
0.0
 11
842.523403
 21
1075.49
 31
0.0
  0
LINE
  5
3D0
330
3CC
100
AcDbEntity
  8
LC-002-002-----0
 62
     7
370
    25
100
AcDbLine
 10
842.523403
 20
1075.49
 30
0.0
 11
842.061541
 21
1075.665952
 31
0.0
  0
LINE
  5
3D1
330
3CC
100
AcDbEntity
  8
LC-002-002-----0
 62
     7
370
    25
100
AcDbLine
 10
842.061541
 20
1075.665952
 30
0.0
 11
842.061541
 21
1075.665952
 31
0.0
  0
LINE
  5
3D2
330
3CC
100
AcDbEntity
  8
LC-002-002-----0
 62
     7
370
    25
100
AcDbLine
 10
842.061541
 20
1075.665952
 30
0.0
 11
841.604686
 21
1075.832638
 31
0.0
  0
LINE
  5
3D3
330
3CC
100
AcDbEntity
  8
LC-002-002-----0
 62
     7
370
    25
100
AcDbLine
 10
841.604686
 20
1075.832638
 30
0.0
 11
841.604686
 21
1075.832638
 31
0.0
  0
LINE
  5
3D4
330
3CC
100
AcDbEntity
  8
LC-002-002-----0
 62
     7
370
    25
100
AcDbLine
 10
841.604686
 20
1075.832638
 30
0.0
 11
841.152935
 21
1075.99
 31
0.0
  0
ENDBLK
  5
3CE
330
3CC
100
AcDbEntity
  8
0
100
AcDbBlockEnd
  0
BLOCK
  5
3D7
330
3D6
100
AcDbEntity
  8
0
100
AcDbBlockBegin
  2
POLY12
 70
     0
 71
     0
 10
0.0
 20
0.0
 30
0.0
  3
POLY12
  1

  4
POLY12
  0
LINE
  5
3D9
330
3D6
100
AcDbEntity
  8
LC-002-002-----0
 62
     7
370
    25
100
AcDbLine
 10
826.069004
 20
1085.74
 30
0.0
 11
826.069004
 21
1085.74
 31
0.0
  0
LINE
  5
3DA
330
3D6
100
AcDbEntity
  8
LC-002-002-----0
 62
     7
370
    25
100
AcDbLine
 10
826.069004
 20
1085.74
 30
0.0
 11
826.102856
 21
1085.986677
 31
0.0
  0
LINE
  5
3DB
330
3D6
100
AcDbEntity
  8
LC-002-002-----0
 62
     7
370
    25
100
AcDbLine
 10
826.102856
 20
1085.986677
 30
0.0
 11
826.102856
 21
1085.986677
 31
0.0
  0
LINE
  5
3DC
330
3D6
100
AcDbEntity
  8
LC-002-002-----0
 62
     7
370
    25
100
AcDbLine
 10
826.102856
 20
1085.986677
 30
0.0
 11
826.208046
 21
1086.23683
 31
0.0
  0
LINE
  5
3DD
330
3D6
100
AcDbEntity
  8
LC-002-002-----0
 62
     7
370
    25
100
AcDbLine
 10
826.208046
 20
1086.23683
 30
0.0
 11
826.208046
 21
1086.23683
 31
0.0
  0
LINE
  5
3DE
330
3D6
100
AcDbEntity
  8
LC-002-002-----0
 62
     7
370
    25
100
AcDbLine
 10
826.208046
 20
1086.23683
 30
0.0
 11
826.381263
 21
1086.473077
 31
0.0
  0
LINE
  5
3DF
330
3D6
100
AcDbEntity
  8
LC-002-002-----0
 62
     7
370
    25
100
AcDbLine
 10
826.381263
 20
1086.473077
 30
0.0
 11
826.381263
 21
1086.473077
 31
0.0
  0
LINE
  5
3E0
330
3D6
100
AcDbEntity
  8
LC-002-002-----0
 62
     7
370
    25
100
AcDbLine
 10
826.381263
 20
1086.473077
 30
0.0
 11
826.606245
 21
1086.682644
 31
0.0
  0
LINE
  5
3E1
330
3D6
100
AcDbEntity
  8
LC-002-002-----0
 62
     7
370
    25
100
AcDbLine
 10
826.606245
 20
1086.682644
 30
0.0
 11
826.606245
 21
1086.682644
 31
0.0
  0
LINE
  5
3E2
330
3D6
100
AcDbEntity
  8
LC-002-002-----0
 62
     7
370
    25
100
AcDbLine
 10
826.606245
 20
1086.682644
 30
0.0
 11
826.870276
 21
1086.864883
 31
0.0
  0
LINE
  5
3E3
330
3D6
100
AcDbEntity
  8
LC-002-002-----0
 62
     7
370
    25
100
AcDbLine
 10
826.870276
 20
1086.864883
 30
0.0
 11
826.870276
 21
1086.864883
 31
0.0
  0
LINE
  5
3E4
330
3D6
100
AcDbEntity
  8
LC-002-002-----0
 62
     7
370
    25
100
AcDbLine
 10
826.870276
 20
1086.864883
 30
0.0
 11
827.173055
 21
1087.025133
 31
0.0
  0
LINE
  5
3E5
330
3D6
100
AcDbEntity
  8
LC-002-002-----0
 62
     7
370
    25
100
AcDbLine
 10
827.173055
 20
1087.025133
 30
0.0
 11
827.173055
 21
1087.025133
 31
0.0
  0
LINE
  5
3E6
330
3D6
100
AcDbEntity
  8
LC-002-002-----0
 62
     7
370
    25
100
AcDbLine
 10
827.173055
 20
1087.025133
 30
0.0
 11
827.517007
 21
1087.167444
 31
0.0
  0
LINE
  5
3E7
330
3D6
100
AcDbEntity
  8
LC-002-002-----0
 62
     7
370
    25
100
AcDbLine
 10
827.517007
 20
1087.167444
 30
0.0
 11
827.517007
 21
1087.167444
 31
0.0
  0
LINE
  5
3E8
330
3D6
100
AcDbEntity
  8
LC-002-002-----0
 62
     7
370
    25
100
AcDbLine
 10
827.517007
 20
1087.167444
 30
0.0
 11
827.90696
 21
1087.293325
 31
0.0
  0
LINE
  5
3E9
330
3D6
100
AcDbEntity
  8
LC-002-002-----0
 62
     7
370
    25
100
AcDbLine
 10
827.90696
 20
1087.293325
 30
0.0
 11
827.90696
 21
1087.293325
 31
0.0
  0
LINE
  5
3EA
330
3D6
100
AcDbEntity
  8
LC-002-002-----0
 62
     7
370
    25
100
AcDbLine
 10
827.90696
 20
1087.293325
 30
0.0
 11
828.346468
 21
1087.402739
 31
0.0
  0
LINE
  5
3EB
330
3D6
100
AcDbEntity
  8
LC-002-002-----0
 62
     7
370
    25
100
AcDbLine
 10
828.346468
 20
1087.402739
 30
0.0
 11
828.346468
 21
1087.402739
 31
0.0
  0
LINE
  5
3EC
330
3D6
100
AcDbEntity
  8
LC-002-002-----0
 62
     7
370
    25
100
AcDbLine
 10
828.346468
 20
1087.402739
 30
0.0
 11
828.835355
 21
1087.494914
 31
0.0
  0
LINE
  5
3ED
330
3D6
100
AcDbEntity
  8
LC-002-002-----0
 62
     7
370
    25
100
AcDbLine
 10
828.835355
 20
1087.494914
 30
0.0
 11
828.835355
 21
1087.494914
 31
0.0
  0
LINE
  5
3EE
330
3D6
100
AcDbEntity
  8
LC-002-002-----0
 62
     7
370
    25
100
AcDbLine
 10
828.835355
 20
1087.494914
 30
0.0
 11
829.369829
 21
1087.569104
 31
0.0
  0
LINE
  5
3EF
330
3D6
100
AcDbEntity
  8
LC-002-002-----0
 62
     7
370
    25
100
AcDbLine
 10
829.369829
 20
1087.569104
 30
0.0
 11
829.369829
 21
1087.569104
 31
0.0
  0
LINE
  5
3F0
330
3D6
100
AcDbEntity
  8
LC-002-002-----0
 62
     7
370
    25
100
AcDbLine
 10
829.369829
 20
1087.569104
 30
0.0
 11
829.944834
 21
1087.625862
 31
0.0
  0
LINE
  5
3F1
330
3D6
100
AcDbEntity
  8
LC-002-002-----0
 62
     7
370
    25
100
AcDbLine
 10
829.944834
 20
1087.625862
 30
0.0
 11
829.944834
 21
1087.625862
 31
0.0
  0
LINE
  5
3F2
330
3D6
100
AcDbEntity
  8
LC-002-002-----0
 62
     7
370
    25
100
AcDbLine
 10
829.944834
 20
1087.625862
 30
0.0
 11
830.55526
 21
1087.667055
 31
0.0
  0
LINE
  5
3F3
330
3D6
100
AcDbEntity
  8
LC-002-002-----0
 62
     7
370
    25
100
AcDbLine
 10
830.55526
 20
1087.667055
 30
0.0
 11
830.55526
 21
1087.667055
 31
0.0
  0
LINE
  5
3F4
330
3D6
100
AcDbEntity
  8
LC-002-002-----0
 62
     7
370
    25
100
AcDbLine
 10
830.55526
 20
1087.667055
 30
0.0
 11
831.19617
 21
1087.69507
 31
0.0
  0
LINE
  5
3F5
330
3D6
100
AcDbEntity
  8
LC-002-002-----0
 62
     7
370
    25
100
AcDbLine
 10
831.19617
 20
1087.69507
 30
0.0
 11
831.19617
 21
1087.69507
 31
0.0
  0
LINE
  5
3F6
330
3D6
100
AcDbEntity
  8
LC-002-002-----0
 62
     7
370
    25
100
AcDbLine
 10
831.19617
 20
1087.69507
 30
0.0
 11
831.862605
 21
1087.712881
 31
0.0
  0
LINE
  5
3F7
330
3D6
100
AcDbEntity
  8
LC-002-002-----0
 62
     7
370
    25
100
AcDbLine
 10
831.862605
 20
1087.712881
 30
0.0
 11
831.862605
 21
1087.712881
 31
0.0
  0
LINE
  5
3F8
330
3D6
100
AcDbEntity
  8
LC-002-002-----0
 62
     7
370
    25
100
AcDbLine
 10
831.862605
 20
1087.712881
 30
0.0
 11
832.549571
 21
1087.723451
 31
0.0
  0
LINE
  5
3F9
330
3D6
100
AcDbEntity
  8
LC-002-002-----0
 62
     7
370
    25
100
AcDbLine
 10
832.549571
 20
1087.723451
 30
0.0
 11
832.549571
 21
1087.723451
 31
0.0
  0
LINE
  5
3FA
330
3D6
100
AcDbEntity
  8
LC-002-002-----0
 62
     7
370
    25
100
AcDbLine
 10
832.549571
 20
1087.723451
 30
0.0
 11
833.252045
 21
1087.728514
 31
0.0
  0
LINE
  5
3FB
330
3D6
100
AcDbEntity
  8
LC-002-002-----0
 62
     7
370
    25
100
AcDbLine
 10
833.252045
 20
1087.728514
 30
0.0
 11
833.252045
 21
1087.728514
 31
0.0
  0
LINE
  5
3FC
330
3D6
100
AcDbEntity
  8
LC-002-002-----0
 62
     7
370
    25
100
AcDbLine
 10
833.252045
 20
1087.728514
 30
0.0
 11
833.964874
 21
1087.729805
 31
0.0
  0
LINE
  5
3FD
330
3D6
100
AcDbEntity
  8
LC-002-002-----0
 62
     7
370
    25
100
AcDbLine
 10
833.964874
 20
1087.729805
 30
0.0
 11
833.964874
 21
1087.729805
 31
0.0
  0
LINE
  5
3FE
330
3D6
100
AcDbEntity
  8
LC-002-002-----0
 62
     7
370
    25
100
AcDbLine
 10
833.964874
 20
1087.729805
 30
0.0
 11
834.682745
 21
1087.72863
 31
0.0
  0
LINE
  5
3FF
330
3D6
100
AcDbEntity
  8
LC-002-002-----0
 62
     7
370
    25
100
AcDbLine
 10
834.682745
 20
1087.72863
 30
0.0
 11
834.682745
 21
1087.72863
 31
0.0
  0
LINE
  5
400
330
3D6
100
AcDbEntity
  8
LC-002-002-----0
 62
     7
370
    25
100
AcDbLine
 10
834.682745
 20
1087.72863
 30
0.0
 11
835.400168
 21
1087.723735
 31
0.0
  0
LINE
  5
401
330
3D6
100
AcDbEntity
  8
LC-002-002-----0
 62
     7
370
    25
100
AcDbLine
 10
835.400168
 20
1087.723735
 30
0.0
 11
835.400168
 21
1087.723735
 31
0.0
  0
LINE
  5
402
330
3D6
100
AcDbEntity
  8
LC-002-002-----0
 62
     7
370
    25
100
AcDbLine
 10
835.400168
 20
1087.723735
 30
0.0
 11
836.111507
 21
1087.71336
 31
0.0
  0
LINE
  5
403
330
3D6
100
AcDbEntity
  8
LC-002-002-----0
 62
     7
370
    25
100
AcDbLine
 10
836.111507
 20
1087.71336
 30
0.0
 11
836.111507
 21
1087.71336
 31
0.0
  0
LINE
  5
404
330
3D6
100
AcDbEntity
  8
LC-002-002-----0
 62
     7
370
    25
100
AcDbLine
 10
836.111507
 20
1087.71336
 30
0.0
 11
836.810976
 21
1087.695783
 31
0.0
  0
LINE
  5
405
330
3D6
100
AcDbEntity
  8
LC-002-002-----0
 62
     7
370
    25
100
AcDbLine
 10
836.810976
 20
1087.695783
 30
0.0
 11
836.810976
 21
1087.695783
 31
0.0
  0
LINE
  5
406
330
3D6
100
AcDbEntity
  8
LC-002-002-----0
 62
     7
370
    25
100
AcDbLine
 10
836.810976
 20
1087.695783
 30
0.0
 11
837.492549
 21
1087.668088
 31
0.0
  0
LINE
  5
407
330
3D6
100
AcDbEntity
  8
LC-002-002-----0
 62
     7
370
    25
100
AcDbLine
 10
837.492549
 20
1087.668088
 30
0.0
 11
837.492549
 21
1087.668088
 31
0.0
  0
LINE
  5
408
330
3D6
100
AcDbEntity
  8
LC-002-002-----0
 62
     7
370
    25
100
AcDbLine
 10
837.492549
 20
1087.668088
 30
0.0
 11
838.14998
 21
1087.627293
 31
0.0
  0
LINE
  5
409
330
3D6
100
AcDbEntity
  8
LC-002-002-----0
 62
     7
370
    25
100
AcDbLine
 10
838.14998
 20
1087.627293
 30
0.0
 11
838.14998
 21
1087.627293
 31
0.0
  0
LINE
  5
40A
330
3D6
100
AcDbEntity
  8
LC-002-002-----0
 62
     7
370
    25
100
AcDbLine
 10
838.14998
 20
1087.627293
 30
0.0
 11
838.776804
 21
1087.57093
 31
0.0
  0
LINE
  5
40B
330
3D6
100
AcDbEntity
  8
LC-002-002-----0
 62
     7
370
    25
100
AcDbLine
 10
838.776804
 20
1087.57093
 30
0.0
 11
838.776804
 21
1087.57093
 31
0.0
  0
LINE
  5
40C
330
3D6
100
AcDbEntity
  8
LC-002-002-----0
 62
     7
370
    25
100
AcDbLine
 10
838.776804
 20
1087.57093
 30
0.0
 11
839.366165
 21
1087.497096
 31
0.0
  0
LINE
  5
40D
330
3D6
100
AcDbEntity
  8
LC-002-002-----0
 62
     7
370
    25
100
AcDbLine
 10
839.366165
 20
1087.497096
 30
0.0
 11
839.366165
 21
1087.497096
 31
0.0
  0
LINE
  5
40E
330
3D6
100
AcDbEntity
  8
LC-002-002-----0
 62
     7
370
    25
100
AcDbLine
 10
839.366165
 20
1087.497096
 30
0.0
 11
839.911064
 21
1087.405165
 31
0.0
  0
LINE
  5
40F
330
3D6
100
AcDbEntity
  8
LC-002-002-----0
 62
     7
370
    25
100
AcDbLine
 10
839.911064
 20
1087.405165
 30
0.0
 11
839.911064
 21
1087.405165
 31
0.0
  0
LINE
  5
410
330
3D6
100
AcDbEntity
  8
LC-002-002-----0
 62
     7
370
    25
100
AcDbLine
 10
839.911064
 20
1087.405165
 30
0.0
 11
840.405691
 21
1087.295888
 31
0.0
  0
LINE
  5
411
330
3D6
100
AcDbEntity
  8
LC-002-002-----0
 62
     7
370
    25
100
AcDbLine
 10
840.405691
 20
1087.295888
 30
0.0
 11
840.405691
 21
1087.295888
 31
0.0
  0
LINE
  5
412
330
3D6
100
AcDbEntity
  8
LC-002-002-----0
 62
     7
370
    25
100
AcDbLine
 10
840.405691
 20
1087.295888
 30
0.0
 11
840.84835
 21
1087.170036
 31
0.0
  0
LINE
  5
413
330
3D6
100
AcDbEntity
  8
LC-002-002-----0
 62
     7
370
    25
100
AcDbLine
 10
840.84835
 20
1087.170036
 30
0.0
 11
840.84835
 21
1087.170036
 31
0.0
  0
LINE
  5
414
330
3D6
100
AcDbEntity
  8
LC-002-002-----0
 62
     7
370
    25
100
AcDbLine
 10
840.84835
 20
1087.170036
 30
0.0
 11
841.241714
 21
1087.027657
 31
0.0
  0
LINE
  5
415
330
3D6
100
AcDbEntity
  8
LC-002-002-----0
 62
     7
370
    25
100
AcDbLine
 10
841.241714
 20
1087.027657
 30
0.0
 11
841.241714
 21
1087.027657
 31
0.0
  0
LINE
  5
416
330
3D6
100
AcDbEntity
  8
LC-002-002-----0
 62
     7
370
    25
100
AcDbLine
 10
841.241714
 20
1087.027657
 30
0.0
 11
841.590249
 21
1086.867223
 31
0.0
  0
LINE
  5
417
330
3D6
100
AcDbEntity
  8
LC-002-002-----0
 62
     7
370
    25
100
AcDbLine
 10
841.590249
 20
1086.867223
 30
0.0
 11
841.590249
 21
1086.867223
 31
0.0
  0
LINE
  5
418
330
3D6
100
AcDbEntity
  8
LC-002-002-----0
 62
     7
370
    25
100
AcDbLine
 10
841.590249
 20
1086.867223
 30
0.0
 11
841.895986
 21
1086.684771
 31
0.0
  0
LINE
  5
419
330
3D6
100
AcDbEntity
  8
LC-002-002-----0
 62
     7
370
    25
100
AcDbLine
 10
841.895986
 20
1086.684771
 30
0.0
 11
841.895986
 21
1086.684771
 31
0.0
  0
LINE
  5
41A
330
3D6
100
AcDbEntity
  8
LC-002-002-----0
 62
     7
370
    25
100
AcDbLine
 10
841.895986
 20
1086.684771
 30
0.0
 11
842.157853
 21
1086.474857
 31
0.0
  0
LINE
  5
41B
330
3D6
100
AcDbEntity
  8
LC-002-002-----0
 62
     7
370
    25
100
AcDbLine
 10
842.157853
 20
1086.474857
 30
0.0
 11
842.157853
 21
1086.474857
 31
0.0
  0
LINE
  5
41C
330
3D6
100
AcDbEntity
  8
LC-002-002-----0
 62
     7
370
    25
100
AcDbLine
 10
842.157853
 20
1086.474857
 30
0.0
 11
842.360383
 21
1086.23793
 31
0.0
  0
LINE
  5
41D
330
3D6
100
AcDbEntity
  8
LC-002-002-----0
 62
     7
370
    25
100
AcDbLine
 10
842.360383
 20
1086.23793
 30
0.0
 11
842.360383
 21
1086.23793
 31
0.0
  0
LINE
  5
41E
330
3D6
100
AcDbEntity
  8
LC-002-002-----0
 62
     7
370
    25
100
AcDbLine
 10
842.360383
 20
1086.23793
 30
0.0
 11
842.483745
 21
1085.987026
 31
0.0
  0
LINE
  5
41F
330
3D6
100
AcDbEntity
  8
LC-002-002-----0
 62
     7
370
    25
100
AcDbLine
 10
842.483745
 20
1085.987026
 30
0.0
 11
842.483745
 21
1085.987026
 31
0.0
  0
LINE
  5
420
330
3D6
100
AcDbEntity
  8
LC-002-002-----0
 62
     7
370
    25
100
AcDbLine
 10
842.483745
 20
1085.987026
 30
0.0
 11
842.523403
 21
1085.74
 31
0.0
  0
ENDBLK
  5
3D8
330
3D6
100
AcDbEntity
  8
0
100
AcDbBlockEnd
  0
BLOCK
  5
423
330
422
100
AcDbEntity
  8
0
100
AcDbBlockBegin
  2
POLY13
 70
     0
 71
     0
 10
0.0
 20
0.0
 30
0.0
  3
POLY13
  1

  4
POLY13
  0
LINE
  5
425
330
422
100
AcDbEntity
  8
LC-002-002-----0
 62
     7
370
    25
100
AcDbLine
 10
860.268799
 20
1075.49
 30
0.0
 11
860.268799
 21
1075.49
 31
0.0
  0
LINE
  5
426
330
422
100
AcDbEntity
  8
LC-002-002-----0
 62
     7
370
    25
100
AcDbLine
 10
860.268799
 20
1075.49
 30
0.0
 11
860.333762
 21
1075.665926
 31
0.0
  0
LINE
  5
427
330
422
100
AcDbEntity
  8
LC-002-002-----0
 62
     7
370
    25
100
AcDbLine
 10
860.333762
 20
1075.665926
 30
0.0
 11
860.333762
 21
1075.665926
 31
0.0
  0
LINE
  5
428
330
422
100
AcDbEntity
  8
LC-002-002-----0
 62
     7
370
    25
100
AcDbLine
 10
860.333762
 20
1075.665926
 30
0.0
 11
860.39478
 21
1075.832613
 31
0.0
  0
LINE
  5
429
330
422
100
AcDbEntity
  8
LC-002-002-----0
 62
     7
370
    25
100
AcDbLine
 10
860.39478
 20
1075.832613
 30
0.0
 11
860.39478
 21
1075.832613
 31
0.0
  0
LINE
  5
42A
330
422
100
AcDbEntity
  8
LC-002-002-----0
 62
     7
370
    25
100
AcDbLine
 10
860.39478
 20
1075.832613
 30
0.0
 11
860.451921
 21
1075.99
 31
0.0
  0
ENDBLK
  5
424
330
422
100
AcDbEntity
  8
0
100
AcDbBlockEnd
  0
BLOCK
  5
42D
330
42C
100
AcDbEntity
  8
0
100
AcDbBlockBegin
  2
POLY14
 70
     0
 71
     0
 10
0.0
 20
0.0
 30
0.0
  3
POLY14
  1

  4
POLY14
  0
LINE
  5
42F
330
42C
100
AcDbEntity
  8
LC-002-002-----0
 62
     7
370
    25
100
AcDbLine
 10
858.65131
 20
1075.99
 30
0.0
 11
858.65131
 21
1075.99
 31
0.0
  0
LINE
  5
430
330
42C
100
AcDbEntity
  8
LC-002-002-----0
 62
     7
370
    25
100
AcDbLine
 10
858.65131
 20
1075.99
 30
0.0
 11
859.045919
 21
1075.832628
 31
0.0
  0
LINE
  5
431
330
42C
100
AcDbEntity
  8
LC-002-002-----0
 62
     7
370
    25
100
AcDbLine
 10
859.045919
 20
1075.832628
 30
0.0
 11
859.045919
 21
1075.832628
 31
0.0
  0
LINE
  5
432
330
42C
100
AcDbEntity
  8
LC-002-002-----0
 62
     7
370
    25
100
AcDbLine
 10
859.045919
 20
1075.832628
 30
0.0
 11
859.441721
 21
1075.665942
 31
0.0
  0
LINE
  5
433
330
42C
100
AcDbEntity
  8
LC-002-002-----0
 62
     7
370
    25
100
AcDbLine
 10
859.441721
 20
1075.665942
 30
0.0
 11
859.441721
 21
1075.665942
 31
0.0
  0
LINE
  5
434
330
42C
100
AcDbEntity
  8
LC-002-002-----0
 62
     7
370
    25
100
AcDbLine
 10
859.441721
 20
1075.665942
 30
0.0
 11
859.838557
 21
1075.49
 31
0.0
  0
ENDBLK
  5
42E
330
42C
100
AcDbEntity
  8
0
100
AcDbBlockEnd
  0
BLOCK
  5
437
330
436
100
AcDbEntity
  8
0
100
AcDbBlockBegin
  2
POLY15
 70
     0
 71
     0
 10
0.0
 20
0.0
 30
0.0
  3
POLY15
  1

  4
POLY15
  0
LINE
  5
439
330
436
100
AcDbEntity
  8
LC-002-002-----0
 62
     7
370
    25
100
AcDbLine
 10
843.384158
 20
1075.49
 30
0.0
 11
843.384158
 21
1075.49
 31
0.0
  0
LINE
  5
43A
330
436
100
AcDbEntity
  8
LC-002-002-----0
 62
     7
370
    25
100
AcDbLine
 10
843.384158
 20
1075.49
 30
0.0
 11
843.84602
 21
1075.665952
 31
0.0
  0
LINE
  5
43B
330
436
100
AcDbEntity
  8
LC-002-002-----0
 62
     7
370
    25
100
AcDbLine
 10
843.84602
 20
1075.665952
 30
0.0
 11
843.84602
 21
1075.665952
 31
0.0
  0
LINE
  5
43C
330
436
100
AcDbEntity
  8
LC-002-002-----0
 62
     7
370
    25
100
AcDbLine
 10
843.84602
 20
1075.665952
 30
0.0
 11
844.302874
 21
1075.832638
 31
0.0
  0
LINE
  5
43D
330
436
100
AcDbEntity
  8
LC-002-002-----0
 62
     7
370
    25
100
AcDbLine
 10
844.302874
 20
1075.832638
 30
0.0
 11
844.302874
 21
1075.832638
 31
0.0
  0
LINE
  5
43E
330
436
100
AcDbEntity
  8
LC-002-002-----0
 62
     7
370
    25
100
AcDbLine
 10
844.302874
 20
1075.832638
 30
0.0
 11
844.754626
 21
1075.99
 31
0.0
  0
ENDBLK
  5
438
330
436
100
AcDbEntity
  8
0
100
AcDbBlockEnd
  0
BLOCK
  5
441
330
440
100
AcDbEntity
  8
0
100
AcDbBlockBegin
  2
POLY16
 70
     0
 71
     0
 10
0.0
 20
0.0
 30
0.0
  3
POLY16
  1

  4
POLY16
  0
LINE
  5
443
330
440
100
AcDbEntity
  8
LC-002-002-----0
 62
     7
370
    25
100
AcDbLine
 10
859.838557
 20
1085.74
 30
0.0
 11
859.838557
 21
1085.74
 31
0.0
  0
LINE
  5
444
330
440
100
AcDbEntity
  8
LC-002-002-----0
 62
     7
370
    25
100
AcDbLine
 10
859.838557
 20
1085.74
 30
0.0
 11
859.804705
 21
1085.986677
 31
0.0
  0
LINE
  5
445
330
440
100
AcDbEntity
  8
LC-002-002-----0
 62
     7
370
    25
100
AcDbLine
 10
859.804705
 20
1085.986677
 30
0.0
 11
859.804705
 21
1085.986677
 31
0.0
  0
LINE
  5
446
330
440
100
AcDbEntity
  8
LC-002-002-----0
 62
     7
370
    25
100
AcDbLine
 10
859.804705
 20
1085.986677
 30
0.0
 11
859.699515
 21
1086.23683
 31
0.0
  0
LINE
  5
447
330
440
100
AcDbEntity
  8
LC-002-002-----0
 62
     7
370
    25
100
AcDbLine
 10
859.699515
 20
1086.23683
 30
0.0
 11
859.699515
 21
1086.23683
 31
0.0
  0
LINE
  5
448
330
440
100
AcDbEntity
  8
LC-002-002-----0
 62
     7
370
    25
100
AcDbLine
 10
859.699515
 20
1086.23683
 30
0.0
 11
859.526297
 21
1086.473077
 31
0.0
  0
LINE
  5
449
330
440
100
AcDbEntity
  8
LC-002-002-----0
 62
     7
370
    25
100
AcDbLine
 10
859.526297
 20
1086.473077
 30
0.0
 11
859.526297
 21
1086.473077
 31
0.0
  0
LINE
  5
44A
330
440
100
AcDbEntity
  8
LC-002-002-----0
 62
     7
370
    25
100
AcDbLine
 10
859.526297
 20
1086.473077
 30
0.0
 11
859.301316
 21
1086.682644
 31
0.0
  0
LINE
  5
44B
330
440
100
AcDbEntity
  8
LC-002-002-----0
 62
     7
370
    25
100
AcDbLine
 10
859.301316
 20
1086.682644
 30
0.0
 11
859.301316
 21
1086.682644
 31
0.0
  0
LINE
  5
44C
330
440
100
AcDbEntity
  8
LC-002-002-----0
 62
     7
370
    25
100
AcDbLine
 10
859.301316
 20
1086.682644
 30
0.0
 11
859.037285
 21
1086.864883
 31
0.0
  0
LINE
  5
44D
330
440
100
AcDbEntity
  8
LC-002-002-----0
 62
     7
370
    25
100
AcDbLine
 10
859.037285
 20
1086.864883
 30
0.0
 11
859.037285
 21
1086.864883
 31
0.0
  0
LINE
  5
44E
330
440
100
AcDbEntity
  8
LC-002-002-----0
 62
     7
370
    25
100
AcDbLine
 10
859.037285
 20
1086.864883
 30
0.0
 11
858.734506
 21
1087.025133
 31
0.0
  0
LINE
  5
44F
330
440
100
AcDbEntity
  8
LC-002-002-----0
 62
     7
370
    25
100
AcDbLine
 10
858.734506
 20
1087.025133
 30
0.0
 11
858.734506
 21
1087.025133
 31
0.0
  0
LINE
  5
450
330
440
100
AcDbEntity
  8
LC-002-002-----0
 62
     7
370
    25
100
AcDbLine
 10
858.734506
 20
1087.025133
 30
0.0
 11
858.390554
 21
1087.167444
 31
0.0
  0
LINE
  5
451
330
440
100
AcDbEntity
  8
LC-002-002-----0
 62
     7
370
    25
100
AcDbLine
 10
858.390554
 20
1087.167444
 30
0.0
 11
858.390554
 21
1087.167444
 31
0.0
  0
LINE
  5
452
330
440
100
AcDbEntity
  8
LC-002-002-----0
 62
     7
370
    25
100
AcDbLine
 10
858.390554
 20
1087.167444
 30
0.0
 11
858.000601
 21
1087.293325
 31
0.0
  0
LINE
  5
453
330
440
100
AcDbEntity
  8
LC-002-002-----0
 62
     7
370
    25
100
AcDbLine
 10
858.000601
 20
1087.293325
 30
0.0
 11
858.000601
 21
1087.293325
 31
0.0
  0
LINE
  5
454
330
440
100
AcDbEntity
  8
LC-002-002-----0
 62
     7
370
    25
100
AcDbLine
 10
858.000601
 20
1087.293325
 30
0.0
 11
857.561093
 21
1087.402739
 31
0.0
  0
LINE
  5
455
330
440
100
AcDbEntity
  8
LC-002-002-----0
 62
     7
370
    25
100
AcDbLine
 10
857.561093
 20
1087.402739
 30
0.0
 11
857.561093
 21
1087.402739
 31
0.0
  0
LINE
  5
456
330
440
100
AcDbEntity
  8
LC-002-002-----0
 62
     7
370
    25
100
AcDbLine
 10
857.561093
 20
1087.402739
 30
0.0
 11
857.072206
 21
1087.494914
 31
0.0
  0
LINE
  5
457
330
440
100
AcDbEntity
  8
LC-002-002-----0
 62
     7
370
    25
100
AcDbLine
 10
857.072206
 20
1087.494914
 30
0.0
 11
857.072206
 21
1087.494914
 31
0.0
  0
LINE
  5
458
330
440
100
AcDbEntity
  8
LC-002-002-----0
 62
     7
370
    25
100
AcDbLine
 10
857.072206
 20
1087.494914
 30
0.0
 11
856.537732
 21
1087.569104
 31
0.0
  0
LINE
  5
459
330
440
100
AcDbEntity
  8
LC-002-002-----0
 62
     7
370
    25
100
AcDbLine
 10
856.537732
 20
1087.569104
 30
0.0
 11
856.537732
 21
1087.569104
 31
0.0
  0
LINE
  5
45A
330
440
100
AcDbEntity
  8
LC-002-002-----0
 62
     7
370
    25
100
AcDbLine
 10
856.537732
 20
1087.569104
 30
0.0
 11
855.962727
 21
1087.625862
 31
0.0
  0
LINE
  5
45B
330
440
100
AcDbEntity
  8
LC-002-002-----0
 62
     7
370
    25
100
AcDbLine
 10
855.962727
 20
1087.625862
 30
0.0
 11
855.962727
 21
1087.625862
 31
0.0
  0
LINE
  5
45C
330
440
100
AcDbEntity
  8
LC-002-002-----0
 62
     7
370
    25
100
AcDbLine
 10
855.962727
 20
1087.625862
 30
0.0
 11
855.3523
 21
1087.667055
 31
0.0
  0
LINE
  5
45D
330
440
100
AcDbEntity
  8
LC-002-002-----0
 62
     7
370
    25
100
AcDbLine
 10
855.3523
 20
1087.667055
 30
0.0
 11
855.3523
 21
1087.667055
 31
0.0
  0
LINE
  5
45E
330
440
100
AcDbEntity
  8
LC-002-002-----0
 62
     7
370
    25
100
AcDbLine
 10
855.3523
 20
1087.667055
 30
0.0
 11
854.711391
 21
1087.69507
 31
0.0
  0
LINE
  5
45F
330
440
100
AcDbEntity
  8
LC-002-002-----0
 62
     7
370
    25
100
AcDbLine
 10
854.711391
 20
1087.69507
 30
0.0
 11
854.711391
 21
1087.69507
 31
0.0
  0
LINE
  5
460
330
440
100
AcDbEntity
  8
LC-002-002-----0
 62
     7
370
    25
100
AcDbLine
 10
854.711391
 20
1087.69507
 30
0.0
 11
854.044956
 21
1087.712881
 31
0.0
  0
LINE
  5
461
330
440
100
AcDbEntity
  8
LC-002-002-----0
 62
     7
370
    25
100
AcDbLine
 10
854.044956
 20
1087.712881
 30
0.0
 11
854.044956
 21
1087.712881
 31
0.0
  0
LINE
  5
462
330
440
100
AcDbEntity
  8
LC-002-002-----0
 62
     7
370
    25
100
AcDbLine
 10
854.044956
 20
1087.712881
 30
0.0
 11
853.35799
 21
1087.723451
 31
0.0
  0
LINE
  5
463
330
440
100
AcDbEntity
  8
LC-002-002-----0
 62
     7
370
    25
100
AcDbLine
 10
853.35799
 20
1087.723451
 30
0.0
 11
853.35799
 21
1087.723451
 31
0.0
  0
LINE
  5
464
330
440
100
AcDbEntity
  8
LC-002-002-----0
 62
     7
370
    25
100
AcDbLine
 10
853.35799
 20
1087.723451
 30
0.0
 11
852.655516
 21
1087.728514
 31
0.0
  0
LINE
  5
465
330
440
100
AcDbEntity
  8
LC-002-002-----0
 62
     7
370
    25
100
AcDbLine
 10
852.655516
 20
1087.728514
 30
0.0
 11
852.655516
 21
1087.728514
 31
0.0
  0
LINE
  5
466
330
440
100
AcDbEntity
  8
LC-002-002-----0
 62
     7
370
    25
100
AcDbLine
 10
852.655516
 20
1087.728514
 30
0.0
 11
851.942687
 21
1087.729805
 31
0.0
  0
LINE
  5
467
330
440
100
AcDbEntity
  8
LC-002-002-----0
 62
     7
370
    25
100
AcDbLine
 10
851.942687
 20
1087.729805
 30
0.0
 11
851.942687
 21
1087.729805
 31
0.0
  0
LINE
  5
468
330
440
100
AcDbEntity
  8
LC-002-002-----0
 62
     7
370
    25
100
AcDbLine
 10
851.942687
 20
1087.729805
 30
0.0
 11
851.224816
 21
1087.72863
 31
0.0
  0
LINE
  5
469
330
440
100
AcDbEntity
  8
LC-002-002-----0
 62
     7
370
    25
100
AcDbLine
 10
851.224816
 20
1087.72863
 30
0.0
 11
851.224816
 21
1087.72863
 31
0.0
  0
LINE
  5
46A
330
440
100
AcDbEntity
  8
LC-002-002-----0
 62
     7
370
    25
100
AcDbLine
 10
851.224816
 20
1087.72863
 30
0.0
 11
850.507392
 21
1087.723735
 31
0.0
  0
LINE
  5
46B
330
440
100
AcDbEntity
  8
LC-002-002-----0
 62
     7
370
    25
100
AcDbLine
 10
850.507392
 20
1087.723735
 30
0.0
 11
850.507392
 21
1087.723735
 31
0.0
  0
LINE
  5
46C
330
440
100
AcDbEntity
  8
LC-002-002-----0
 62
     7
370
    25
100
AcDbLine
 10
850.507392
 20
1087.723735
 30
0.0
 11
849.796054
 21
1087.71336
 31
0.0
  0
LINE
  5
46D
330
440
100
AcDbEntity
  8
LC-002-002-----0
 62
     7
370
    25
100
AcDbLine
 10
849.796054
 20
1087.71336
 30
0.0
 11
849.796054
 21
1087.71336
 31
0.0
  0
LINE
  5
46E
330
440
100
AcDbEntity
  8
LC-002-002-----0
 62
     7
370
    25
100
AcDbLine
 10
849.796054
 20
1087.71336
 30
0.0
 11
849.096585
 21
1087.695783
 31
0.0
  0
LINE
  5
46F
330
440
100
AcDbEntity
  8
LC-002-002-----0
 62
     7
370
    25
100
AcDbLine
 10
849.096585
 20
1087.695783
 30
0.0
 11
849.096585
 21
1087.695783
 31
0.0
  0
LINE
  5
470
330
440
100
AcDbEntity
  8
LC-002-002-----0
 62
     7
370
    25
100
AcDbLine
 10
849.096585
 20
1087.695783
 30
0.0
 11
848.415012
 21
1087.668088
 31
0.0
  0
LINE
  5
471
330
440
100
AcDbEntity
  8
LC-002-002-----0
 62
     7
370
    25
100
AcDbLine
 10
848.415012
 20
1087.668088
 30
0.0
 11
848.415012
 21
1087.668088
 31
0.0
  0
LINE
  5
472
330
440
100
AcDbEntity
  8
LC-002-002-----0
 62
     7
370
    25
100
AcDbLine
 10
848.415012
 20
1087.668088
 30
0.0
 11
847.757581
 21
1087.627293
 31
0.0
  0
LINE
  5
473
330
440
100
AcDbEntity
  8
LC-002-002-----0
 62
     7
370
    25
100
AcDbLine
 10
847.757581
 20
1087.627293
 30
0.0
 11
847.757581
 21
1087.627293
 31
0.0
  0
LINE
  5
474
330
440
100
AcDbEntity
  8
LC-002-002-----0
 62
     7
370
    25
100
AcDbLine
 10
847.757581
 20
1087.627293
 30
0.0
 11
847.130757
 21
1087.57093
 31
0.0
  0
LINE
  5
475
330
440
100
AcDbEntity
  8
LC-002-002-----0
 62
     7
370
    25
100
AcDbLine
 10
847.130757
 20
1087.57093
 30
0.0
 11
847.130757
 21
1087.57093
 31
0.0
  0
LINE
  5
476
330
440
100
AcDbEntity
  8
LC-002-002-----0
 62
     7
370
    25
100
AcDbLine
 10
847.130757
 20
1087.57093
 30
0.0
 11
846.541396
 21
1087.497096
 31
0.0
  0
LINE
  5
477
330
440
100
AcDbEntity
  8
LC-002-002-----0
 62
     7
370
    25
100
AcDbLine
 10
846.541396
 20
1087.497096
 30
0.0
 11
846.541396
 21
1087.497096
 31
0.0
  0
LINE
  5
478
330
440
100
AcDbEntity
  8
LC-002-002-----0
 62
     7
370
    25
100
AcDbLine
 10
846.541396
 20
1087.497096
 30
0.0
 11
845.996497
 21
1087.405165
 31
0.0
  0
LINE
  5
479
330
440
100
AcDbEntity
  8
LC-002-002-----0
 62
     7
370
    25
100
AcDbLine
 10
845.996497
 20
1087.405165
 30
0.0
 11
845.996497
 21
1087.405165
 31
0.0
  0
LINE
  5
47A
330
440
100
AcDbEntity
  8
LC-002-002-----0
 62
     7
370
    25
100
AcDbLine
 10
845.996497
 20
1087.405165
 30
0.0
 11
845.501869
 21
1087.295888
 31
0.0
  0
LINE
  5
47B
330
440
100
AcDbEntity
  8
LC-002-002-----0
 62
     7
370
    25
100
AcDbLine
 10
845.501869
 20
1087.295888
 30
0.0
 11
845.501869
 21
1087.295888
 31
0.0
  0
LINE
  5
47C
330
440
100
AcDbEntity
  8
LC-002-002-----0
 62
     7
370
    25
100
AcDbLine
 10
845.501869
 20
1087.295888
 30
0.0
 11
845.059211
 21
1087.170036
 31
0.0
  0
LINE
  5
47D
330
440
100
AcDbEntity
  8
LC-002-002-----0
 62
     7
370
    25
100
AcDbLine
 10
845.059211
 20
1087.170036
 30
0.0
 11
845.059211
 21
1087.170036
 31
0.0
  0
LINE
  5
47E
330
440
100
AcDbEntity
  8
LC-002-002-----0
 62
     7
370
    25
100
AcDbLine
 10
845.059211
 20
1087.170036
 30
0.0
 11
844.665847
 21
1087.027657
 31
0.0
  0
LINE
  5
47F
330
440
100
AcDbEntity
  8
LC-002-002-----0
 62
     7
370
    25
100
AcDbLine
 10
844.665847
 20
1087.027657
 30
0.0
 11
844.665847
 21
1087.027657
 31
0.0
  0
LINE
  5
480
330
440
100
AcDbEntity
  8
LC-002-002-----0
 62
     7
370
    25
100
AcDbLine
 10
844.665847
 20
1087.027657
 30
0.0
 11
844.317312
 21
1086.867223
 31
0.0
  0
LINE
  5
481
330
440
100
AcDbEntity
  8
LC-002-002-----0
 62
     7
370
    25
100
AcDbLine
 10
844.317312
 20
1086.867223
 30
0.0
 11
844.317312
 21
1086.867223
 31
0.0
  0
LINE
  5
482
330
440
100
AcDbEntity
  8
LC-002-002-----0
 62
     7
370
    25
100
AcDbLine
 10
844.317312
 20
1086.867223
 30
0.0
 11
844.011575
 21
1086.684771
 31
0.0
  0
LINE
  5
483
330
440
100
AcDbEntity
  8
LC-002-002-----0
 62
     7
370
    25
100
AcDbLine
 10
844.011575
 20
1086.684771
 30
0.0
 11
844.011575
 21
1086.684771
 31
0.0
  0
LINE
  5
484
330
440
100
AcDbEntity
  8
LC-002-002-----0
 62
     7
370
    25
100
AcDbLine
 10
844.011575
 20
1086.684771
 30
0.0
 11
843.749708
 21
1086.474857
 31
0.0
  0
LINE
  5
485
330
440
100
AcDbEntity
  8
LC-002-002-----0
 62
     7
370
    25
100
AcDbLine
 10
843.749708
 20
1086.474857
 30
0.0
 11
843.749708
 21
1086.474857
 31
0.0
  0
LINE
  5
486
330
440
100
AcDbEntity
  8
LC-002-002-----0
 62
     7
370
    25
100
AcDbLine
 10
843.749708
 20
1086.474857
 30
0.0
 11
843.547178
 21
1086.23793
 31
0.0
  0
LINE
  5
487
330
440
100
AcDbEntity
  8
LC-002-002-----0
 62
     7
370
    25
100
AcDbLine
 10
843.547178
 20
1086.23793
 30
0.0
 11
843.547178
 21
1086.23793
 31
0.0
  0
LINE
  5
488
330
440
100
AcDbEntity
  8
LC-002-002-----0
 62
     7
370
    25
100
AcDbLine
 10
843.547178
 20
1086.23793
 30
0.0
 11
843.423816
 21
1085.987026
 31
0.0
  0
LINE
  5
489
330
440
100
AcDbEntity
  8
LC-002-002-----0
 62
     7
370
    25
100
AcDbLine
 10
843.423816
 20
1085.987026
 30
0.0
 11
843.423816
 21
1085.987026
 31
0.0
  0
LINE
  5
48A
330
440
100
AcDbEntity
  8
LC-002-002-----0
 62
     7
370
    25
100
AcDbLine
 10
843.423816
 20
1085.987026
 30
0.0
 11
843.384158
 21
1085.74
 31
0.0
  0
ENDBLK
  5
442
330
440
100
AcDbEntity
  8
0
100
AcDbBlockEnd
  0
BLOCK
  5
496
330
495
100
AcDbEntity
  8
0
100
AcDbBlockBegin
  2
LCDIM6
 70
     0
 71
     0
 10
0.0
 20
0.0
 30
0.0
  3
LCDIM6
  1

  4
LCDIM6
  0
LINE
  5
498
330
495
100
AcDbEntity
  8
LC-007-003-MTH-0
 62
     7
370
    25
100
AcDbLine
 10
762.896759
 20
1063.24
 30
0.0
 11
762.896759
 21
685.0
 31
0.0
  0
LINE
  5
499
330
495
100
AcDbEntity
  8
LC-007-003-MTH-0
 62
     7
370
    25
100
AcDbLine
 10
1075.20378
 20
764.24
 30
0.0
 11
1075.20378
 21
685.0
 31
0.0
  0
LINE
  5
49A
330
495
100
AcDbEntity
  8
LC-008-003-MTG-0
 62
     7
370
    25
100
AcDbLine
 10
762.896759
 20
700.0
 30
0.0
 11
1075.20378
 21
700.0
 31
0.0
  0
LINE
  5
49B
330
495
100
AcDbEntity
  8
LC-009-003-----0
 62
     7
370
    25
100
AcDbLine
 10
787.682881
 20
703.263155
 30
0.0
 11
762.896759
 21
700.0
 31
0.0
  0
LINE
  5
49C
330
495
100
AcDbEntity
  8
LC-009-003-----0
 62
     7
370
    25
100
AcDbLine
 10
762.896759
 20
700.0
 30
0.0
 11
787.682881
 21
696.736845
 31
0.0
  0
LINE
  5
49D
330
495
100
AcDbEntity
  8
LC-009-003-----0
 62
     7
370
    25
100
AcDbLine
 10
787.682881
 20
696.736845
 30
0.0
 11
787.682881
 21
703.263155
 31
0.0
  0
LINE
  5
49E
330
495
100
AcDbEntity
  8
LC-009-003-----0
 62
     7
370
    25
100
AcDbLine
 10
787.738489
 20
702.414735
 30
0.0
 11
769.396759
 21
700.0
 31
0.0
  0
LINE
  5
49F
330
495
100
AcDbEntity
  8
LC-009-003-----0
 62
     7
370
    25
100
AcDbLine
 10
769.396759
 20
700.0
 30
0.0
 11
787.738489
 21
697.585265
 31
0.0
  0
LINE
  5
4A0
330
495
100
AcDbEntity
  8
LC-009-003-----0
 62
     7
370
    25
100
AcDbLine
 10
787.794097
 20
701.566314
 30
0.0
 11
775.896759
 21
700.0
 31
0.0
  0
LINE
  5
4A1
330
495
100
AcDbEntity
  8
LC-009-003-----0
 62
     7
370
    25
100
AcDbLine
 10
775.896759
 20
700.0
 30
0.0
 11
787.794097
 21
698.433686
 31
0.0
  0
LINE
  5
4A2
330
495
100
AcDbEntity
  8
LC-009-003-----0
 62
     7
370
    25
100
AcDbLine
 10
787.849706
 20
700.717894
 30
0.0
 11
782.396759
 21
700.0
 31
0.0
  0
LINE
  5
4A3
330
495
100
AcDbEntity
  8
LC-009-003-----0
 62
     7
370
    25
100
AcDbLine
 10
782.396759
 20
700.0
 30
0.0
 11
787.849706
 21
699.282106
 31
0.0
  0
LINE
  5
4A4
330
495
100
AcDbEntity
  8
LC-009-003-----0
 62
     7
370
    25
100
AcDbLine
 10
1050.417659
 20
696.736845
 30
0.0
 11
1075.20378
 21
700.0
 31
0.0
  0
LINE
  5
4A5
330
495
100
AcDbEntity
  8
LC-009-003-----0
 62
     7
370
    25
100
AcDbLine
 10
1075.20378
 20
700.0
 30
0.0
 11
1050.417659
 21
703.263155
 31
0.0
  0
LINE
  5
4A6
330
495
100
AcDbEntity
  8
LC-009-003-----0
 62
     7
370
    25
100
AcDbLine
 10
1050.417659
 20
703.263155
 30
0.0
 11
1050.417659
 21
696.736845
 31
0.0
  0
LINE
  5
4A7
330
495
100
AcDbEntity
  8
LC-009-003-----0
 62
     7
370
    25
100
AcDbLine
 10
1050.36205
 20
697.585265
 30
0.0
 11
1068.70378
 21
700.0
 31
0.0
  0
LINE
  5
4A8
330
495
100
AcDbEntity
  8
LC-009-003-----0
 62
     7
370
    25
100
AcDbLine
 10
1068.70378
 20
700.0
 30
0.0
 11
1050.36205
 21
702.414735
 31
0.0
  0
LINE
  5
4A9
330
495
100
AcDbEntity
  8
LC-009-003-----0
 62
     7
370
    25
100
AcDbLine
 10
1050.306442
 20
698.433686
 30
0.0
 11
1062.20378
 21
700.0
 31
0.0
  0
LINE
  5
4AA
330
495
100
AcDbEntity
  8
LC-009-003-----0
 62
     7
370
    25
100
AcDbLine
 10
1062.20378
 20
700.0
 30
0.0
 11
1050.306442
 21
701.566314
 31
0.0
  0
LINE
  5
4AB
330
495
100
AcDbEntity
  8
LC-009-003-----0
 62
     7
370
    25
100
AcDbLine
 10
1050.250833
 20
699.282106
 30
0.0
 11
1055.70378
 21
700.0
 31
0.0
  0
LINE
  5
4AC
330
495
100
AcDbEntity
  8
LC-009-003-----0
 62
     7
370
    25
100
AcDbLine
 10
1055.70378
 20
700.0
 30
0.0
 11
1050.250833
 21
700.717894
 31
0.0
  0
TEXT
  5
4AD
330
495
100
AcDbEntity
  8
LC-009-003-----0
 62
     7
370
    25
100
AcDbText
 10
888.262192
 20
715.0
 30
0.0
 40
25.0
  1
312
 41
0.8
  7
LCTX0-400-0-0pDIN-Schrift
 72
     1
 11
916.833621
 21
715.0
 31
0.0
100
AcDbText
  0
ENDBLK
  5
497
330
495
100
AcDbEntity
  8
0
100
AcDbBlockEnd
  0
BLOCK
  5
4B0
330
4AF
100
AcDbEntity
  8
0
100
AcDbBlockBegin
  2
*X124
 70
     1
 71
     0
 10
0.0
 20
0.0
 30
0.0
  3
*X124
  1

  4
*X1
  0
LINE
  5
4B3
330
4AF
100
AcDbEntity
  8
LC-012-005-----0
 62
     7
370
    25
100
AcDbLine
 10
546.090608
 20
1734.03
 30
0.0
 11
564.269924
 21
1752.209316
 31
0.0
  0
LINE
  5
4B4
330
4AF
100
AcDbEntity
  8
LC-012-005-----0
 62
     7
370
    25
100
AcDbLine
 10
517.806336
 20
1734.03
 30
0.0
 11
555.806336
 21
1772.03
 31
0.0
  0
LINE
  5
4B5
330
4AF
100
AcDbEntity
  8
LC-012-005-----0
 62
     7
370
    25
100
AcDbLine
 10
497.427815
 20
1741.93575
 30
0.0
 11
527.522065
 21
1772.03
 31
0.0
  0
LINE
  5
4B6
330
4AF
100
AcDbEntity
  8
LC-012-005-----0
 62
     7
370
    25
100
AcDbLine
 10
497.427815
 20
1770.220021
 30
0.0
 11
499.237794
 21
1772.03
 31
0.0
  0
ENDBLK
  5
4B1
330
4AF
100
AcDbEntity
  8
0
100
AcDbBlockEnd
  0
BLOCK
  5
4BF
330
4BE
100
AcDbEntity
  8
0
100
AcDbBlockBegin
  2
*X225
 70
     1
 71
     0
 10
0.0
 20
0.0
 30
0.0
  3
*X225
  1

  4
*X2
  0
LINE
  5
4C1
330
4BE
100
AcDbEntity
  8
LC-012-005-----0
 62
     7
370
    25
100
AcDbLine
 10
51.372308
 20
1758.821051
 30
0.0
 11
76.16336
 21
1734.03
 31
0.0
  0
LINE
  5
4C2
330
4BE
100
AcDbEntity
  8
LC-012-005-----0
 62
     7
370
    25
100
AcDbLine
 10
66.447631
 20
1772.03
 30
0.0
 11
104.447631
 21
1734.03
 31
0.0
  0
LINE
  5
4C3
330
4BE
100
AcDbEntity
  8
LC-012-005-----0
 62
     7
370
    25
100
AcDbLine
 10
94.731902
 20
1772.03
 30
0.0
 11
117.427815
 21
1749.334088
 31
0.0
  0
ENDBLK
  5
4C0
330
4BE
100
AcDbEntity
  8
0
100
AcDbBlockEnd
  0
BLOCK
  5
4C8
330
4C7
100
AcDbEntity
  8
0
100
AcDbBlockBegin
  2
LCDIM7
 70
     0
 71
     0
 10
0.0
 20
0.0
 30
0.0
  3
LCDIM7
  1

  4
LCDIM7
  0
LINE
  5
4CA
330
4C7
100
AcDbEntity
  8
LC-007-003-MTH-0
 62
     7
370
    25
100
AcDbLine
 10
107.427815
 20
1606.02774
 30
0.0
 11
107.427815
 21
1385.0
 31
0.0
  0
LINE
  5
4CB
330
4C7
100
AcDbEntity
  8
LC-007-003-MTH-0
 62
     7
370
    25
100
AcDbLine
 10
507.427815
 20
1606.02774
 30
0.0
 11
507.427815
 21
1385.0
 31
0.0
  0
LINE
  5
4CC
330
4C7
100
AcDbEntity
  8
LC-008-003-MTG-0
 62
     7
370
    25
100
AcDbLine
 10
107.427815
 20
1400.0
 30
0.0
 11
507.427815
 21
1400.0
 31
0.0
  0
LINE
  5
4CD
330
4C7
100
AcDbEntity
  8
LC-009-003-----0
 62
     7
370
    25
100
AcDbLine
 10
132.213937
 20
1403.263155
 30
0.0
 11
107.427815
 21
1400.0
 31
0.0
  0
LINE
  5
4CE
330
4C7
100
AcDbEntity
  8
LC-009-003-----0
 62
     7
370
    25
100
AcDbLine
 10
107.427815
 20
1400.0
 30
0.0
 11
132.213937
 21
1396.736845
 31
0.0
  0
LINE
  5
4CF
330
4C7
100
AcDbEntity
  8
LC-009-003-----0
 62
     7
370
    25
100
AcDbLine
 10
132.213937
 20
1396.736845
 30
0.0
 11
132.213937
 21
1403.263155
 31
0.0
  0
LINE
  5
4D0
330
4C7
100
AcDbEntity
  8
LC-009-003-----0
 62
     7
370
    25
100
AcDbLine
 10
132.269545
 20
1402.414735
 30
0.0
 11
113.927815
 21
1400.0
 31
0.0
  0
LINE
  5
4D1
330
4C7
100
AcDbEntity
  8
LC-009-003-----0
 62
     7
370
    25
100
AcDbLine
 10
113.927815
 20
1400.0
 30
0.0
 11
132.269545
 21
1397.585265
 31
0.0
  0
LINE
  5
4D2
330
4C7
100
AcDbEntity
  8
LC-009-003-----0
 62
     7
370
    25
100
AcDbLine
 10
132.325154
 20
1401.566314
 30
0.0
 11
120.427815
 21
1400.0
 31
0.0
  0
LINE
  5
4D3
330
4C7
100
AcDbEntity
  8
LC-009-003-----0
 62
     7
370
    25
100
AcDbLine
 10
120.427815
 20
1400.0
 30
0.0
 11
132.325154
 21
1398.433686
 31
0.0
  0
LINE
  5
4D4
330
4C7
100
AcDbEntity
  8
LC-009-003-----0
 62
     7
370
    25
100
AcDbLine
 10
132.380762
 20
1400.717894
 30
0.0
 11
126.927815
 21
1400.0
 31
0.0
  0
LINE
  5
4D5
330
4C7
100
AcDbEntity
  8
LC-009-003-----0
 62
     7
370
    25
100
AcDbLine
 10
126.927815
 20
1400.0
 30
0.0
 11
132.380762
 21
1399.282106
 31
0.0
  0
LINE
  5
4D6
330
4C7
100
AcDbEntity
  8
LC-009-003-----0
 62
     7
370
    25
100
AcDbLine
 10
482.641693
 20
1396.736845
 30
0.0
 11
507.427815
 21
1400.0
 31
0.0
  0
LINE
  5
4D7
330
4C7
100
AcDbEntity
  8
LC-009-003-----0
 62
     7
370
    25
100
AcDbLine
 10
507.427815
 20
1400.0
 30
0.0
 11
482.641693
 21
1403.263155
 31
0.0
  0
LINE
  5
4D8
330
4C7
100
AcDbEntity
  8
LC-009-003-----0
 62
     7
370
    25
100
AcDbLine
 10
482.641693
 20
1403.263155
 30
0.0
 11
482.641693
 21
1396.736845
 31
0.0
  0
LINE
  5
4D9
330
4C7
100
AcDbEntity
  8
LC-009-003-----0
 62
     7
370
    25
100
AcDbLine
 10
482.586085
 20
1397.585265
 30
0.0
 11
500.927815
 21
1400.0
 31
0.0
  0
LINE
  5
4DA
330
4C7
100
AcDbEntity
  8
LC-009-003-----0
 62
     7
370
    25
100
AcDbLine
 10
500.927815
 20
1400.0
 30
0.0
 11
482.586085
 21
1402.414735
 31
0.0
  0
LINE
  5
4DB
330
4C7
100
AcDbEntity
  8
LC-009-003-----0
 62
     7
370
    25
100
AcDbLine
 10
482.530476
 20
1398.433686
 30
0.0
 11
494.427815
 21
1400.0
 31
0.0
  0
LINE
  5
4DC
330
4C7
100
AcDbEntity
  8
LC-009-003-----0
 62
     7
370
    25
100
AcDbLine
 10
494.427815
 20
1400.0
 30
0.0
 11
482.530476
 21
1401.566314
 31
0.0
  0
LINE
  5
4DD
330
4C7
100
AcDbEntity
  8
LC-009-003-----0
 62
     7
370
    25
100
AcDbLine
 10
482.474868
 20
1399.282106
 30
0.0
 11
487.927815
 21
1400.0
 31
0.0
  0
LINE
  5
4DE
330
4C7
100
AcDbEntity
  8
LC-009-003-----0
 62
     7
370
    25
100
AcDbLine
 10
487.927815
 20
1400.0
 30
0.0
 11
482.474868
 21
1400.717894
 31
0.0
  0
TEXT
  5
4DF
330
4C7
100
AcDbEntity
  8
LC-009-003-----0
 62
     7
370
    25
100
AcDbText
 10
280.83393
 20
1415.0
 30
0.0
 40
25.0
  1
400
 41
0.8
  7
LCTX0-400-0-0pDIN-Schrift
 72
     1
 11
309.405358
 21
1415.0
 31
0.0
100
AcDbText
  0
ENDBLK
  5
4C9
330
4C7
100
AcDbEntity
  8
0
100
AcDbBlockEnd
  0
BLOCK
  5
4E2
330
4E1
100
AcDbEntity
  8
0
100
AcDbBlockBegin
  2
*X327
 70
     1
 71
     0
 10
0.0
 20
0.0
 30
0.0
  3
*X327
  1

  4
*X3
  0
LINE
  5
4E4
330
4E1
100
AcDbEntity
  8
LC-012-005-----0
 62
     7
370
    25
100
AcDbLine
 10
107.427815
 20
1606.494191
 30
0.0
 11
126.427815
 21
1625.494191
 31
0.0
  0
LINE
  5
4E5
330
4E1
100
AcDbEntity
  8
LC-012-005-----0
 62
     7
370
    25
100
AcDbLine
 10
107.427815
 20
1634.778462
 30
0.0
 11
126.427815
 21
1653.778462
 31
0.0
  0
LINE
  5
4E6
330
4E1
100
AcDbEntity
  8
LC-012-005-----0
 62
     7
370
    25
100
AcDbLine
 10
107.427815
 20
1663.062733
 30
0.0
 11
126.427815
 21
1682.062733
 31
0.0
  0
LINE
  5
4E7
330
4E1
100
AcDbEntity
  8
LC-012-005-----0
 62
     7
370
    25
100
AcDbLine
 10
107.427815
 20
1691.347005
 30
0.0
 11
126.427815
 21
1710.347005
 31
0.0
  0
LINE
  5
4E8
330
4E1
100
AcDbEntity
  8
LC-012-005-----0
 62
     7
370
    25
100
AcDbLine
 10
107.427815
 20
1719.631276
 30
0.0
 11
121.826539
 21
1734.03
 31
0.0
  0
ENDBLK
  5
4E3
330
4E1
100
AcDbEntity
  8
0
100
AcDbBlockEnd
  0
BLOCK
  5
4EB
330
4EA
100
AcDbEntity
  8
0
100
AcDbBlockBegin
  2
*X428
 70
     1
 71
     0
 10
0.0
 20
0.0
 30
0.0
  3
*X428
  1

  4
*X4
  0
LINE
  5
4ED
330
4EA
100
AcDbEntity
  8
LC-012-005-----0
 62
     7
370
    25
100
AcDbLine
 10
497.791482
 20
1600.87806
 30
0.0
 11
507.427815
 21
1610.514393
 31
0.0
  0
LINE
  5
4EE
330
4EA
100
AcDbEntity
  8
LC-012-005-----0
 62
     7
370
    25
100
AcDbLine
 10
488.427815
 20
1619.798665
 30
0.0
 11
507.427815
 21
1638.798665
 31
0.0
  0
LINE
  5
4EF
330
4EA
100
AcDbEntity
  8
LC-012-005-----0
 62
     7
370
    25
100
AcDbLine
 10
488.427815
 20
1648.082936
 30
0.0
 11
507.427815
 21
1667.082936
 31
0.0
  0
LINE
  5
4F0
330
4EA
100
AcDbEntity
  8
LC-012-005-----0
 62
     7
370
    25
100
AcDbLine
 10
488.427815
 20
1676.367207
 30
0.0
 11
507.427815
 21
1695.367207
 31
0.0
  0
LINE
  5
4F1
330
4EA
100
AcDbEntity
  8
LC-012-005-----0
 62
     7
370
    25
100
AcDbLine
 10
488.427815
 20
1704.651478
 30
0.0
 11
507.427815
 21
1723.651478
 31
0.0
  0
LINE
  5
4F2
330
4EA
100
AcDbEntity
  8
LC-012-005-----0
 62
     7
370
    25
100
AcDbLine
 10
488.427815
 20
1732.93575
 30
0.0
 11
489.522065
 21
1734.03
 31
0.0
  0
ENDBLK
  5
4EC
330
4EA
100
AcDbEntity
  8
0
100
AcDbBlockEnd
  0
BLOCK
  5
4F5
330
4F4
100
AcDbEntity
  8
0
100
AcDbBlockBegin
  2
LCDIM8
 70
     0
 71
     0
 10
0.0
 20
0.0
 30
0.0
  3
LCDIM8
  1

  4
LCDIM8
  0
LINE
  5
4F7
330
4F4
100
AcDbEntity
  8
LC-007-003-MTH-0
 62
     7
370
    25
100
AcDbLine
 10
-8.514686
 20
335.893512
 30
0.0
 11
-8.514686
 21
365.0
 31
0.0
  0
LINE
  5
4F8
330
4F4
100
AcDbEntity
  8
LC-007-003-MTH-0
 62
     7
370
    25
100
AcDbLine
 10
191.485314
 20
335.893512
 30
0.0
 11
191.485314
 21
365.0
 31
0.0
  0
LINE
  5
4F9
330
4F4
100
AcDbEntity
  8
LC-008-003-MTG-0
 62
     7
370
    25
100
AcDbLine
 10
-8.514686
 20
350.0
 30
0.0
 11
191.485314
 21
350.0
 31
0.0
  0
LINE
  5
4FA
330
4F4
100
AcDbEntity
  8
LC-009-003-----0
 62
     7
370
    25
100
AcDbLine
 10
16.271436
 20
353.263155
 30
0.0
 11
-8.514686
 21
350.0
 31
0.0
  0
LINE
  5
4FB
330
4F4
100
AcDbEntity
  8
LC-009-003-----0
 62
     7
370
    25
100
AcDbLine
 10
-8.514686
 20
350.0
 30
0.0
 11
16.271436
 21
346.736845
 31
0.0
  0
LINE
  5
4FC
330
4F4
100
AcDbEntity
  8
LC-009-003-----0
 62
     7
370
    25
100
AcDbLine
 10
16.271436
 20
346.736845
 30
0.0
 11
16.271436
 21
353.263155
 31
0.0
  0
LINE
  5
4FD
330
4F4
100
AcDbEntity
  8
LC-009-003-----0
 62
     7
370
    25
100
AcDbLine
 10
16.327045
 20
352.414735
 30
0.0
 11
-2.014686
 21
350.0
 31
0.0
  0
LINE
  5
4FE
330
4F4
100
AcDbEntity
  8
LC-009-003-----0
 62
     7
370
    25
100
AcDbLine
 10
-2.014686
 20
350.0
 30
0.0
 11
16.327045
 21
347.585265
 31
0.0
  0
LINE
  5
4FF
330
4F4
100
AcDbEntity
  8
LC-009-003-----0
 62
     7
370
    25
100
AcDbLine
 10
16.382653
 20
351.566314
 30
0.0
 11
4.485315
 21
350.0
 31
0.0
  0
LINE
  5
500
330
4F4
100
AcDbEntity
  8
LC-009-003-----0
 62
     7
370
    25
100
AcDbLine
 10
4.485315
 20
350.0
 30
0.0
 11
16.382653
 21
348.433686
 31
0.0
  0
LINE
  5
501
330
4F4
100
AcDbEntity
  8
LC-009-003-----0
 62
     7
370
    25
100
AcDbLine
 10
16.438261
 20
350.717894
 30
0.0
 11
10.985315
 21
350.0
 31
0.0
  0
LINE
  5
502
330
4F4
100
AcDbEntity
  8
LC-009-003-----0
 62
     7
370
    25
100
AcDbLine
 10
10.985315
 20
350.0
 30
0.0
 11
16.438261
 21
349.282106
 31
0.0
  0
LINE
  5
503
330
4F4
100
AcDbEntity
  8
LC-009-003-----0
 62
     7
370
    25
100
AcDbLine
 10
166.699192
 20
346.736845
 30
0.0
 11
191.485314
 21
350.0
 31
0.0
  0
LINE
  5
504
330
4F4
100
AcDbEntity
  8
LC-009-003-----0
 62
     7
370
    25
100
AcDbLine
 10
191.485314
 20
350.0
 30
0.0
 11
166.699192
 21
353.263155
 31
0.0
  0
LINE
  5
505
330
4F4
100
AcDbEntity
  8
LC-009-003-----0
 62
     7
370
    25
100
AcDbLine
 10
166.699192
 20
353.263155
 30
0.0
 11
166.699192
 21
346.736845
 31
0.0
  0
LINE
  5
506
330
4F4
100
AcDbEntity
  8
LC-009-003-----0
 62
     7
370
    25
100
AcDbLine
 10
166.643584
 20
347.585265
 30
0.0
 11
184.985314
 21
350.0
 31
0.0
  0
LINE
  5
507
330
4F4
100
AcDbEntity
  8
LC-009-003-----0
 62
     7
370
    25
100
AcDbLine
 10
184.985314
 20
350.0
 30
0.0
 11
166.643584
 21
352.414735
 31
0.0
  0
LINE
  5
508
330
4F4
100
AcDbEntity
  8
LC-009-003-----0
 62
     7
370
    25
100
AcDbLine
 10
166.587976
 20
348.433686
 30
0.0
 11
178.485314
 21
350.0
 31
0.0
  0
LINE
  5
509
330
4F4
100
AcDbEntity
  8
LC-009-003-----0
 62
     7
370
    25
100
AcDbLine
 10
178.485314
 20
350.0
 30
0.0
 11
166.587976
 21
351.566314
 31
0.0
  0
LINE
  5
50A
330
4F4
100
AcDbEntity
  8
LC-009-003-----0
 62
     7
370
    25
100
AcDbLine
 10
166.532367
 20
349.282106
 30
0.0
 11
171.985314
 21
350.0
 31
0.0
  0
LINE
  5
50B
330
4F4
100
AcDbEntity
  8
LC-009-003-----0
 62
     7
370
    25
100
AcDbLine
 10
171.985314
 20
350.0
 30
0.0
 11
166.532367
 21
350.717894
 31
0.0
  0
TEXT
  5
50C
330
4F4
100
AcDbEntity
  8
LC-009-003-----0
 62
     7
370
    25
100
AcDbText
 10
58.493411
 20
365.0
 30
0.0
 40
25.0
  1
400
 41
0.8
  7
LCTX0-400-0-0pDIN-Schrift
 72
     1
 11
87.06484
 21
365.0
 31
0.0
100
AcDbText
  0
ENDBLK
  5
4F6
330
4F4
100
AcDbEntity
  8
0
100
AcDbBlockEnd
  0
BLOCK
  5
50F
330
50E
100
AcDbEntity
  8
0
100
AcDbBlockBegin
  2
LCDIM9
 70
     0
 71
     0
 10
0.0
 20
0.0
 30
0.0
  3
LCDIM9
  1

  4
LCDIM9
  0
LINE
  5
511
330
50E
100
AcDbEntity
  8
LC-007-003-MTH-0
 62
     7
370
    25
100
AcDbLine
 10
107.427815
 20
774.24
 30
0.0
 11
107.427815
 21
685.0
 31
0.0
  0
LINE
  5
512
330
50E
100
AcDbEntity
  8
LC-007-003-MTH-0
 62
     7
370
    25
100
AcDbLine
 10
507.427815
 20
774.24
 30
0.0
 11
507.427815
 21
685.0
 31
0.0
  0
LINE
  5
513
330
50E
100
AcDbEntity
  8
LC-008-003-MTG-0
 62
     7
370
    25
100
AcDbLine
 10
107.427815
 20
700.0
 30
0.0
 11
507.427815
 21
700.0
 31
0.0
  0
LINE
  5
514
330
50E
100
AcDbEntity
  8
LC-009-003-----0
 62
     7
370
    25
100
AcDbLine
 10
132.213937
 20
703.263155
 30
0.0
 11
107.427815
 21
700.0
 31
0.0
  0
LINE
  5
515
330
50E
100
AcDbEntity
  8
LC-009-003-----0
 62
     7
370
    25
100
AcDbLine
 10
107.427815
 20
700.0
 30
0.0
 11
132.213937
 21
696.736845
 31
0.0
  0
LINE
  5
516
330
50E
100
AcDbEntity
  8
LC-009-003-----0
 62
     7
370
    25
100
AcDbLine
 10
132.213937
 20
696.736845
 30
0.0
 11
132.213937
 21
703.263155
 31
0.0
  0
LINE
  5
517
330
50E
100
AcDbEntity
  8
LC-009-003-----0
 62
     7
370
    25
100
AcDbLine
 10
132.269545
 20
702.414735
 30
0.0
 11
113.927815
 21
700.0
 31
0.0
  0
LINE
  5
518
330
50E
100
AcDbEntity
  8
LC-009-003-----0
 62
     7
370
    25
100
AcDbLine
 10
113.927815
 20
700.0
 30
0.0
 11
132.269545
 21
697.585265
 31
0.0
  0
LINE
  5
519
330
50E
100
AcDbEntity
  8
LC-009-003-----0
 62
     7
370
    25
100
AcDbLine
 10
132.325154
 20
701.566314
 30
0.0
 11
120.427815
 21
700.0
 31
0.0
  0
LINE
  5
51A
330
50E
100
AcDbEntity
  8
LC-009-003-----0
 62
     7
370
    25
100
AcDbLine
 10
120.427815
 20
700.0
 30
0.0
 11
132.325154
 21
698.433686
 31
0.0
  0
LINE
  5
51B
330
50E
100
AcDbEntity
  8
LC-009-003-----0
 62
     7
370
    25
100
AcDbLine
 10
132.380762
 20
700.717894
 30
0.0
 11
126.927815
 21
700.0
 31
0.0
  0
LINE
  5
51C
330
50E
100
AcDbEntity
  8
LC-009-003-----0
 62
     7
370
    25
100
AcDbLine
 10
126.927815
 20
700.0
 30
0.0
 11
132.380762
 21
699.282106
 31
0.0
  0
LINE
  5
51D
330
50E
100
AcDbEntity
  8
LC-009-003-----0
 62
     7
370
    25
100
AcDbLine
 10
482.641693
 20
696.736845
 30
0.0
 11
507.427815
 21
700.0
 31
0.0
  0
LINE
  5
51E
330
50E
100
AcDbEntity
  8
LC-009-003-----0
 62
     7
370
    25
100
AcDbLine
 10
507.427815
 20
700.0
 30
0.0
 11
482.641693
 21
703.263155
 31
0.0
  0
LINE
  5
51F
330
50E
100
AcDbEntity
  8
LC-009-003-----0
 62
     7
370
    25
100
AcDbLine
 10
482.641693
 20
703.263155
 30
0.0
 11
482.641693
 21
696.736845
 31
0.0
  0
LINE
  5
520
330
50E
100
AcDbEntity
  8
LC-009-003-----0
 62
     7
370
    25
100
AcDbLine
 10
482.586085
 20
697.585265
 30
0.0
 11
500.927815
 21
700.0
 31
0.0
  0
LINE
  5
521
330
50E
100
AcDbEntity
  8
LC-009-003-----0
 62
     7
370
    25
100
AcDbLine
 10
500.927815
 20
700.0
 30
0.0
 11
482.586085
 21
702.414735
 31
0.0
  0
LINE
  5
522
330
50E
100
AcDbEntity
  8
LC-009-003-----0
 62
     7
370
    25
100
AcDbLine
 10
482.530476
 20
698.433686
 30
0.0
 11
494.427815
 21
700.0
 31
0.0
  0
LINE
  5
523
330
50E
100
AcDbEntity
  8
LC-009-003-----0
 62
     7
370
    25
100
AcDbLine
 10
494.427815
 20
700.0
 30
0.0
 11
482.530476
 21
701.566314
 31
0.0
  0
LINE
  5
524
330
50E
100
AcDbEntity
  8
LC-009-003-----0
 62
     7
370
    25
100
AcDbLine
 10
482.474868
 20
699.282106
 30
0.0
 11
487.927815
 21
700.0
 31
0.0
  0
LINE
  5
525
330
50E
100
AcDbEntity
  8
LC-009-003-----0
 62
     7
370
    25
100
AcDbLine
 10
487.927815
 20
700.0
 30
0.0
 11
482.474868
 21
700.717894
 31
0.0
  0
TEXT
  5
526
330
50E
100
AcDbEntity
  8
LC-009-003-----0
 62
     7
370
    25
100
AcDbText
 10
279.218305
 20
715.0
 30
0.0
 40
25.0
  1
400
 41
0.7
  7
LCTX0-400-0-0pDIN-Schrift
 72
     1
 11
304.218305
 21
715.0
 31
0.0
100
AcDbText
  0
ENDBLK
  5
510
330
50E
100
AcDbEntity
  8
0
100
AcDbBlockEnd
  0
BLOCK
  5
529
330
528
100
AcDbEntity
  8
0
100
AcDbBlockBegin
  2
LCDIM10
 70
     0
 71
     0
 10
0.0
 20
0.0
 30
0.0
  3
LCDIM10
  1

  4
LCDIM10
  0
LINE
  5
52B
330
528
100
AcDbEntity
  8
LC-007-003-MTH-0
 62
     7
370
    25
100
AcDbLine
 10
142.121936
 20
1762.911512
 30
0.0
 11
142.121936
 21
1865.0
 31
0.0
  0
LINE
  5
52C
330
528
100
AcDbEntity
  8
LC-007-003-MTH-0
 62
     7
370
    25
100
AcDbLine
 10
472.733694
 20
1762.911512
 30
0.0
 11
472.733694
 21
1865.0
 31
0.0
  0
LINE
  5
52D
330
528
100
AcDbEntity
  8
LC-008-003-MTG-0
 62
     7
370
    25
100
AcDbLine
 10
142.121936
 20
1850.0
 30
0.0
 11
472.733694
 21
1850.0
 31
0.0
  0
LINE
  5
52E
330
528
100
AcDbEntity
  8
LC-009-003-----0
 62
     7
370
    25
100
AcDbLine
 10
166.908058
 20
1853.263155
 30
0.0
 11
142.121936
 21
1850.0
 31
0.0
  0
LINE
  5
52F
330
528
100
AcDbEntity
  8
LC-009-003-----0
 62
     7
370
    25
100
AcDbLine
 10
142.121936
 20
1850.0
 30
0.0
 11
166.908058
 21
1846.736845
 31
0.0
  0
LINE
  5
530
330
528
100
AcDbEntity
  8
LC-009-003-----0
 62
     7
370
    25
100
AcDbLine
 10
166.908058
 20
1846.736845
 30
0.0
 11
166.908058
 21
1853.263155
 31
0.0
  0
LINE
  5
531
330
528
100
AcDbEntity
  8
LC-009-003-----0
 62
     7
370
    25
100
AcDbLine
 10
166.963666
 20
1852.414735
 30
0.0
 11
148.621936
 21
1850.0
 31
0.0
  0
LINE
  5
532
330
528
100
AcDbEntity
  8
LC-009-003-----0
 62
     7
370
    25
100
AcDbLine
 10
148.621936
 20
1850.0
 30
0.0
 11
166.963666
 21
1847.585265
 31
0.0
  0
LINE
  5
533
330
528
100
AcDbEntity
  8
LC-009-003-----0
 62
     7
370
    25
100
AcDbLine
 10
167.019275
 20
1851.566314
 30
0.0
 11
155.121936
 21
1850.0
 31
0.0
  0
LINE
  5
534
330
528
100
AcDbEntity
  8
LC-009-003-----0
 62
     7
370
    25
100
AcDbLine
 10
155.121936
 20
1850.0
 30
0.0
 11
167.019275
 21
1848.433686
 31
0.0
  0
LINE
  5
535
330
528
100
AcDbEntity
  8
LC-009-003-----0
 62
     7
370
    25
100
AcDbLine
 10
167.074883
 20
1850.717894
 30
0.0
 11
161.621936
 21
1850.0
 31
0.0
  0
LINE
  5
536
330
528
100
AcDbEntity
  8
LC-009-003-----0
 62
     7
370
    25
100
AcDbLine
 10
161.621936
 20
1850.0
 30
0.0
 11
167.074883
 21
1849.282106
 31
0.0
  0
LINE
  5
537
330
528
100
AcDbEntity
  8
LC-009-003-----0
 62
     7
370
    25
100
AcDbLine
 10
447.947572
 20
1846.736845
 30
0.0
 11
472.733694
 21
1850.0
 31
0.0
  0
LINE
  5
538
330
528
100
AcDbEntity
  8
LC-009-003-----0
 62
     7
370
    25
100
AcDbLine
 10
472.733694
 20
1850.0
 30
0.0
 11
447.947572
 21
1853.263155
 31
0.0
  0
LINE
  5
539
330
528
100
AcDbEntity
  8
LC-009-003-----0
 62
     7
370
    25
100
AcDbLine
 10
447.947572
 20
1853.263155
 30
0.0
 11
447.947572
 21
1846.736845
 31
0.0
  0
LINE
  5
53A
330
528
100
AcDbEntity
  8
LC-009-003-----0
 62
     7
370
    25
100
AcDbLine
 10
447.891963
 20
1847.585265
 30
0.0
 11
466.233693
 21
1850.0
 31
0.0
  0
LINE
  5
53B
330
528
100
AcDbEntity
  8
LC-009-003-----0
 62
     7
370
    25
100
AcDbLine
 10
466.233693
 20
1850.0
 30
0.0
 11
447.891963
 21
1852.414735
 31
0.0
  0
LINE
  5
53C
330
528
100
AcDbEntity
  8
LC-009-003-----0
 62
     7
370
    25
100
AcDbLine
 10
447.836355
 20
1848.433686
 30
0.0
 11
459.733693
 21
1850.0
 31
0.0
  0
LINE
  5
53D
330
528
100
AcDbEntity
  8
LC-009-003-----0
 62
     7
370
    25
100
AcDbLine
 10
459.733693
 20
1850.0
 30
0.0
 11
447.836355
 21
1851.566314
 31
0.0
  0
LINE
  5
53E
330
528
100
AcDbEntity
  8
LC-009-003-----0
 62
     7
370
    25
100
AcDbLine
 10
447.780746
 20
1849.282106
 30
0.0
 11
453.233693
 21
1850.0
 31
0.0
  0
LINE
  5
53F
330
528
100
AcDbEntity
  8
LC-009-003-----0
 62
     7
370
    25
100
AcDbLine
 10
453.233693
 20
1850.0
 30
0.0
 11
447.780746
 21
1850.717894
 31
0.0
  0
TEXT
  5
540
330
528
100
AcDbEntity
  8
LC-009-003-----0
 62
     7
370
    25
100
AcDbText
 10
271.912025
 20
1865.0
 30
0.0
 40
25.0
  1
331
 41
0.7
  7
LCTX0-400-0-0pDIN-Schrift
 72
     1
 11
294.412025
 21
1865.0
 31
0.0
100
AcDbText
  0
ENDBLK
  5
52A
330
528
100
AcDbEntity
  8
0
100
AcDbBlockEnd
  0
BLOCK
  5
543
330
542
100
AcDbEntity
  8
0
100
AcDbBlockBegin
  2
LCDIM11
 70
     0
 71
     0
 10
0.0
 20
0.0
 30
0.0
  3
LCDIM11
  1

  4
LCDIM11
  0
LINE
  5
545
330
542
100
AcDbEntity
  8
LC-007-003-MTH-0
 62
     7
370
    25
100
AcDbLine
 10
1066.085293
 20
798.934121
 30
0.0
 11
1165.0
 21
798.934121
 31
0.0
  0
LINE
  5
546
330
542
100
AcDbEntity
  8
LC-007-003-MTH-0
 62
     7
370
    25
100
AcDbLine
 10
1066.085293
 20
1129.545879
 30
0.0
 11
1165.0
 21
1129.545879
 31
0.0
  0
LINE
  5
547
330
542
100
AcDbEntity
  8
LC-008-003-MTG-0
 62
     7
370
    25
100
AcDbLine
 10
1150.0
 20
798.934121
 30
0.0
 11
1150.0
 21
1129.545879
 31
0.0
  0
LINE
  5
548
330
542
100
AcDbEntity
  8
LC-009-003-----0
 62
     7
370
    25
100
AcDbLine
 10
1146.736845
 20
823.720243
 30
0.0
 11
1150.0
 21
798.934121
 31
0.0
  0
LINE
  5
549
330
542
100
AcDbEntity
  8
LC-009-003-----0
 62
     7
370
    25
100
AcDbLine
 10
1150.0
 20
798.934121
 30
0.0
 11
1153.263155
 21
823.720243
 31
0.0
  0
LINE
  5
54A
330
542
100
AcDbEntity
  8
LC-009-003-----0
 62
     7
370
    25
100
AcDbLine
 10
1153.263155
 20
823.720243
 30
0.0
 11
1146.736845
 21
823.720243
 31
0.0
  0
LINE
  5
54B
330
542
100
AcDbEntity
  8
LC-009-003-----0
 62
     7
370
    25
100
AcDbLine
 10
1147.585265
 20
823.775852
 30
0.0
 11
1150.0
 21
805.434121
 31
0.0
  0
LINE
  5
54C
330
542
100
AcDbEntity
  8
LC-009-003-----0
 62
     7
370
    25
100
AcDbLine
 10
1150.0
 20
805.434121
 30
0.0
 11
1152.414735
 21
823.775852
 31
0.0
  0
LINE
  5
54D
330
542
100
AcDbEntity
  8
LC-009-003-----0
 62
     7
370
    25
100
AcDbLine
 10
1148.433686
 20
823.83146
 30
0.0
 11
1150.0
 21
811.934122
 31
0.0
  0
LINE
  5
54E
330
542
100
AcDbEntity
  8
LC-009-003-----0
 62
     7
370
    25
100
AcDbLine
 10
1150.0
 20
811.934122
 30
0.0
 11
1151.566314
 21
823.83146
 31
0.0
  0
LINE
  5
54F
330
542
100
AcDbEntity
  8
LC-009-003-----0
 62
     7
370
    25
100
AcDbLine
 10
1149.282106
 20
823.887068
 30
0.0
 11
1150.0
 21
818.434122
 31
0.0
  0
LINE
  5
550
330
542
100
AcDbEntity
  8
LC-009-003-----0
 62
     7
370
    25
100
AcDbLine
 10
1150.0
 20
818.434122
 30
0.0
 11
1150.717894
 21
823.887068
 31
0.0
  0
LINE
  5
551
330
542
100
AcDbEntity
  8
LC-009-003-----0
 62
     7
370
    25
100
AcDbLine
 10
1153.263155
 20
1104.759757
 30
0.0
 11
1150.0
 21
1129.545879
 31
0.0
  0
LINE
  5
552
330
542
100
AcDbEntity
  8
LC-009-003-----0
 62
     7
370
    25
100
AcDbLine
 10
1150.0
 20
1129.545879
 30
0.0
 11
1146.736845
 21
1104.759757
 31
0.0
  0
LINE
  5
553
330
542
100
AcDbEntity
  8
LC-009-003-----0
 62
     7
370
    25
100
AcDbLine
 10
1146.736845
 20
1104.759757
 30
0.0
 11
1153.263155
 21
1104.759757
 31
0.0
  0
LINE
  5
554
330
542
100
AcDbEntity
  8
LC-009-003-----0
 62
     7
370
    25
100
AcDbLine
 10
1152.414735
 20
1104.704148
 30
0.0
 11
1150.0
 21
1123.045879
 31
0.0
  0
LINE
  5
555
330
542
100
AcDbEntity
  8
LC-009-003-----0
 62
     7
370
    25
100
AcDbLine
 10
1150.0
 20
1123.045879
 30
0.0
 11
1147.585265
 21
1104.704148
 31
0.0
  0
LINE
  5
556
330
542
100
AcDbEntity
  8
LC-009-003-----0
 62
     7
370
    25
100
AcDbLine
 10
1151.566314
 20
1104.64854
 30
0.0
 11
1150.0
 21
1116.545878
 31
0.0
  0
LINE
  5
557
330
542
100
AcDbEntity
  8
LC-009-003-----0
 62
     7
370
    25
100
AcDbLine
 10
1150.0
 20
1116.545878
 30
0.0
 11
1148.433686
 21
1104.64854
 31
0.0
  0
LINE
  5
558
330
542
100
AcDbEntity
  8
LC-009-003-----0
 62
     7
370
    25
100
AcDbLine
 10
1150.717894
 20
1104.592932
 30
0.0
 11
1150.0
 21
1110.045878
 31
0.0
  0
LINE
  5
559
330
542
100
AcDbEntity
  8
LC-009-003-----0
 62
     7
370
    25
100
AcDbLine
 10
1150.0
 20
1110.045878
 30
0.0
 11
1149.282106
 21
1104.592932
 31
0.0
  0
TEXT
  5
55A
330
542
100
AcDbEntity
  8
LC-009-003-----0
 62
     7
370
    25
100
AcDbText
 10
1135.0
 20
942.115481
 30
0.0
 40
25.0
  1
331
 50
90.0
 41
0.7
  7
LCTX0-400-0-0pDIN-Schrift
 72
     1
 11
1135.0
 21
964.615481
 31
0.0
100
AcDbText
  0
ENDBLK
  5
544
330
542
100
AcDbEntity
  8
0
100
AcDbBlockEnd
  0
BLOCK
  5
569
330
568
100
AcDbEntity
  8
0
100
AcDbBlockBegin
  2
LCDIM12
 70
     0
 71
     0
 10
0.0
 20
0.0
 30
0.0
  3
LCDIM12
  1

  4
LCDIM12
  0
LINE
  5
56B
330
568
100
AcDbEntity
  8
LC-007-003-MTH-0
 62
     7
370
    25
100
AcDbLine
 10
826.68643
 20
132.480766
 30
0.0
 11
826.68643
 21
35.0
 31
0.0
  0
LINE
  5
56C
330
568
100
AcDbEntity
  8
LC-007-003-MTH-0
 62
     7
370
    25
100
AcDbLine
 10
1014.68643
 20
132.480766
 30
0.0
 11
1014.68643
 21
35.0
 31
0.0
  0
LINE
  5
56D
330
568
100
AcDbEntity
  8
LC-008-003-MTG-0
 62
     7
370
    25
100
AcDbLine
 10
826.68643
 20
50.0
 30
0.0
 11
1014.68643
 21
50.0
 31
0.0
  0
LINE
  5
56E
330
568
100
AcDbEntity
  8
LC-009-003-----0
 62
     7
370
    25
100
AcDbLine
 10
851.472552
 20
53.263155
 30
0.0
 11
826.68643
 21
50.0
 31
0.0
  0
LINE
  5
56F
330
568
100
AcDbEntity
  8
LC-009-003-----0
 62
     7
370
    25
100
AcDbLine
 10
826.68643
 20
50.0
 30
0.0
 11
851.472552
 21
46.736845
 31
0.0
  0
LINE
  5
570
330
568
100
AcDbEntity
  8
LC-009-003-----0
 62
     7
370
    25
100
AcDbLine
 10
851.472552
 20
46.736845
 30
0.0
 11
851.472552
 21
53.263155
 31
0.0
  0
LINE
  5
571
330
568
100
AcDbEntity
  8
LC-009-003-----0
 62
     7
370
    25
100
AcDbLine
 10
851.528161
 20
52.414735
 30
0.0
 11
833.18643
 21
50.0
 31
0.0
  0
LINE
  5
572
330
568
100
AcDbEntity
  8
LC-009-003-----0
 62
     7
370
    25
100
AcDbLine
 10
833.18643
 20
50.0
 30
0.0
 11
851.528161
 21
47.585265
 31
0.0
  0
LINE
  5
573
330
568
100
AcDbEntity
  8
LC-009-003-----0
 62
     7
370
    25
100
AcDbLine
 10
851.583769
 20
51.566314
 30
0.0
 11
839.686431
 21
50.0
 31
0.0
  0
LINE
  5
574
330
568
100
AcDbEntity
  8
LC-009-003-----0
 62
     7
370
    25
100
AcDbLine
 10
839.686431
 20
50.0
 30
0.0
 11
851.583769
 21
48.433686
 31
0.0
  0
LINE
  5
575
330
568
100
AcDbEntity
  8
LC-009-003-----0
 62
     7
370
    25
100
AcDbLine
 10
851.639377
 20
50.717894
 30
0.0
 11
846.186431
 21
50.0
 31
0.0
  0
LINE
  5
576
330
568
100
AcDbEntity
  8
LC-009-003-----0
 62
     7
370
    25
100
AcDbLine
 10
846.186431
 20
50.0
 30
0.0
 11
851.639377
 21
49.282106
 31
0.0
  0
LINE
  5
577
330
568
100
AcDbEntity
  8
LC-009-003-----0
 62
     7
370
    25
100
AcDbLine
 10
989.900308
 20
46.736845
 30
0.0
 11
1014.68643
 21
50.0
 31
0.0
  0
LINE
  5
578
330
568
100
AcDbEntity
  8
LC-009-003-----0
 62
     7
370
    25
100
AcDbLine
 10
1014.68643
 20
50.0
 30
0.0
 11
989.900308
 21
53.263155
 31
0.0
  0
LINE
  5
579
330
568
100
AcDbEntity
  8
LC-009-003-----0
 62
     7
370
    25
100
AcDbLine
 10
989.900308
 20
53.263155
 30
0.0
 11
989.900308
 21
46.736845
 31
0.0
  0
LINE
  5
57A
330
568
100
AcDbEntity
  8
LC-009-003-----0
 62
     7
370
    25
100
AcDbLine
 10
989.8447
 20
47.585265
 30
0.0
 11
1008.18643
 21
50.0
 31
0.0
  0
LINE
  5
57B
330
568
100
AcDbEntity
  8
LC-009-003-----0
 62
     7
370
    25
100
AcDbLine
 10
1008.18643
 20
50.0
 30
0.0
 11
989.8447
 21
52.414735
 31
0.0
  0
LINE
  5
57C
330
568
100
AcDbEntity
  8
LC-009-003-----0
 62
     7
370
    25
100
AcDbLine
 10
989.789092
 20
48.433686
 30
0.0
 11
1001.68643
 21
50.0
 31
0.0
  0
LINE
  5
57D
330
568
100
AcDbEntity
  8
LC-009-003-----0
 62
     7
370
    25
100
AcDbLine
 10
1001.68643
 20
50.0
 30
0.0
 11
989.789092
 21
51.566314
 31
0.0
  0
LINE
  5
57E
330
568
100
AcDbEntity
  8
LC-009-003-----0
 62
     7
370
    25
100
AcDbLine
 10
989.733483
 20
49.282106
 30
0.0
 11
995.18643
 21
50.0
 31
0.0
  0
LINE
  5
57F
330
568
100
AcDbEntity
  8
LC-009-003-----0
 62
     7
370
    25
100
AcDbLine
 10
995.18643
 20
50.0
 30
0.0
 11
989.733483
 21
50.717894
 31
0.0
  0
TEXT
  5
580
330
568
100
AcDbEntity
  8
LC-009-003-----0
 62
     7
370
    25
100
AcDbText
 10
895.825938
 20
65.0
 30
0.0
 40
25.0
  1
376
 41
0.7
  7
LCTX0-400-0-0pDIN-Schrift
 72
     1
 11
920.825938
 21
65.0
 31
0.0
100
AcDbText
  0
ENDBLK
  5
56A
330
568
100
AcDbEntity
  8
0
100
AcDbBlockEnd
  0
BLOCK
  5
583
330
582
100
AcDbEntity
  8
0
100
AcDbBlockBegin
  2
LCDIM13
 70
     0
 71
     0
 10
0.0
 20
0.0
 30
0.0
  3
LCDIM13
  1

  4
LCDIM13
  0
LINE
  5
585
330
582
100
AcDbEntity
  8
LC-007-003-MTH-0
 62
     7
370
    25
100
AcDbLine
 10
1009.68643
 20
127.480766
 30
0.0
 11
1115.0
 21
127.480766
 31
0.0
  0
LINE
  5
586
330
582
100
AcDbEntity
  8
LC-007-003-MTH-0
 62
     7
370
    25
100
AcDbLine
 10
1009.68643
 20
315.480766
 30
0.0
 11
1115.0
 21
315.480766
 31
0.0
  0
LINE
  5
587
330
582
100
AcDbEntity
  8
LC-008-003-MTG-0
 62
     7
370
    25
100
AcDbLine
 10
1100.0
 20
127.480766
 30
0.0
 11
1100.0
 21
315.480766
 31
0.0
  0
LINE
  5
588
330
582
100
AcDbEntity
  8
LC-009-003-----0
 62
     7
370
    25
100
AcDbLine
 10
1096.736845
 20
152.266888
 30
0.0
 11
1100.0
 21
127.480766
 31
0.0
  0
LINE
  5
589
330
582
100
AcDbEntity
  8
LC-009-003-----0
 62
     7
370
    25
100
AcDbLine
 10
1100.0
 20
127.480766
 30
0.0
 11
1103.263155
 21
152.266888
 31
0.0
  0
LINE
  5
58A
330
582
100
AcDbEntity
  8
LC-009-003-----0
 62
     7
370
    25
100
AcDbLine
 10
1103.263155
 20
152.266888
 30
0.0
 11
1096.736845
 21
152.266888
 31
0.0
  0
LINE
  5
58B
330
582
100
AcDbEntity
  8
LC-009-003-----0
 62
     7
370
    25
100
AcDbLine
 10
1097.585265
 20
152.322496
 30
0.0
 11
1100.0
 21
133.980766
 31
0.0
  0
LINE
  5
58C
330
582
100
AcDbEntity
  8
LC-009-003-----0
 62
     7
370
    25
100
AcDbLine
 10
1100.0
 20
133.980766
 30
0.0
 11
1102.414735
 21
152.322496
 31
0.0
  0
LINE
  5
58D
330
582
100
AcDbEntity
  8
LC-009-003-----0
 62
     7
370
    25
100
AcDbLine
 10
1098.433686
 20
152.378104
 30
0.0
 11
1100.0
 21
140.480766
 31
0.0
  0
LINE
  5
58E
330
582
100
AcDbEntity
  8
LC-009-003-----0
 62
     7
370
    25
100
AcDbLine
 10
1100.0
 20
140.480766
 30
0.0
 11
1101.566314
 21
152.378104
 31
0.0
  0
LINE
  5
58F
330
582
100
AcDbEntity
  8
LC-009-003-----0
 62
     7
370
    25
100
AcDbLine
 10
1099.282106
 20
152.433713
 30
0.0
 11
1100.0
 21
146.980766
 31
0.0
  0
LINE
  5
590
330
582
100
AcDbEntity
  8
LC-009-003-----0
 62
     7
370
    25
100
AcDbLine
 10
1100.0
 20
146.980766
 30
0.0
 11
1100.717894
 21
152.433713
 31
0.0
  0
LINE
  5
591
330
582
100
AcDbEntity
  8
LC-009-003-----0
 62
     7
370
    25
100
AcDbLine
 10
1103.263155
 20
290.694644
 30
0.0
 11
1100.0
 21
315.480766
 31
0.0
  0
LINE
  5
592
330
582
100
AcDbEntity
  8
LC-009-003-----0
 62
     7
370
    25
100
AcDbLine
 10
1100.0
 20
315.480766
 30
0.0
 11
1096.736845
 21
290.694644
 31
0.0
  0
LINE
  5
593
330
582
100
AcDbEntity
  8
LC-009-003-----0
 62
     7
370
    25
100
AcDbLine
 10
1096.736845
 20
290.694644
 30
0.0
 11
1103.263155
 21
290.694644
 31
0.0
  0
LINE
  5
594
330
582
100
AcDbEntity
  8
LC-009-003-----0
 62
     7
370
    25
100
AcDbLine
 10
1102.414735
 20
290.639035
 30
0.0
 11
1100.0
 21
308.980766
 31
0.0
  0
LINE
  5
595
330
582
100
AcDbEntity
  8
LC-009-003-----0
 62
     7
370
    25
100
AcDbLine
 10
1100.0
 20
308.980766
 30
0.0
 11
1097.585265
 21
290.639035
 31
0.0
  0
LINE
  5
596
330
582
100
AcDbEntity
  8
LC-009-003-----0
 62
     7
370
    25
100
AcDbLine
 10
1101.566314
 20
290.583427
 30
0.0
 11
1100.0
 21
302.480765
 31
0.0
  0
LINE
  5
597
330
582
100
AcDbEntity
  8
LC-009-003-----0
 62
     7
370
    25
100
AcDbLine
 10
1100.0
 20
302.480765
 30
0.0
 11
1098.433686
 21
290.583427
 31
0.0
  0
LINE
  5
598
330
582
100
AcDbEntity
  8
LC-009-003-----0
 62
     7
370
    25
100
AcDbLine
 10
1100.717894
 20
290.527819
 30
0.0
 11
1100.0
 21
295.980765
 31
0.0
  0
LINE
  5
599
330
582
100
AcDbEntity
  8
LC-009-003-----0
 62
     7
370
    25
100
AcDbLine
 10
1100.0
 20
295.980765
 30
0.0
 11
1099.282106
 21
290.527819
 31
0.0
  0
TEXT
  5
59A
330
582
100
AcDbEntity
  8
LC-009-003-----0
 62
     7
370
    25
100
AcDbText
 10
1085.0
 20
195.722823
 30
0.0
 40
25.0
  1
376
 50
90.0
 41
0.7
  7
LCTX0-400-0-0pDIN-Schrift
 72
     1
 11
1085.0
 21
220.722823
 31
0.0
100
AcDbText
  0
ENDBLK
  5
584
330
582
100
AcDbEntity
  8
0
100
AcDbBlockEnd
  0
BLOCK
  5
59D
330
59C
100
AcDbEntity
  8
0
100
AcDbBlockBegin
  2
LCDIM14
 70
     0
 71
     0
 10
0.0
 20
0.0
 30
0.0
  3
LCDIM14
  1

  4
LCDIM14
  0
TEXT
  5
59F
330
59C
100
AcDbEntity
  8
LC-009-003-----0
 62
     7
370
    25
100
AcDbText
 10
869.716185
 20
289.973941
 30
0.0
 40
25.0
  1
R10
 50
311.350708
 41
0.7
  7
LCTX0-400-0-0pDIN-Schrift
100
AcDbText
  0
LINE
  5
5A0
330
59C
100
AcDbEntity
  8
LC-008-003-MTG-0
 62
     7
370
    25
100
AcDbLine
 10
879.872621
 20
255.729374
 30
0.0
 11
828.383099
 21
314.234165
 31
0.0
  0
LINE
  5
5A1
330
59C
100
AcDbEntity
  8
LC-009-003-----0
 62
     7
370
    25
100
AcDbLine
 10
847.208038
 20
297.783581
 30
0.0
 11
828.383099
 21
314.234165
 31
0.0
  0
LINE
  5
5A2
330
59C
100
AcDbEntity
  8
LC-009-003-----0
 62
     7
370
    25
100
AcDbLine
 10
828.383099
 20
314.234165
 30
0.0
 11
842.308869
 21
293.471869
 31
0.0
  0
LINE
  5
5A3
330
59C
100
AcDbEntity
  8
LC-009-003-----0
 62
     7
370
    25
100
AcDbLine
 10
842.308869
 20
293.471869
 30
0.0
 11
847.208038
 21
297.783581
 31
0.0
  0
LINE
  5
5A4
330
59C
100
AcDbEntity
  8
LC-009-003-----0
 62
     7
370
    25
100
AcDbLine
 10
846.607885
 20
297.181315
 30
0.0
 11
832.67743
 21
309.354746
 31
0.0
  0
LINE
  5
5A5
330
59C
100
AcDbEntity
  8
LC-009-003-----0
 62
     7
370
    25
100
AcDbLine
 10
832.67743
 20
309.354746
 30
0.0
 11
842.9825
 21
293.990647
 31
0.0
  0
LINE
  5
5A6
330
59C
100
AcDbEntity
  8
LC-009-003-----0
 62
     7
370
    25
100
AcDbLine
 10
846.007731
 20
296.579048
 30
0.0
 11
836.971761
 21
304.475328
 31
0.0
  0
LINE
  5
5A7
330
59C
100
AcDbEntity
  8
LC-009-003-----0
 62
     7
370
    25
100
AcDbLine
 10
836.971761
 20
304.475328
 30
0.0
 11
843.65613
 21
294.509426
 31
0.0
  0
LINE
  5
5A8
330
59C
100
AcDbEntity
  8
LC-009-003-----0
 62
     7
370
    25
100
AcDbLine
 10
845.407578
 20
295.976781
 30
0.0
 11
841.266091
 21
299.595909
 31
0.0
  0
LINE
  5
5A9
330
59C
100
AcDbEntity
  8
LC-009-003-----0
 62
     7
370
    25
100
AcDbLine
 10
841.266091
 20
299.595909
 30
0.0
 11
844.329761
 21
295.028204
 31
0.0
  0
ENDBLK
  5
59E
330
59C
100
AcDbEntity
  8
0
100
AcDbBlockEnd
  0
ENDSEC
  0
SECTION
  2
ENTITIES
  0
INSERT
  5
103
330
1F
100
AcDbEntity
  8
LC-003-230-ZVN-0
 62
     7
370
   211
100
AcDbBlockReference
  2
SYM1
 10
-525.0
 20
-742.5
 30
0.0
  0
CIRCLE
  5
104
102
{ACAD_REACTORS
330
5B1
102
}
330
1F
100
AcDbEntity
  8
LC-002-002-----0
 62
     7
370
    50
100
AcDbCircle
 10
307.427815
 20
1008.24
 30
0.0
 40
45.0
  0
ARC
  5
105
102
{ACAD_REACTORS
330
5B1
102
}
330
1F
100
AcDbEntity
  8
LC-002-002-----0
 62
     7
370
    50
100
AcDbCircle
 10
117.427815
 20
1154.24
 30
0.0
 40
10.0
100
AcDbArc
 50
90.0
 51
180.0
  0
LINE
  5
106
330
1F
100
AcDbEntity
  8
LC-002-002-----0
 62
     7
370
    50
100
AcDbLine
 10
1055.61887
 20
1128.445813
 30
0.0
 11
1054.887171
 21
1135.407467
 31
0.0
  0
LINE
  5
109
330
1F
100
AcDbEntity
  8
LC-004-006-MLN-0
 62
     7
370
    25
100
AcDbLine
 10
1040.517366
 20
1123.842056
 30
0.0
 11
1039.158496
 21
1136.770841
 31
0.0
  0
ARC
  5
10A
102
{ACAD_REACTORS
330
5B1
102
}
330
1F
100
AcDbEntity
  8
LC-002-002-----0
 62
     7
370
    50
100
AcDbCircle
 10
497.427815
 20
1154.24
 30
0.0
 40
10.0
100
AcDbArc
 50
0.0
 51
90.0
  0
ARC
  5
10B
102
{ACAD_REACTORS
330
5B1
102
}
330
1F
100
AcDbEntity
  8
LC-002-002-----0
 62
     7
370
    50
100
AcDbCircle
 10
117.427815
 20
774.24
 30
0.0
 40
10.0
100
AcDbArc
 50
180.0
 51
270.0
  0
LINE
  5
10C
102
{ACAD_REACTORS
330
5B1
102
}
330
1F
100
AcDbEntity
  8
LC-002-002-----0
 62
     7
370
    50
100
AcDbLine
 10
497.427815
 20
764.24
 30
0.0
 11
117.427815
 21
764.24
 31
0.0
  0
ARC
  5
10D
102
{ACAD_REACTORS
330
5B1
102
}
330
1F
100
AcDbEntity
  8
LC-002-002-----0
 62
     7
370
    50
100
AcDbCircle
 10
497.427815
 20
774.24
 30
0.0
 40
10.0
100
AcDbArc
 50
270.0
 51
0.0
  0
LINE
  5
10E
102
{ACAD_REACTORS
330
5B1
102
}
330
1F
100
AcDbEntity
  8
LC-002-002-----0
 62
     7
370
    50
100
AcDbLine
 10
107.427815
 20
774.24
 30
0.0
 11
107.427815
 21
1154.24
 31
0.0
  0
LINE
  5
10F
102
{ACAD_REACTORS
330
5B1
102
}
330
1F
100
AcDbEntity
  8
LC-002-002-----0
 62
     7
370
    50
100
AcDbLine
 10
507.427815
 20
774.24
 30
0.0
 11
507.427815
 21
1154.24
 31
0.0
  0
ARC
  5
110
102
{ACAD_REACTORS
330
5B1
102
}
330
1F
100
AcDbEntity
  8
LC-002-002-----0
 62
     7
370
    50
100
AcDbCircle
 10
464.427815
 20
1121.24
 30
0.0
 40
10.0
100
AcDbArc
 50
0.0
 51
90.0
  0
ARC
  5
111
102
{ACAD_REACTORS
330
5B1
102
}
330
1F
100
AcDbEntity
  8
LC-002-002-----0
 62
     7
370
    50
100
AcDbCircle
 10
150.427815
 20
807.24
 30
0.0
 40
10.0
100
AcDbArc
 50
180.0
 51
270.0
  0
ARC
  5
112
102
{ACAD_REACTORS
330
5B1
102
}
330
1F
100
AcDbEntity
  8
LC-002-002-----0
 62
     7
370
    50
100
AcDbCircle
 10
150.427815
 20
1121.24
 30
0.0
 40
10.0
100
AcDbArc
 50
90.0
 51
180.0
  0
ARC
  5
113
102
{ACAD_REACTORS
330
5B1
102
}
330
1F
100
AcDbEntity
  8
LC-002-002-----0
 62
     7
370
    50
100
AcDbCircle
 10
464.427815
 20
807.24
 30
0.0
 40
9.999999999999886
100
AcDbArc
 50
270.0
 51
0.0
  0
LINE
  5
114
102
{ACAD_REACTORS
330
5B1
102
}
330
1F
100
AcDbEntity
  8
LC-002-002-----0
 62
     7
370
    50
100
AcDbLine
 10
150.427815
 20
1131.24
 30
0.0
 11
464.427815
 21
1131.24
 31
0.0
  0
LINE
  5
115
102
{ACAD_REACTORS
330
5B1
102
}
330
1F
100
AcDbEntity
  8
LC-002-002-----0
 62
     7
370
    50
100
AcDbLine
 10
150.427815
 20
797.24
 30
0.0
 11
464.427815
 21
797.24
 31
0.0
  0
LINE
  5
116
102
{ACAD_REACTORS
330
5B1
102
}
330
1F
100
AcDbEntity
  8
LC-002-002-----0
 62
     7
370
    50
100
AcDbLine
 10
140.427815
 20
1121.24
 30
0.0
 11
140.427815
 21
807.24
 31
0.0
  0
LINE
  5
117
102
{ACAD_REACTORS
330
5B1
102
}
330
1F
100
AcDbEntity
  8
LC-002-002-----0
 62
     7
370
    50
100
AcDbLine
 10
474.427815
 20
1121.24
 30
0.0
 11
474.427815
 21
807.24
 31
0.0
  0
ARC
  5
118
102
{ACAD_REACTORS
330
5B1
102
}
330
1F
100
AcDbEntity
  8
LC-002-002-----0
 62
     7
370
    25
100
AcDbCircle
 10
186.076914
 20
1085.185499
 30
0.0
 40
3.0
100
AcDbArc
 50
90.0
 51
180.0
  0
ARC
  5
119
102
{ACAD_REACTORS
330
5B1
102
}
330
1F
100
AcDbEntity
  8
LC-002-002-----0
 62
     7
370
    25
100
AcDbCircle
 10
186.076914
 20
1085.185499
 30
0.0
 40
27.00000000000024
100
AcDbArc
 50
96.37937
 51
180.0
  0
LINE
  5
11A
330
1F
100
AcDbEntity
  8
LC-002-002-----0
 62
     7
370
    50
100
AcDbLine
 10
1024.788691
 20
1125.205431
 30
0.0
 11
1024.056992
 21
1132.167084
 31
0.0
  0
ARC
  5
11B
102
{ACAD_REACTORS
330
5B1
102
}
330
1F
100
AcDbEntity
  8
LC-002-002-----0
 62
     7
370
    25
100
AcDbCircle
 10
428.778716
 20
1085.185499
 30
0.0
 40
3.0
100
AcDbArc
 50
0.0
 51
90.0
  0
ARC
  5
11C
102
{ACAD_REACTORS
330
5B1
102
}
330
1F
100
AcDbEntity
  8
LC-002-002-----0
 62
     7
370
    25
100
AcDbCircle
 10
428.778716
 20
1085.185499
 30
0.0
 40
27.00000000000011
100
AcDbArc
 50
0.0
 51
90.0
  0
ARC
  5
11D
102
{ACAD_REACTORS
330
5B1
102
}
330
1F
100
AcDbEntity
  8
LC-002-002-----0
 62
     7
370
    25
100
AcDbCircle
 10
186.076914
 20
843.294501
 30
0.0
 40
27.0
100
AcDbArc
 50
180.0
 51
270.0
  0
ARC
  5
11E
102
{ACAD_REACTORS
330
5B1
102
}
330
1F
100
AcDbEntity
  8
LC-002-002-----0
 62
     7
370
    25
100
AcDbCircle
 10
186.076914
 20
843.294501
 30
0.0
 40
3.0
100
AcDbArc
 50
180.0
 51
270.0
  0
ARC
  5
11F
102
{ACAD_REACTORS
330
5B1
102
}
330
1F
100
AcDbEntity
  8
LC-002-002-----0
 62
     7
370
    25
100
AcDbCircle
 10
428.778716
 20
843.294501
 30
0.0
 40
26.99999999999989
100
AcDbArc
 50
270.0
 51
0.0
  0
ARC
  5
120
102
{ACAD_REACTORS
330
5B1
102
}
330
1F
100
AcDbEntity
  8
LC-002-002-----0
 62
     7
370
    25
100
AcDbCircle
 10
428.778716
 20
843.294501
 30
0.0
 40
2.999999999999886
100
AcDbArc
 50
270.0
 51
0.0
  0
LINE
  5
121
102
{ACAD_REACTORS
330
5B1
102
}
330
1F
100
AcDbEntity
  8
LC-002-002-----0
 62
     7
370
    25
100
AcDbLine
 10
159.076914
 20
843.294501
 30
0.0
 11
159.076914
 21
1085.185499
 31
0.0
  0
LINE
  5
122
102
{ACAD_REACTORS
330
5B1
102
}
330
1F
100
AcDbEntity
  8
LC-002-002-----0
 62
     7
370
    25
100
AcDbLine
 10
455.778716
 20
843.294501
 30
0.0
 11
455.778716
 21
1085.185499
 31
0.0
  0
LINE
  5
123
102
{ACAD_REACTORS
330
5B1
102
}
330
1F
100
AcDbEntity
  8
LC-002-002-----0
 62
     7
370
    25
100
AcDbLine
 10
428.778716
 20
1112.185499
 30
0.0
 11
186.076914
 21
1112.185499
 31
0.0
  0
LINE
  5
124
102
{ACAD_REACTORS
330
5B1
102
}
330
1F
100
AcDbEntity
  8
LC-002-002-----0
 62
     7
370
    25
100
AcDbLine
 10
428.778716
 20
816.294501
 30
0.0
 11
186.076914
 21
816.294501
 31
0.0
  0
LINE
  5
125
102
{ACAD_REACTORS
330
5B1
102
}
330
1F
100
AcDbEntity
  8
LC-002-002-----0
 62
     7
370
    25
100
AcDbLine
 10
428.778716
 20
1088.185499
 30
0.0
 11
186.076914
 21
1088.185499
 31
0.0
  0
LINE
  5
126
102
{ACAD_REACTORS
330
5B1
102
}
330
1F
100
AcDbEntity
  8
LC-002-002-----0
 62
     7
370
    25
100
AcDbLine
 10
428.778716
 20
840.294501
 30
0.0
 11
186.076914
 21
840.294501
 31
0.0
  0
LINE
  5
127
102
{ACAD_REACTORS
330
5B1
102
}
330
1F
100
AcDbEntity
  8
LC-002-002-----0
 62
     7
370
    25
100
AcDbLine
 10
183.076914
 20
843.294501
 30
0.0
 11
183.076914
 21
1085.185499
 31
0.0
  0
LINE
  5
128
102
{ACAD_REACTORS
330
5B1
102
}
330
1F
100
AcDbEntity
  8
LC-002-002-----0
 62
     7
370
    25
100
AcDbLine
 10
431.778716
 20
843.294501
 30
0.0
 11
431.778716
 21
1085.185499
 31
0.0
  0
LINE
  5
129
102
{ACAD_REACTORS
330
5AD
102
}
330
1F
100
AcDbEntity
  8
LC-002-002-----0
 62
     7
370
    25
100
AcDbLine
 10
560.969848
 20
1772.03
 30
0.0
 11
564.500129
 21
1753.477462
 31
0.0
  0
LINE
  5
12A
102
{ACAD_REACTORS
330
5AD
102
}
330
1F
100
AcDbEntity
  8
LC-002-002-----0
 62
     7
370
    50
100
AcDbLine
 10
497.427815
 20
1772.03
 30
0.0
 11
497.427815
 21
1734.03
 31
0.0
  0
LINE
  5
12B
102
{ACAD_REACTORS
330
5AD
102
}
330
1F
100
AcDbEntity
  8
LC-002-002-----0
 62
     7
370
    50
100
AcDbLine
 10
497.427815
 20
1772.03
 30
0.0
 11
560.969848
 21
1772.03
 31
0.0
  0
LINE
  5
12C
102
{ACAD_REACTORS
330
5AD
102
}
330
1F
100
AcDbEntity
  8
LC-002-002-----0
 62
     7
370
    50
100
AcDbLine
 10
497.427815
 20
1734.03
 30
0.0
 11
560.969848
 21
1734.03
 31
0.0
  0
LINE
  5
12D
102
{ACAD_REACTORS
330
5AD
102
}
330
1F
100
AcDbEntity
  8
LC-002-002-----0
 62
     7
370
    25
100
AcDbLine
 10
564.500129
 20
1753.477462
 30
0.0
 11
560.969848
 21
1734.03
 31
0.0
  0
LINE
  5
12E
102
{ACAD_REACTORS
330
5AD
102
}
330
1F
100
AcDbEntity
  8
LC-002-002-----0
 62
     7
370
    50
100
AcDbLine
 10
507.427815
 20
1734.03
 30
0.0
 11
507.427815
 21
1606.02774
 31
0.0
  0
LINE
  5
12F
102
{ACAD_REACTORS
330
5AD
102
}
330
1F
100
AcDbEntity
  8
LC-002-002-----0
 62
     7
370
    50
100
AcDbLine
 10
488.427815
 20
1734.03
 30
0.0
 11
488.427815
 21
1606.02774
 31
0.0
  0
LINE
  5
130
102
{ACAD_REACTORS
330
5AD
102
}
330
1F
100
AcDbEntity
  8
LC-002-002-----0
 62
     7
370
    50
100
AcDbLine
 10
488.427815
 20
1734.03
 30
0.0
 11
507.427815
 21
1734.03
 31
0.0
  0
ARC
  5
132
102
{ACAD_REACTORS
330
5B0
102
}
330
1F
100
AcDbEntity
  8
LC-005-001-RND-0
 62
     7
370
    50
100
AcDbCircle
 10
124.220542
 20
1761.03
 30
0.0
 40
18.00000000000001
100
AcDbArc
 50
6.0
 51
90.0
  0
LINE
  5
134
102
{ACAD_REACTORS
330
5AF
102
}
330
1F
100
AcDbEntity
  8
LC-006-001-----0
 62
     7
370
    50
100
AcDbLine
 10
1082.20378
 20
781.032727
 30
0.0
 11
1082.20378
 21
1147.447273
 31
0.0
  0
LINE
  5
135
102
{ACAD_REACTORS
330
5AF
102
}
330
1F
100
AcDbEntity
  8
LC-006-001-----0
 62
     7
370
    50
100
AcDbLine
 10
1082.20378
 20
1147.447273
 30
0.0
 11
1082.20378
 21
1161.885482
 31
0.0
  0
LINE
  5
136
102
{ACAD_REACTORS
330
5AF
102
}
330
1F
100
AcDbEntity
  8
LC-006-001-----0
 62
     7
370
    50
100
AcDbLine
 10
1075.20378
 20
1164.24
 30
0.0
 11
1080.343293
 21
1163.88061
 31
0.0
  0
LINE
  5
137
102
{ACAD_REACTORS
330
5AF
102
}
330
1F
100
AcDbEntity
  8
LC-006-001-----0
 62
     7
370
    50
100
AcDbLine
 10
1075.20378
 20
1154.24
 30
0.0
 11
1075.20378
 21
1164.24
 31
0.0
  0
ARC
  5
138
102
{ACAD_REACTORS
330
5AF
102
}
330
1F
100
AcDbEntity
  8
LC-006-001-----0
 62
     7
370
    50
100
AcDbCircle
 10
1080.20378
 20
1161.885482
 30
0.0
 40
2.0
100
AcDbArc
 50
0.0
 51
86.0
  0
LINE
  5
139
102
{ACAD_REACTORS
330
5AF
102
}
330
1F
100
AcDbEntity
  8
LC-006-001-----0
 62
     7
370
    50
100
AcDbLine
 10
1074.20378
 20
1147.342169
 30
0.0
 11
1074.20378
 21
1154.24
 31
0.0
  0
LINE
  5
13A
102
{ACAD_REACTORS
330
5AF
102
}
330
1F
100
AcDbEntity
  8
LC-006-001-----0
 62
     7
370
    50
100
AcDbLine
 10
893.031158
 20
1118.395714
 30
0.0
 11
1064.353594
 21
1136.402428
 31
0.0
  0
LINE
  5
13B
102
{ACAD_REACTORS
330
5AF
102
}
330
1F
100
AcDbEntity
  8
LC-006-001-----0
 62
     7
370
    50
100
AcDbLine
 10
900.715585
 20
1112.164822
 30
0.0
 11
1066.085293
 21
1129.545879
 31
0.0
  0
LINE
  5
13C
102
{ACAD_REACTORS
330
5AF
102
}
330
1F
100
AcDbEntity
  8
LC-006-001-----0
 62
     7
370
    50
100
AcDbLine
 10
1074.20378
 20
1154.24
 30
0.0
 11
1075.20378
 21
1154.24
 31
0.0
  0
ARC
  5
13D
102
{ACAD_REACTORS
330
5AF
102
}
330
1F
100
AcDbEntity
  8
LC-006-001-----0
 62
     7
370
    50
100
AcDbCircle
 10
903.328797
 20
1087.301775
 30
0.0
 40
24.99999951450008
100
AcDbArc
 50
96.0
 51
177.0
  0
ARC
  5
13E
102
{ACAD_REACTORS
330
5AF
102
}
330
1F
100
AcDbEntity
  8
LC-006-001-----0
 62
     7
370
    50
100
AcDbCircle
 10
895.64437
 20
1093.532667
 30
0.0
 40
24.99999932299998
100
AcDbArc
 50
96.067828
 51
177.0
  0
LINE
  5
13F
102
{ACAD_REACTORS
330
5AF
102
}
330
1F
100
AcDbEntity
  8
LC-006-001-----0
 62
     7
370
    50
100
AcDbLine
 10
870.678618
 20
1094.841066
 30
0.0
 11
869.635844
 21
1074.94376
 31
0.0
  0
LINE
  5
140
102
{ACAD_REACTORS
330
5AF
102
}
330
1F
100
AcDbEntity
  8
LC-006-001-----0
 62
     7
370
    50
100
AcDbLine
 10
877.249275
 20
1067.358095
 30
0.0
 11
878.36305
 21
1088.610174
 31
0.0
  0
ARC
  5
141
102
{ACAD_REACTORS
330
5AF
102
}
330
1F
100
AcDbEntity
  8
LC-006-001-----0
 62
     7
370
    50
100
AcDbCircle
 10
876.250646
 20
1067.410431
 30
0.0
 40
1.000000000000067
100
AcDbArc
 50
275.0
 51
357.0
  0
ARC
  5
142
102
{ACAD_REACTORS
330
5AF
102
}
330
1F
100
AcDbEntity
  8
LC-006-001-----0
 62
     7
370
    50
100
AcDbCircle
 10
876.225656
 20
1065.199841
 30
0.0
 40
1.199999999999929
100
AcDbArc
 50
95.0
 51
170.0
  0
LINE
  5
143
102
{ACAD_REACTORS
330
5AF
102
}
330
1F
100
AcDbEntity
  8
LC-006-001-----0
 62
     7
370
    50
100
AcDbLine
 10
873.474363
 20
1056.507009
 30
0.0
 11
875.043887
 21
1065.408219
 31
0.0
  0
ARC
  5
144
102
{ACAD_REACTORS
330
5AF
102
}
330
1F
100
AcDbEntity
  8
LC-005-001-RND-0
 62
     7
370
    50
100
AcDbCircle
 10
867.638585
 20
1075.048432
 30
0.0
 40
1.999999999999822
100
AcDbArc
 50
295.0
 51
357.0
  0
LINE
  5
145
102
{ACAD_REACTORS
330
5AF
102
}
330
1F
100
AcDbEntity
  8
LC-006-001-----0
 62
     7
370
    50
100
AcDbLine
 10
868.483822
 20
1073.235816
 30
0.0
 11
865.935926
 21
1072.047713
 31
0.0
  0
ARC
  5
146
102
{ACAD_REACTORS
330
5AF
102
}
330
1F
100
AcDbEntity
  8
LC-006-001-----0
 62
     7
370
    50
100
AcDbCircle
 10
867.20378
 20
1069.328789
 30
0.0
 40
2.999999999999786
100
AcDbArc
 50
115.0
 51
131.810315
  0
LINE
  5
147
102
{ACAD_REACTORS
330
5AD
102
}
330
1F
100
AcDbEntity
  8
LC-002-002-----0
 62
     7
370
    25
100
AcDbLine
 10
107.427815
 20
1606.02774
 30
0.0
 11
122.027961
 21
1600.870029
 31
0.0
  0
LINE
  5
148
102
{ACAD_REACTORS
330
5AD
102
}
330
1F
100
AcDbEntity
  8
LC-002-002-----0
 62
     7
370
    25
100
AcDbLine
 10
122.027961
 20
1600.870029
 30
0.0
 11
126.427815
 21
1606.02774
 31
0.0
  0
LINE
  5
149
102
{ACAD_REACTORS
330
5AD
102
}
330
1F
100
AcDbEntity
  8
LC-002-002-----0
 62
     7
370
    25
100
AcDbLine
 10
488.427815
 20
1606.02774
 30
0.0
 11
501.401212
 21
1598.892838
 31
0.0
  0
ARC
  5
14A
102
{ACAD_REACTORS
330
5AF
102
}
330
1F
100
AcDbEntity
  8
LC-006-001-----0
 62
     7
370
    50
100
AcDbCircle
 10
870.51994
 20
1057.027953
 30
0.0
 40
2.999999999999974
100
AcDbArc
 50
275.0
 51
350.0
  0
LINE
  5
14B
102
{ACAD_REACTORS
330
5AF
102
}
330
1F
100
AcDbEntity
  8
LC-006-001-----0
 62
     7
370
    50
100
AcDbLine
 10
865.20378
 20
1053.55139
 30
0.0
 11
870.781407
 21
1054.039369
 31
0.0
  0
LINE
  5
14C
102
{ACAD_REACTORS
330
5AF
102
}
330
1F
100
AcDbEntity
  8
LC-002-002-----0
 62
     7
370
    50
100
AcDbLine
 10
865.20378
 20
1053.55139
 30
0.0
 11
865.20378
 21
1071.564857
 31
0.0
  0
LINE
  5
14D
102
{ACAD_REACTORS
330
5AF
102
}
330
1F
100
AcDbEntity
  8
LC-002-002-----0
 62
     7
370
    50
100
AcDbLine
 10
865.20378
 20
1053.55139
 30
0.0
 11
865.20378
 21
962.92861
 31
0.0
  0
LINE
  5
14E
102
{ACAD_REACTORS
330
5AF
102
}
330
1F
100
AcDbEntity
  8
LC-002-002-----0
 62
     7
370
    50
100
AcDbLine
 10
876.121069
 20
1066.395275
 30
0.0
 11
876.337802
 21
1066.414237
 31
0.0
  0
LINE
  5
14F
102
{ACAD_REACTORS
330
5AF
102
}
330
1F
100
AcDbEntity
  8
LC-002-002-----0
 62
     7
370
    25
100
AcDbLine
 10
877.20378
 20
1066.49
 30
0.0
 11
877.20378
 21
950.115116
 31
0.0
  0
LINE
  5
150
102
{ACAD_REACTORS
330
5AD
102
}
330
1F
100
AcDbEntity
  8
LC-002-002-----0
 62
     7
370
    25
100
AcDbLine
 10
501.401212
 20
1598.892838
 30
0.0
 11
507.427815
 21
1606.02774
 31
0.0
  0
LINE
  5
152
102
{ACAD_REACTORS
330
5B9
102
}
330
1F
100
AcDbEntity
  8
LC-002-002-----0
  6
DASHDOT
 62
     7
370
    25
100
AcDbLine
 10
191.485314
 20
116.137921
 30
0.0
 11
191.485314
 21
335.893512
 31
0.0
  0
LINE
  5
153
102
{ACAD_REACTORS
330
5B9
102
}
330
1F
100
AcDbEntity
  8
LC-002-002-----0
  6
DASHDOT
 62
     7
370
    25
100
AcDbLine
 10
181.985314
 20
116.137921
 30
0.0
 11
181.985314
 21
335.893512
 31
0.0
  0
ARC
  5
154
102
{ACAD_REACTORS
330
5AF
102
}
330
1F
100
AcDbEntity
  8
LC-006-001-----0
 62
     7
370
    50
100
AcDbCircle
 10
867.20378
 20
947.151211
 30
0.0
 40
3.000000000000029
100
AcDbArc
 50
228.189685
 51
245.0
  0
LINE
  5
155
102
{ACAD_REACTORS
330
5AF
102
}
330
1F
100
AcDbEntity
  8
LC-006-001-----0
 62
     7
370
    50
100
AcDbLine
 10
868.483822
 20
943.244184
 30
0.0
 11
865.935926
 21
944.432287
 31
0.0
  0
ARC
  5
156
102
{ACAD_REACTORS
330
5AF
102
}
330
1F
100
AcDbEntity
  8
LC-005-001-RND-0
 62
     7
370
    50
100
AcDbCircle
 10
867.638585
 20
941.431568
 30
0.0
 40
2.000000000000021
100
AcDbArc
 50
3.0
 51
65.0
  0
LINE
  5
157
102
{ACAD_REACTORS
330
5AF
102
}
330
1F
100
AcDbEntity
  8
LC-006-001-----0
 62
     7
370
    50
100
AcDbLine
 10
865.20378
 20
962.92861
 30
0.0
 11
870.781407
 21
962.440631
 31
0.0
  0
ARC
  5
158
102
{ACAD_REACTORS
330
5AF
102
}
330
1F
100
AcDbEntity
  8
LC-006-001-----0
 62
     7
370
    50
100
AcDbCircle
 10
870.51994
 20
959.452047
 30
0.0
 40
3.000000000000111
100
AcDbArc
 50
10.0
 51
85.0
  0
LINE
  5
159
102
{ACAD_REACTORS
330
5AF
102
}
330
1F
100
AcDbEntity
  8
LC-006-001-----0
 62
     7
370
    50
100
AcDbLine
 10
873.474363
 20
959.972991
 30
0.0
 11
875.043887
 21
951.071781
 31
0.0
  0
LINE
  5
15A
102
{ACAD_REACTORS
330
5AF
102
}
330
1F
100
AcDbEntity
  8
LC-006-001-----0
 62
     7
370
    50
100
AcDbLine
 10
877.249275
 20
949.121905
 30
0.0
 11
883.000479
 21
839.38241
 31
0.0
  0
ARC
  5
15B
102
{ACAD_REACTORS
330
5AF
102
}
330
1F
100
AcDbEntity
  8
LC-006-001-----0
 62
     7
370
    50
100
AcDbCircle
 10
900.281785
 20
834.459921
 30
0.0
 40
24.99999999990002
100
AcDbArc
 50
183.0
 51
264.0
  0
ARC
  5
15C
102
{ACAD_REACTORS
330
5AF
102
}
330
1F
100
AcDbEntity
  8
LC-006-001-----0
 62
     7
370
    50
100
AcDbCircle
 10
907.966242
 20
840.69081
 30
0.0
 40
24.99999937310016
100
AcDbArc
 50
183.0
 51
263.999999
  0
LINE
  5
15D
102
{ACAD_REACTORS
330
5AF
102
}
330
1F
100
AcDbEntity
  8
LC-006-001-----0
 62
     7
370
    50
100
AcDbLine
 10
905.353031
 20
815.827763
 30
0.0
 11
1066.085293
 21
798.934121
 31
0.0
  0
LINE
  5
15E
102
{ACAD_REACTORS
330
5AF
102
}
330
1F
100
AcDbEntity
  8
LC-006-001-----0
 62
     7
370
    50
100
AcDbLine
 10
897.668574
 20
809.596874
 30
0.0
 11
1064.353594
 21
792.077572
 31
0.0
  0
LINE
  5
15F
102
{ACAD_REACTORS
330
5AF
102
}
330
1F
100
AcDbEntity
  8
LC-006-001-----0
 62
     7
370
    50
100
AcDbLine
 10
1074.20378
 20
774.24
 30
0.0
 11
1074.20378
 21
781.137831
 31
0.0
  0
LINE
  5
160
102
{ACAD_REACTORS
330
5AF
102
}
330
1F
100
AcDbEntity
  8
LC-006-001-----0
 62
     7
370
    50
100
AcDbLine
 10
1074.20378
 20
774.24
 30
0.0
 11
1075.20378
 21
774.24
 31
0.0
  0
LINE
  5
161
102
{ACAD_REACTORS
330
5AF
102
}
330
1F
100
AcDbEntity
  8
LC-006-001-----0
 62
     7
370
    50
100
AcDbLine
 10
1075.20378
 20
764.24
 30
0.0
 11
1075.20378
 21
774.24
 31
0.0
  0
LINE
  5
162
102
{ACAD_REACTORS
330
5AF
102
}
330
1F
100
AcDbEntity
  8
LC-006-001-----0
 62
     7
370
    50
100
AcDbLine
 10
1075.20378
 20
764.24
 30
0.0
 11
1080.343293
 21
764.59939
 31
0.0
  0
ARC
  5
163
102
{ACAD_REACTORS
330
5AF
102
}
330
1F
100
AcDbEntity
  8
LC-006-001-----0
 62
     7
370
    50
100
AcDbCircle
 10
1080.20378
 20
766.594518
 30
0.0
 40
1.999999999999994
100
AcDbArc
 50
274.0
 51
0.0
  0
LINE
  5
164
102
{ACAD_REACTORS
330
5AF
102
}
330
1F
100
AcDbEntity
  8
LC-006-001-----0
 62
     7
370
    50
100
AcDbLine
 10
1082.20378
 20
766.594518
 30
0.0
 11
1082.20378
 21
781.032727
 31
0.0
  0
LINE
  5
165
102
{ACAD_REACTORS
330
5AF
102
}
330
1F
100
AcDbEntity
  8
LC-006-001-----0
 62
     7
370
    50
100
AcDbLine
 10
869.635844
 20
941.53624
 30
0.0
 11
875.316047
 21
833.151522
 31
0.0
  0
INSERT
  5
182
102
{ACAD_REACTORS
330
5B1
102
}
330
1F
100
AcDbEntity
  8
LC-009-003-----0
 62
     7
370
    25
100
AcDbBlockReference
  2
LCDIM1
 10
0.0
 20
0.0
 30
0.0
  0
ARC
  5
183
102
{ACAD_REACTORS
330
5AF
102
}
330
1F
100
AcDbEntity
  8
LC-006-001-----0
 62
     7
370
    50
100
AcDbCircle
 10
876.225656
 20
951.280159
 30
0.0
 40
1.199999999999947
100
AcDbArc
 50
190.0
 51
265.0
  0
ARC
  5
184
102
{ACAD_REACTORS
330
5AF
102
}
330
1F
100
AcDbEntity
  8
LC-006-001-----0
 62
     7
370
    50
100
AcDbCircle
 10
876.250646
 20
949.069569
 30
0.0
 40
1.000000000000059
100
AcDbArc
 50
3.0
 51
85.0
  0
LINE
  5
185
102
{ACAD_REACTORS
330
5AF
102
}
330
1F
100
AcDbEntity
  8
LC-002-002-----0
 62
     7
370
    50
100
AcDbLine
 10
876.121069
 20
950.084725
 30
0.0
 11
876.337802
 21
950.065763
 31
0.0
  0
LINE
  5
186
102
{ACAD_REACTORS
330
5AF
102
}
330
1F
100
AcDbEntity
  8
LC-002-002-----0
 62
     7
370
    50
100
AcDbLine
 10
865.20378
 20
944.915143
 30
0.0
 11
865.20378
 21
962.92861
 31
0.0
  0
LINE
  5
187
102
{ACAD_REACTORS
330
5B9
102
}
330
1F
100
AcDbEntity
  8
LC-002-002-----0
  6
DASHDOT
 62
     7
370
    25
100
AcDbLine
 10
-8.514686
 20
116.137921
 30
0.0
 11
-8.514686
 21
335.893512
 31
0.0
  0
LINE
  5
188
102
{ACAD_REACTORS
330
5B9
102
}
330
1F
100
AcDbEntity
  8
LC-002-002-----0
  6
DASHDOT
 62
     7
370
    25
100
AcDbLine
 10
0.985314
 20
116.137921
 30
0.0
 11
0.985314
 21
335.893512
 31
0.0
  0
LINE
  5
189
102
{ACAD_REACTORS
330
5B1
102
}
330
1F
100
AcDbEntity
  8
LC-002-002-----0
 62
     7
370
    50
100
AcDbLine
 10
497.427815
 20
1164.24
 30
0.0
 11
117.427815
 21
1164.24
 31
0.0
  0
ARC
  5
18A
102
{ACAD_REACTORS
330
5B0
102
}
330
1F
100
AcDbEntity
  8
LC-005-001-RND-0
 62
     7
370
    50
100
AcDbCircle
 10
490.635088
 20
1761.03
 30
0.0
 40
18.0
100
AcDbArc
 50
90.0
 51
174.0
  0
ARC
  5
18B
102
{ACAD_REACTORS
330
5AF
102
}
330
1F
100
AcDbEntity
  8
LC-005-001-RND-0
 62
     7
370
    50
100
AcDbCircle
 10
1064.20378
 20
1147.447273
 30
0.0
 40
17.99999999999996
100
AcDbArc
 50
276.0
 51
0.0
  0
ARC
  5
18C
102
{ACAD_REACTORS
330
5AF
102
}
330
1F
100
AcDbEntity
  8
LC-005-001-RND-0
 62
     7
370
    50
100
AcDbCircle
 10
1064.20378
 20
781.032727
 30
0.0
 40
18.0
100
AcDbArc
 50
0.0
 51
84.0
  0
ARC
  5
18D
102
{ACAD_REACTORS
330
5AF
102
}
330
1F
100
AcDbEntity
  8
LC-005-001-RND-0
 62
     7
370
    50
100
AcDbCircle
 10
1063.20378
 20
781.137831
 30
0.0
 40
11.0
100
AcDbArc
 50
0.0
 51
84.0
  0
ARC
  5
18E
102
{ACAD_REACTORS
330
5AF
102
}
330
1F
100
AcDbEntity
  8
LC-005-001-RND-0
 62
     7
370
    50
100
AcDbCircle
 10
1063.20378
 20
1147.342169
 30
0.0
 40
11.00000000000002
100
AcDbArc
 50
276.0
 51
0.0
  0
ARC
  5
18F
102
{ACAD_REACTORS
330
5B0
102
}
330
1F
100
AcDbEntity
  8
LC-005-001-RND-0
 62
     7
370
    50
100
AcDbCircle
 10
124.325646
 20
1760.03
 30
0.0
 40
11.0
100
AcDbArc
 50
6.0
 51
90.0
  0
ARC
  5
190
102
{ACAD_REACTORS
330
5B0
102
}
330
1F
100
AcDbEntity
  8
LC-005-001-RND-0
 62
     7
370
    50
100
AcDbCircle
 10
490.529983
 20
1760.03
 30
0.0
 40
11.0
100
AcDbArc
 50
90.0
 51
174.0
  0
LINE
  5
191
102
{ACAD_REACTORS
330
5B0
102
}
330
1F
100
AcDbEntity
  8
LC-006-001-----0
 62
     7
370
    50
100
AcDbLine
 10
490.635088
 20
1779.03
 30
0.0
 11
124.220542
 21
1779.03
 31
0.0
  0
LINE
  5
192
102
{ACAD_REACTORS
330
5B0
102
}
330
1F
100
AcDbEntity
  8
LC-002-002-----0
 62
     7
370
    50
100
AcDbLine
 10
262.116425
 20
1562.03
 30
0.0
 11
352.739205
 21
1562.03
 31
0.0
  0
LINE
  5
193
102
{ACAD_REACTORS
330
5B0
102
}
330
1F
100
AcDbEntity
  8
LC-002-002-----0
 62
     7
370
    25
100
AcDbLine
 10
249.177815
 20
1574.03
 30
0.0
 11
365.552699
 21
1574.03
 31
0.0
  0
ARC
  5
194
102
{ACAD_REACTORS
330
5B0
102
}
330
1F
100
AcDbEntity
  8
LC-006-001-----0
 62
     7
370
    50
100
AcDbCircle
 10
368.516604
 20
1564.03
 30
0.0
 40
3.000000000000029
100
AcDbArc
 50
318.189685
 51
335.0
  0
LINE
  5
195
102
{ACAD_REACTORS
330
5B0
102
}
330
1F
100
AcDbEntity
  8
LC-006-001-----0
 62
     7
370
    50
100
AcDbLine
 10
372.423631
 20
1565.310041
 30
0.0
 11
371.235527
 21
1562.762145
 31
0.0
  0
ARC
  5
196
102
{ACAD_REACTORS
330
5B0
102
}
330
1F
100
AcDbEntity
  8
LC-005-001-RND-0
 62
     7
370
    50
100
AcDbCircle
 10
374.236247
 20
1564.464805
 30
0.0
 40
2.000000000000248
100
AcDbArc
 50
93.0
 51
155.0
  0
LINE
  5
197
102
{ACAD_REACTORS
330
5B0
102
}
330
1F
100
AcDbEntity
  8
LC-006-001-----0
 62
     7
370
    50
100
AcDbLine
 10
352.739205
 20
1562.03
 30
0.0
 11
353.227184
 21
1567.607626
 31
0.0
  0
ARC
  5
198
102
{ACAD_REACTORS
330
5B0
102
}
330
1F
100
AcDbEntity
  8
LC-006-001-----0
 62
     7
370
    50
100
AcDbCircle
 10
356.215768
 20
1567.346159
 30
0.0
 40
2.999999999999887
100
AcDbArc
 50
100.0
 51
175.0
  0
LINE
  5
199
102
{ACAD_REACTORS
330
5B0
102
}
330
1F
100
AcDbEntity
  8
LC-006-001-----0
 62
     7
370
    50
100
AcDbLine
 10
355.694824
 20
1570.300583
 30
0.0
 11
364.596034
 21
1571.870106
 31
0.0
  0
LINE
  5
19A
102
{ACAD_REACTORS
330
5B0
102
}
330
1F
100
AcDbEntity
  8
LC-006-001-----0
 62
     7
370
    50
100
AcDbLine
 10
366.54591
 20
1574.075495
 30
0.0
 11
432.041694
 21
1577.507984
 31
0.0
  0
LINE
  5
19B
102
{ACAD_REACTORS
330
5B0
102
}
330
1F
100
AcDbEntity
  8
LC-006-001-----0
 62
     7
370
    50
100
AcDbLine
 10
455.596343
 20
1599.86051
 30
0.0
 11
472.733694
 21
1762.911512
 31
0.0
  0
LINE
  5
19C
102
{ACAD_REACTORS
330
5B0
102
}
330
1F
100
AcDbEntity
  8
LC-006-001-----0
 62
     7
370
    50
100
AcDbLine
 10
461.827234
 20
1592.176079
 30
0.0
 11
479.590243
 21
1761.179813
 31
0.0
  0
LINE
  5
19D
102
{ACAD_REACTORS
330
5B0
102
}
330
1F
100
AcDbEntity
  8
LC-006-001-----0
 62
     7
370
    50
100
AcDbLine
 10
493.427815
 20
1771.03
 30
0.0
 11
490.529983
 21
1771.03
 31
0.0
  0
LINE
  5
19E
102
{ACAD_REACTORS
330
5B0
102
}
330
1F
100
AcDbEntity
  8
LC-006-001-----0
 62
     7
370
    50
100
AcDbLine
 10
493.427815
 20
1771.03
 30
0.0
 11
493.427815
 21
1772.03
 31
0.0
  0
LINE
  5
19F
102
{ACAD_REACTORS
330
5B0
102
}
330
1F
100
AcDbEntity
  8
LC-006-001-----0
 62
     7
370
    50
100
AcDbLine
 10
507.427815
 20
1772.03
 30
0.0
 11
493.427815
 21
1772.03
 31
0.0
  0
LINE
  5
1A0
102
{ACAD_REACTORS
330
5B0
102
}
330
1F
100
AcDbEntity
  8
LC-006-001-----0
 62
     7
370
    50
100
AcDbLine
 10
507.427815
 20
1772.03
 30
0.0
 11
507.068425
 21
1777.169513
 31
0.0
  0
ARC
  5
1A1
102
{ACAD_REACTORS
330
5B0
102
}
330
1F
100
AcDbEntity
  8
LC-006-001-----0
 62
     7
370
    50
100
AcDbCircle
 10
505.073297
 20
1777.03
 30
0.0
 40
1.999999999999994
100
AcDbArc
 50
4.0
 51
90.0
  0
LINE
  5
1A2
102
{ACAD_REACTORS
330
5B0
102
}
330
1F
100
AcDbEntity
  8
LC-006-001-----0
 62
     7
370
    50
100
AcDbLine
 10
505.073297
 20
1779.03
 30
0.0
 11
490.635088
 21
1779.03
 31
0.0
  0
LINE
  5
1A3
102
{ACAD_REACTORS
330
5B0
102
}
330
1F
100
AcDbEntity
  8
LC-006-001-----0
 62
     7
370
    50
100
AcDbLine
 10
374.131575
 20
1566.462064
 30
0.0
 11
438.272586
 21
1569.823552
 31
0.0
  0
ARC
  5
1A4
102
{ACAD_REACTORS
330
5B0
102
}
330
1F
100
AcDbEntity
  8
LC-006-001-----0
 62
     7
370
    50
100
AcDbCircle
 10
364.387656
 20
1573.051875
 30
0.0
 40
1.199999999999947
100
AcDbArc
 50
280.0
 51
355.0
  0
ARC
  5
1A5
102
{ACAD_REACTORS
330
5B0
102
}
330
1F
100
AcDbEntity
  8
LC-006-001-----0
 62
     7
370
    50
100
AcDbCircle
 10
366.598246
 20
1573.076865
 30
0.0
 40
0.9999999999998316
100
AcDbArc
 50
93.0
 51
175.0
  0
LINE
  5
1A6
102
{ACAD_REACTORS
330
5B0
102
}
330
1F
100
AcDbEntity
  8
LC-002-002-----0
 62
     7
370
    50
100
AcDbLine
 10
365.58309
 20
1572.947288
 30
0.0
 11
365.602051
 21
1573.164021
 31
0.0
  0
LINE
  5
1A7
102
{ACAD_REACTORS
330
5B0
102
}
330
1F
100
AcDbEntity
  8
LC-002-002-----0
 62
     7
370
    50
100
AcDbLine
 10
370.752672
 20
1562.03
 30
0.0
 11
352.739205
 21
1562.03
 31
0.0
  0
INSERT
  5
1C1
102
{ACAD_REACTORS
330
5B0
102
}
330
1F
100
AcDbEntity
  8
LC-009-003-----0
 62
     7
370
    25
100
AcDbBlockReference
  2
LCDIM2
 10
0.0
 20
0.0
 30
0.0
  0
ARC
  5
1C2
102
{ACAD_REACTORS
330
5B0
102
}
330
1F
100
AcDbEntity
  8
LC-005-001-RND-0
 62
     7
370
    50
100
AcDbCircle
 10
430.733295
 20
1602.473722
 30
0.0
 40
24.99999999999986
100
AcDbArc
 50
273.0
 51
354.0
  0
ARC
  5
1C3
102
{ACAD_REACTORS
330
5B0
102
}
330
1F
100
AcDbEntity
  8
LC-005-001-RND-0
 62
     7
370
    50
100
AcDbCircle
 10
436.964187
 20
1594.78929
 30
0.0
 40
25.00000000000007
100
AcDbArc
 50
273.0
 51
354.0
  0
ARC
  5
1C4
102
{ACAD_REACTORS
330
5B0
102
}
330
1F
100
AcDbEntity
  8
LC-006-001-----0
 62
     7
370
    50
100
AcDbCircle
 10
246.339026
 20
1564.03
 30
0.0
 40
2.999999999999941
100
AcDbArc
 50
205.0
 51
221.810315
  0
LINE
  5
1C5
102
{ACAD_REACTORS
330
5B0
102
}
330
1F
100
AcDbEntity
  8
LC-006-001-----0
 62
     7
370
    50
100
AcDbLine
 10
242.431999
 20
1565.310041
 30
0.0
 11
243.620102
 21
1562.762145
 31
0.0
  0
ARC
  5
1C6
102
{ACAD_REACTORS
330
5B0
102
}
330
1F
100
AcDbEntity
  8
LC-005-001-RND-0
 62
     7
370
    50
100
AcDbCircle
 10
240.619383
 20
1564.464805
 30
0.0
 40
1.999999999999933
100
AcDbArc
 50
25.0
 51
87.0
  0
LINE
  5
1C7
102
{ACAD_REACTORS
330
5B0
102
}
330
1F
100
AcDbEntity
  8
LC-006-001-----0
 62
     7
370
    50
100
AcDbLine
 10
262.116425
 20
1562.03
 30
0.0
 11
261.628446
 21
1567.607626
 31
0.0
  0
ARC
  5
1C8
102
{ACAD_REACTORS
330
5B0
102
}
330
1F
100
AcDbEntity
  8
LC-006-001-----0
 62
     7
370
    50
100
AcDbCircle
 10
258.639862
 20
1567.346159
 30
0.0
 40
3.000000000000087
100
AcDbArc
 50
5.0
 51
80.0
  0
LINE
  5
1C9
102
{ACAD_REACTORS
330
5B0
102
}
330
1F
100
AcDbEntity
  8
LC-006-001-----0
 62
     7
370
    50
100
AcDbLine
 10
259.160806
 20
1570.300583
 30
0.0
 11
250.259596
 21
1571.870106
 31
0.0
  0
LINE
  5
1CA
102
{ACAD_REACTORS
330
5B0
102
}
330
1F
100
AcDbEntity
  8
LC-006-001-----0
 62
     7
370
    50
100
AcDbLine
 10
248.309719
 20
1574.075495
 30
0.0
 11
182.813936
 21
1577.507984
 31
0.0
  0
LINE
  5
1CB
102
{ACAD_REACTORS
330
5B0
102
}
330
1F
100
AcDbEntity
  8
LC-006-001-----0
 62
     7
370
    50
100
AcDbLine
 10
159.259287
 20
1599.86051
 30
0.0
 11
142.121936
 21
1762.911512
 31
0.0
  0
LINE
  5
1CC
102
{ACAD_REACTORS
330
5B0
102
}
330
1F
100
AcDbEntity
  8
LC-006-001-----0
 62
     7
370
    50
100
AcDbLine
 10
153.028395
 20
1592.176079
 30
0.0
 11
135.265387
 21
1761.179813
 31
0.0
  0
LINE
  5
1CD
102
{ACAD_REACTORS
330
5B0
102
}
330
1F
100
AcDbEntity
  8
LC-006-001-----0
 62
     7
370
    50
100
AcDbLine
 10
117.427815
 20
1771.03
 30
0.0
 11
124.325646
 21
1771.03
 31
0.0
  0
LINE
  5
1CE
102
{ACAD_REACTORS
330
5B0
102
}
330
1F
100
AcDbEntity
  8
LC-006-001-----0
 62
     7
370
    50
100
AcDbLine
 10
117.427815
 20
1771.03
 30
0.0
 11
117.427815
 21
1772.03
 31
0.0
  0
LINE
  5
1CF
102
{ACAD_REACTORS
330
5B0
102
}
330
1F
100
AcDbEntity
  8
LC-006-001-----0
 62
     7
370
    50
100
AcDbLine
 10
107.427815
 20
1772.03
 30
0.0
 11
117.427815
 21
1772.03
 31
0.0
  0
LINE
  5
1D0
102
{ACAD_REACTORS
330
5B0
102
}
330
1F
100
AcDbEntity
  8
LC-006-001-----0
 62
     7
370
    50
100
AcDbLine
 10
107.427815
 20
1772.03
 30
0.0
 11
107.787205
 21
1777.169513
 31
0.0
  0
ARC
  5
1D1
102
{ACAD_REACTORS
330
5B0
102
}
330
1F
100
AcDbEntity
  8
LC-006-001-----0
 62
     7
370
    50
100
AcDbCircle
 10
109.782333
 20
1777.03
 30
0.0
 40
2.0
100
AcDbArc
 50
90.0
 51
176.0
  0
LINE
  5
1D2
102
{ACAD_REACTORS
330
5B0
102
}
330
1F
100
AcDbEntity
  8
LC-006-001-----0
 62
     7
370
    50
100
AcDbLine
 10
109.782333
 20
1779.03
 30
0.0
 11
124.220542
 21
1779.03
 31
0.0
  0
LINE
  5
1D3
102
{ACAD_REACTORS
330
5B0
102
}
330
1F
100
AcDbEntity
  8
LC-006-001-----0
 62
     7
370
    50
100
AcDbLine
 10
240.724055
 20
1566.462064
 30
0.0
 11
176.583044
 21
1569.823552
 31
0.0
  0
ARC
  5
1D4
102
{ACAD_REACTORS
330
5B0
102
}
330
1F
100
AcDbEntity
  8
LC-006-001-----0
 62
     7
370
    50
100
AcDbCircle
 10
250.467973
 20
1573.051875
 30
0.0
 40
1.199999999999929
100
AcDbArc
 50
185.0
 51
260.0
  0
ARC
  5
1D5
102
{ACAD_REACTORS
330
5B0
102
}
330
1F
100
AcDbEntity
  8
LC-006-001-----0
 62
     7
370
    50
100
AcDbCircle
 10
248.257383
 20
1573.076865
 30
0.0
 40
1.000000000000067
100
AcDbArc
 50
5.0
 51
87.0
  0
LINE
  5
1D6
102
{ACAD_REACTORS
330
5B0
102
}
330
1F
100
AcDbEntity
  8
LC-002-002-----0
 62
     7
370
    50
100
AcDbLine
 10
249.27254
 20
1572.947288
 30
0.0
 11
249.253578
 21
1573.164021
 31
0.0
  0
LINE
  5
1D7
102
{ACAD_REACTORS
330
5B0
102
}
330
1F
100
AcDbEntity
  8
LC-002-002-----0
 62
     7
370
    50
100
AcDbLine
 10
244.102958
 20
1562.03
 30
0.0
 11
262.116425
 21
1562.03
 31
0.0
  0
ARC
  5
1D8
102
{ACAD_REACTORS
330
5B0
102
}
330
1F
100
AcDbEntity
  8
LC-005-001-RND-0
 62
     7
370
    50
100
AcDbCircle
 10
184.122334
 20
1602.473722
 30
0.0
 40
25.0000000000001
100
AcDbArc
 50
186.0
 51
267.0
  0
ARC
  5
1D9
102
{ACAD_REACTORS
330
5B0
102
}
330
1F
100
AcDbEntity
  8
LC-005-001-RND-0
 62
     7
370
    50
100
AcDbCircle
 10
177.891443
 20
1594.78929
 30
0.0
 40
25.00000000000007
100
AcDbArc
 50
186.0
 51
267.0
  0
LINE
  5
1DA
102
{ACAD_REACTORS
330
5B0
102
}
330
1F
100
AcDbEntity
  8
LC-004-006-MLN-0
 62
     7
370
    25
100
AcDbLine
 10
307.427815
 20
1577.03
 30
0.0
 11
307.427815
 21
1559.03
 31
0.0
  0
LINE
  5
1DB
102
{ACAD_REACTORS
330
5B9
102
}
330
1F
100
AcDbEntity
  8
LC-002-002-----0
 62
     7
370
    50
100
AcDbLine
 10
-3.514686
 20
132.63817
 30
0.0
 11
-3.514686
 21
312.63817
 31
0.0
  0
LINE
  5
1DC
102
{ACAD_REACTORS
330
5B9
102
}
330
1F
100
AcDbEntity
  8
LC-002-002-----0
 62
     7
370
    50
100
AcDbLine
 10
1.485314
 20
317.63817
 30
0.0
 11
181.485314
 21
317.63817
 31
0.0
  0
LINE
  5
1DD
102
{ACAD_REACTORS
330
5B9
102
}
330
1F
100
AcDbEntity
  8
LC-002-002-----0
 62
     7
370
    50
100
AcDbLine
 10
186.485314
 20
312.63817
 30
0.0
 11
186.485314
 21
132.63817
 31
0.0
  0
LINE
  5
1DE
102
{ACAD_REACTORS
330
5B9
102
}
330
1F
100
AcDbEntity
  8
LC-002-002-----0
 62
     7
370
    50
100
AcDbLine
 10
181.485314
 20
127.63817
 30
0.0
 11
1.485314
 21
127.63817
 31
0.0
  0
ARC
  5
1E0
102
{ACAD_REACTORS
330
5B9
102
}
330
1F
100
AcDbEntity
  8
LC-010-002-RND-0
 62
     7
370
    50
100
AcDbCircle
 10
1.485314
 20
312.63817
 30
0.0
 40
5.0
100
AcDbArc
 50
90.0
 51
180.0
  0
ARC
  5
1E1
102
{ACAD_REACTORS
330
5B9
102
}
330
1F
100
AcDbEntity
  8
LC-010-002-RND-0
 62
     7
370
    50
100
AcDbCircle
 10
181.485314
 20
312.63817
 30
0.0
 40
5.0
100
AcDbArc
 50
0.0
 51
90.0
  0
ARC
  5
1E2
102
{ACAD_REACTORS
330
5B9
102
}
330
1F
100
AcDbEntity
  8
LC-010-002-RND-0
 62
     7
370
    50
100
AcDbCircle
 10
181.485314
 20
132.63817
 30
0.0
 40
5.0
100
AcDbArc
 50
270.0
 51
0.0
  0
ARC
  5
1E3
102
{ACAD_REACTORS
330
5B9
102
}
330
1F
100
AcDbEntity
  8
LC-010-002-RND-0
 62
     7
370
    50
100
AcDbCircle
 10
1.485314
 20
132.63817
 30
0.0
 40
5.0
100
AcDbArc
 50
180.0
 51
270.0
  0
INSERT
  5
1FD
102
{ACAD_REACTORS
330
5B9
102
}
330
1F
100
AcDbEntity
  8
LC-009-003-----0
 62
     7
370
    25
100
AcDbBlockReference
  2
LCDIM3
 10
0.0
 20
0.0
 30
0.0
  0
INSERT
  5
217
102
{ACAD_REACTORS
330
5B9
102
}
330
1F
100
AcDbEntity
  8
LC-009-003-----0
 62
     7
370
    25
100
AcDbBlockReference
  2
LCDIM4
 10
0.0
 20
0.0
 30
0.0
  0
INSERT
  5
226
102
{ACAD_REACTORS
330
5B9
102
}
330
1F
100
AcDbEntity
  8
LC-009-003-----0
 62
     7
370
    25
100
AcDbBlockReference
  2
LCDIM5
 10
0.0
 20
0.0
 30
0.0
  0
TEXT
  5
228
102
{ACAD_REACTORS
330
5B9
102
}
330
1F
100
AcDbEntity
  8
LC-011-004-----0
 62
     7
370
    35
100
AcDbText
 10
-67.166319
 20
416.339488
 30
0.0
 40
35.0
  1
Ausschnitt übergreifend M 1:20
 41
0.7
  7
LCTX0-400-0-0pDIN-Schrift
100
AcDbText
  0
LINE
  5
229
102
{ACAD_REACTORS
330
5B8
102
}
330
1F
100
AcDbEntity
  8
LC-002-002-----0
 62
     7
370
    25
100
AcDbLine
 10
822.561099
 20
972.741863
 30
0.0
 11
822.561099
 21
1043.738137
 31
0.0
  0
LINE
  5
22A
102
{ACAD_REACTORS
330
5B6
102
}
330
1F
100
AcDbEntity
  8
LC-002-002-----0
 62
     7
370
    25
100
AcDbLine
 10
740.38252
 20
1182.568533
 30
0.0
 11
740.974644
 21
1183.705994
 31
0.0
  0
LINE
  5
22B
102
{ACAD_REACTORS
330
5B6
102
}
330
1F
100
AcDbEntity
  8
LC-002-002-----0
 62
     7
370
    25
100
AcDbLine
 10
742.69152
 20
1182.568533
 30
0.0
 11
743.283644
 21
1183.705994
 31
0.0
  0
LINE
  5
22C
102
{ACAD_REACTORS
330
5B6
102
}
330
1F
100
AcDbEntity
  8
LC-002-002-----0
 62
     7
370
    25
100
AcDbLine
 10
745.00052
 20
1182.568533
 30
0.0
 11
745.592644
 21
1183.705994
 31
0.0
  0
LINE
  5
22D
102
{ACAD_REACTORS
330
5B6
102
}
330
1F
100
AcDbEntity
  8
LC-002-002-----0
 62
     7
370
    25
100
AcDbLine
 10
747.30952
 20
1182.568533
 30
0.0
 11
747.901644
 21
1183.705994
 31
0.0
  0
LINE
  5
22E
102
{ACAD_REACTORS
330
5B6
102
}
330
1F
100
AcDbEntity
  8
LC-002-002-----0
 62
     7
370
    25
100
AcDbLine
 10
741.53746
 20
1136.290647
 30
0.0
 11
742.129584
 21
1137.428107
 31
0.0
  0
LINE
  5
22F
102
{ACAD_REACTORS
330
5B6
102
}
330
1F
100
AcDbEntity
  8
LC-002-002-----0
 62
     7
370
    25
100
AcDbLine
 10
743.84646
 20
1136.290647
 30
0.0
 11
744.438584
 21
1137.428107
 31
0.0
  0
LINE
  5
230
102
{ACAD_REACTORS
330
5B6
102
}
330
1F
100
AcDbEntity
  8
LC-002-002-----0
 62
     7
370
    25
100
AcDbLine
 10
746.15546
 20
1136.290647
 30
0.0
 11
746.747584
 21
1137.428107
 31
0.0
  0
LINE
  5
231
102
{ACAD_REACTORS
330
5B6
102
}
330
1F
100
AcDbEntity
  8
LC-002-002-----0
 62
     7
370
    25
100
AcDbLine
 10
748.46446
 20
1136.290647
 30
0.0
 11
749.056584
 21
1137.428107
 31
0.0
  0
LINE
  5
232
102
{ACAD_REACTORS
330
5B6
102
}
330
1F
100
AcDbEntity
  8
LC-002-002-----0
 62
     7
370
    25
100
AcDbLine
 10
770.601552
 20
1182.39832
 30
0.0
 11
749.337552
 21
1182.39832
 31
0.0
  0
LINE
  5
233
102
{ACAD_REACTORS
330
5B6
102
}
330
1F
100
AcDbEntity
  8
LC-002-002-----0
 62
     7
370
    25
100
AcDbLine
 10
740.101552
 20
1182.39832
 30
0.0
 11
739.601552
 21
1182.39832
 31
0.0
  0
LINE
  5
234
102
{ACAD_REACTORS
330
5B6
102
}
330
1F
100
AcDbEntity
  8
LC-002-002-----0
 62
     7
370
    25
100
AcDbLine
 10
739.601552
 20
1137.59832
 30
0.0
 11
739.601552
 21
1182.39832
 31
0.0
  0
LINE
  5
235
102
{ACAD_REACTORS
330
5B6
102
}
330
1F
100
AcDbEntity
  8
LC-002-002-----0
 62
     7
370
    25
100
AcDbLine
 10
770.601552
 20
1137.620804
 30
0.0
 11
766.601552
 21
1137.620804
 31
0.0
  0
LINE
  5
236
102
{ACAD_REACTORS
330
5B6
102
}
330
1F
100
AcDbEntity
  8
LC-002-002-----0
 62
     7
370
    25
100
AcDbLine
 10
766.601552
 20
1137.59832
 30
0.0
 11
749.337552
 21
1137.59832
 31
0.0
  0
LINE
  5
237
102
{ACAD_REACTORS
330
5B6
102
}
330
1F
100
AcDbEntity
  8
LC-002-002-----0
 62
     7
370
    25
100
AcDbLine
 10
740.101552
 20
1137.59832
 30
0.0
 11
739.601552
 21
1137.59832
 31
0.0
  0
LINE
  5
238
102
{ACAD_REACTORS
330
5B7
102
}
330
1F
100
AcDbEntity
  8
LC-002-002-----0
 62
     7
370
    25
100
AcDbLine
 10
813.185106
 20
1059.083603
 30
0.0
 11
813.001552
 21
1059.083603
 31
0.0
  0
LINE
  5
239
102
{ACAD_REACTORS
330
5B7
102
}
330
1F
100
AcDbEntity
  8
LC-002-002-----0
 62
     7
370
    25
100
AcDbLine
 10
768.201552
 20
1034.74
 30
0.0
 11
768.201552
 21
1059.083652
 31
0.0
  0
LINE
  5
23A
102
{ACAD_REACTORS
330
5B7
102
}
330
1F
100
AcDbEntity
  8
LC-002-002-----0
 62
     7
370
    25
100
AcDbLine
 10
768.601552
 20
1008.24
 30
0.0
 11
768.601552
 21
1034.34
 31
0.0
  0
LINE
  5
23B
102
{ACAD_REACTORS
330
5B6
102
}
330
1F
100
AcDbEntity
  8
LC-002-002-----0
 62
     7
370
    25
100
AcDbLine
 10
770.627192
 20
1133.59832
 30
0.0
 11
770.627192
 21
1137.645693
 31
0.0
  0
ARC
  5
23C
102
{ACAD_REACTORS
330
5B7
102
}
330
1F
100
AcDbEntity
  8
LC-010-002-RND-0
 62
     7
370
    25
100
AcDbCircle
 10
790.601552
 20
1008.24
 30
0.0
 40
22.0
100
AcDbArc
 50
180.0
 51
270.0
  0
LINE
  5
23D
102
{ACAD_REACTORS
330
5B6
102
}
330
1F
100
AcDbEntity
  8
LC-002-002-----0
 62
     7
370
    25
100
AcDbLine
 10
810.601552
 20
1082.24
 30
0.0
 11
810.601552
 21
1141.99932
 31
0.0
  0
LINE
  5
23E
102
{ACAD_REACTORS
330
5B7
102
}
330
1F
100
AcDbEntity
  8
LC-002-002-----0
 62
     7
370
    25
100
AcDbLine
 10
813.001552
 20
1036.693149
 30
0.0
 11
813.001552
 21
1059.083652
 31
0.0
  0
LINE
  5
23F
102
{ACAD_REACTORS
330
5B6
102
}
330
1F
100
AcDbEntity
  8
LC-002-002-----0
 62
     7
370
    25
100
AcDbLine
 10
773.00368
 20
1179.996192
 30
0.0
 11
770.601812
 21
1182.39806
 31
0.0
  0
LINE
  5
240
102
{ACAD_REACTORS
330
5B7
102
}
330
1F
100
AcDbEntity
  8
LC-002-002-----0
 62
     7
370
    25
100
AcDbLine
 10
766.150062
 20
1061.681781
 30
0.0
 11
767.650056
 21
1062.547803
 31
0.0
  0
LINE
  5
241
102
{ACAD_REACTORS
330
5B7
102
}
330
1F
100
AcDbEntity
  8
LC-002-002-----0
 62
     7
370
    25
100
AcDbLine
 10
766.150062
 20
1059.94973
 30
0.0
 11
767.650056
 21
1060.815752
 31
0.0
  0
LINE
  5
242
102
{ACAD_REACTORS
330
5B7
102
}
330
1F
100
AcDbEntity
  8
LC-002-002-----0
 62
     7
370
    25
100
AcDbLine
 10
813.185106
 20
1062.547705
 30
0.0
 11
814.384197
 21
1063.24
 31
0.0
  0
LINE
  5
243
102
{ACAD_REACTORS
330
5B7
102
}
330
1F
100
AcDbEntity
  8
LC-002-002-----0
 62
     7
370
    25
100
AcDbLine
 10
813.185106
 20
1060.815654
 30
0.0
 11
814.685101
 21
1061.681676
 31
0.0
  0
LINE
  5
244
102
{ACAD_REACTORS
330
5B7
102
}
330
1F
100
AcDbEntity
  8
LC-002-002-----0
 62
     7
370
    25
100
AcDbLine
 10
813.185106
 20
1059.083603
 30
0.0
 11
814.685101
 21
1059.949625
 31
0.0
  0
LINE
  5
245
102
{ACAD_REACTORS
330
5B6
102
}
330
1F
100
AcDbEntity
  8
LC-002-002-----0
 62
     7
370
    25
100
AcDbLine
 10
748.46446
 20
1183.705994
 30
0.0
 11
749.056584
 21
1182.568533
 31
0.0
  0
LINE
  5
246
102
{ACAD_REACTORS
330
5B6
102
}
330
1F
100
AcDbEntity
  8
LC-002-002-----0
 62
     7
370
    25
100
AcDbLine
 10
746.15546
 20
1183.705994
 30
0.0
 11
746.747584
 21
1182.568533
 31
0.0
  0
LINE
  5
247
102
{ACAD_REACTORS
330
5B6
102
}
330
1F
100
AcDbEntity
  8
LC-002-002-----0
 62
     7
370
    25
100
AcDbLine
 10
743.84646
 20
1183.705994
 30
0.0
 11
744.438584
 21
1182.568533
 31
0.0
  0
LINE
  5
248
102
{ACAD_REACTORS
330
5B6
102
}
330
1F
100
AcDbEntity
  8
LC-002-002-----0
 62
     7
370
    25
100
AcDbLine
 10
741.53746
 20
1183.705994
 30
0.0
 11
742.129584
 21
1182.568533
 31
0.0
  0
LINE
  5
249
102
{ACAD_REACTORS
330
5B6
102
}
330
1F
100
AcDbEntity
  8
LC-002-002-----0
 62
     7
370
    25
100
AcDbLine
 10
747.30952
 20
1137.428107
 30
0.0
 11
747.901644
 21
1136.290647
 31
0.0
  0
LINE
  5
24A
102
{ACAD_REACTORS
330
5B6
102
}
330
1F
100
AcDbEntity
  8
LC-002-002-----0
 62
     7
370
    25
100
AcDbLine
 10
745.00052
 20
1137.428107
 30
0.0
 11
745.592644
 21
1136.290647
 31
0.0
  0
LINE
  5
24B
102
{ACAD_REACTORS
330
5B6
102
}
330
1F
100
AcDbEntity
  8
LC-002-002-----0
 62
     7
370
    25
100
AcDbLine
 10
742.69152
 20
1137.428107
 30
0.0
 11
743.283644
 21
1136.290647
 31
0.0
  0
LINE
  5
24C
102
{ACAD_REACTORS
330
5B6
102
}
330
1F
100
AcDbEntity
  8
LC-002-002-----0
 62
     7
370
    25
100
AcDbLine
 10
740.38252
 20
1137.428107
 30
0.0
 11
740.974644
 21
1136.290647
 31
0.0
  0
LINE
  5
24D
102
{ACAD_REACTORS
330
5B7
102
}
330
1F
100
AcDbEntity
  8
LC-002-002-----0
 62
     7
370
    25
100
AcDbLine
 10
813.001552
 20
1036.693149
 30
0.0
 11
814.721582
 21
1037.007385
 31
0.0
  0
LINE
  5
24E
102
{ACAD_REACTORS
330
5B7
102
}
330
1F
100
AcDbEntity
  8
LC-002-002-----0
 62
     7
370
    25
100
AcDbLine
 10
821.857855
 20
1043.738137
 30
0.0
 11
822.561099
 21
1043.738137
 31
0.0
  0
LINE
  5
24F
102
{ACAD_REACTORS
330
5B7
102
}
330
1F
100
AcDbEntity
  8
LC-002-002-----0
 62
     7
370
    25
100
AcDbLine
 10
814.685101
 20
1061.681781
 30
0.0
 11
813.185106
 21
1062.547803
 31
0.0
  0
LINE
  5
250
102
{ACAD_REACTORS
330
5B7
102
}
330
1F
100
AcDbEntity
  8
LC-002-002-----0
 62
     7
370
    25
100
AcDbLine
 10
814.685101
 20
1059.94973
 30
0.0
 11
813.185106
 21
1060.815752
 31
0.0
  0
LINE
  5
251
102
{ACAD_REACTORS
330
5B7
102
}
330
1F
100
AcDbEntity
  8
LC-002-002-----0
 62
     7
370
    25
100
AcDbLine
 10
767.650056
 20
1062.547705
 30
0.0
 11
766.450966
 21
1063.24
 31
0.0
  0
LINE
  5
252
102
{ACAD_REACTORS
330
5B7
102
}
330
1F
100
AcDbEntity
  8
LC-002-002-----0
 62
     7
370
    25
100
AcDbLine
 10
767.650056
 20
1060.815654
 30
0.0
 11
766.150062
 21
1061.681676
 31
0.0
  0
LINE
  5
253
102
{ACAD_REACTORS
330
5B7
102
}
330
1F
100
AcDbEntity
  8
LC-002-002-----0
 62
     7
370
    25
100
AcDbLine
 10
767.650056
 20
1059.083603
 30
0.0
 11
766.150062
 21
1059.949625
 31
0.0
  0
LINE
  5
254
102
{ACAD_REACTORS
330
5B7
102
}
330
1F
100
AcDbEntity
  8
LC-002-002-----0
 62
     7
370
    25
100
AcDbLine
 10
790.601552
 20
986.24
 30
0.0
 11
804.292737
 21
986.24
 31
0.0
  0
LINE
  5
255
102
{ACAD_REACTORS
330
5B7
102
}
330
1F
100
AcDbEntity
  8
LC-002-002-----0
 62
     7
370
    25
100
AcDbLine
 10
821.857855
 20
972.741863
 30
0.0
 11
822.561099
 21
972.741863
 31
0.0
  0
LINE
  5
256
102
{ACAD_REACTORS
330
5B7
102
}
330
1F
100
AcDbEntity
  8
LC-002-002-----0
 62
     7
370
    25
100
AcDbLine
 10
812.102719
 20
979.951061
 30
0.0
 11
814.721582
 21
979.472615
 31
0.0
  0
LINE
  5
257
102
{ACAD_REACTORS
330
5B7
102
}
330
1F
100
AcDbEntity
  8
LC-002-002-----0
 62
     7
370
    25
100
AcDbLine
 10
768.201579
 20
1034.739973
 30
0.0
 11
768.60166
 21
1034.339892
 31
0.0
  0
ARC
  5
258
102
{ACAD_REACTORS
330
5B6
102
}
330
1F
100
AcDbEntity
  8
LC-002-002-----0
 62
     7
370
    25
100
AcDbCircle
 10
749.337552
 20
1137.28132
 30
0.0
 40
0.3170000000000073
100
AcDbArc
 50
90.0
 51
152.36046
  0
ARC
  5
259
102
{ACAD_REACTORS
330
5B6
102
}
330
1F
100
AcDbEntity
  8
LC-002-002-----0
 62
     7
370
    25
100
AcDbCircle
 10
749.337552
 20
1182.71532
 30
0.0
 40
0.3169999999998497
100
AcDbArc
 50
207.567177
 51
270.0
  0
ARC
  5
25A
102
{ACAD_REACTORS
330
5B6
102
}
330
1F
100
AcDbEntity
  8
LC-002-002-----0
 62
     7
370
    25
100
AcDbCircle
 10
748.183052
 20
1136.436588
 30
0.0
 40
0.3170000000002538
100
AcDbArc
 50
207.317979
 51
332.682021
  0
ARC
  5
25B
102
{ACAD_REACTORS
330
5B6
102
}
330
1F
100
AcDbEntity
  8
LC-002-002-----0
 62
     7
370
    25
100
AcDbCircle
 10
748.183052
 20
1183.560053
 30
0.0
 40
0.3169999999998988
100
AcDbArc
 50
27.394588
 51
152.605412
  0
ARC
  5
25C
102
{ACAD_REACTORS
330
5B6
102
}
330
1F
100
AcDbEntity
  8
LC-002-002-----0
 62
     7
370
    25
100
AcDbCircle
 10
747.028552
 20
1182.71532
 30
0.0
 40
0.3169999999998497
100
AcDbArc
 50
207.567177
 51
332.432823
  0
ARC
  5
25D
102
{ACAD_REACTORS
330
5B6
102
}
330
1F
100
AcDbEntity
  8
LC-002-002-----0
 62
     7
370
    25
100
AcDbCircle
 10
747.028552
 20
1137.28132
 30
0.0
 40
0.3169999999998827
100
AcDbArc
 50
27.63954
 51
152.36046
  0
ARC
  5
25E
102
{ACAD_REACTORS
330
5B6
102
}
330
1F
100
AcDbEntity
  8
LC-002-002-----0
 62
     7
370
    25
100
AcDbCircle
 10
745.874052
 20
1136.436588
 30
0.0
 40
0.3170000000000585
100
AcDbArc
 50
207.317979
 51
332.682021
  0
ARC
  5
25F
102
{ACAD_REACTORS
330
5B6
102
}
330
1F
100
AcDbEntity
  8
LC-002-002-----0
 62
     7
370
    25
100
AcDbCircle
 10
745.874052
 20
1183.560053
 30
0.0
 40
0.317000000000086
100
AcDbArc
 50
27.394588
 51
152.605412
  0
ARC
  5
260
102
{ACAD_REACTORS
330
5B6
102
}
330
1F
100
AcDbEntity
  8
LC-002-002-----0
 62
     7
370
    25
100
AcDbCircle
 10
744.719552
 20
1182.71532
 30
0.0
 40
0.3170000000000334
100
AcDbArc
 50
207.567177
 51
332.432823
  0
ARC
  5
261
102
{ACAD_REACTORS
330
5B6
102
}
330
1F
100
AcDbEntity
  8
LC-002-002-----0
 62
     7
370
    25
100
AcDbCircle
 10
744.719552
 20
1137.28132
 30
0.0
 40
0.3169999999998827
100
AcDbArc
 50
27.63954
 51
152.36046
  0
ARC
  5
262
102
{ACAD_REACTORS
330
5B6
102
}
330
1F
100
AcDbEntity
  8
LC-002-002-----0
 62
     7
370
    25
100
AcDbCircle
 10
743.565052
 20
1136.436588
 30
0.0
 40
0.3170000000000585
100
AcDbArc
 50
207.317979
 51
332.682021
  0
ARC
  5
263
102
{ACAD_REACTORS
330
5B6
102
}
330
1F
100
AcDbEntity
  8
LC-002-002-----0
 62
     7
370
    25
100
AcDbCircle
 10
743.565052
 20
1183.560053
 30
0.0
 40
0.3169999999998988
100
AcDbArc
 50
27.394588
 51
152.605412
  0
ARC
  5
264
102
{ACAD_REACTORS
330
5B6
102
}
330
1F
100
AcDbEntity
  8
LC-002-002-----0
 62
     7
370
    25
100
AcDbCircle
 10
742.410552
 20
1182.71532
 30
0.0
 40
0.3170000000000334
100
AcDbArc
 50
207.567177
 51
332.432823
  0
ARC
  5
265
102
{ACAD_REACTORS
330
5B6
102
}
330
1F
100
AcDbEntity
  8
LC-002-002-----0
 62
     7
370
    25
100
AcDbCircle
 10
742.410552
 20
1137.28132
 30
0.0
 40
0.3169999999998827
100
AcDbArc
 50
27.63954
 51
152.36046
  0
ARC
  5
266
102
{ACAD_REACTORS
330
5B6
102
}
330
1F
100
AcDbEntity
  8
LC-002-002-----0
 62
     7
370
    25
100
AcDbCircle
 10
741.256052
 20
1136.436588
 30
0.0
 40
0.3170000000000518
100
AcDbArc
 50
207.317979
 51
332.682021
  0
ARC
  5
267
102
{ACAD_REACTORS
330
5B6
102
}
330
1F
100
AcDbEntity
  8
LC-002-002-----0
 62
     7
370
    25
100
AcDbCircle
 10
741.256052
 20
1183.560053
 30
0.0
 40
0.3169999999998988
100
AcDbArc
 50
27.394588
 51
152.605412
  0
ARC
  5
268
102
{ACAD_REACTORS
330
5B6
102
}
330
1F
100
AcDbEntity
  8
LC-002-002-----0
 62
     7
370
    25
100
AcDbCircle
 10
740.101552
 20
1137.28132
 30
0.0
 40
0.3169999999998923
100
AcDbArc
 50
27.63954
 51
90.0
  0
ARC
  5
269
102
{ACAD_REACTORS
330
5B6
102
}
330
1F
100
AcDbEntity
  8
LC-002-002-----0
 62
     7
370
    25
100
AcDbCircle
 10
740.101552
 20
1182.71532
 30
0.0
 40
0.3170000000000073
100
AcDbArc
 50
270.0
 51
332.432823
  0
ARC
  5
26A
102
{ACAD_REACTORS
330
5B6
102
}
330
1F
100
AcDbEntity
  8
LC-002-002-----0
 62
     7
370
    25
100
AcDbCircle
 10
772.601552
 20
1141.99832
 30
0.0
 40
37.99999999999996
100
AcDbArc
 50
0.000006
 51
89.393653
  0
ARC
  5
26B
102
{ACAD_REACTORS
330
5B7
102
}
330
1F
100
AcDbEntity
  8
LC-002-002-----0
 62
     7
370
    25
100
AcDbCircle
 10
813.270909
 20
986.345225
 30
0.0
 40
6.500000000000005
100
AcDbArc
 50
199.07704
 51
259.645823
  0
ARC
  5
26C
102
{ACAD_REACTORS
330
5B7
102
}
330
1F
100
AcDbEntity
  8
LC-002-002-----0
 62
     7
370
    25
100
AcDbCircle
 10
804.292737
 20
983.24
 30
0.0
 40
3.00000000000008
100
AcDbArc
 50
19.055448
 51
90.0
  0
ARC
  5
26D
102
{ACAD_REACTORS
330
5B7
102
}
330
1F
100
AcDbEntity
  8
LC-002-002-----0
 62
     7
370
    25
100
AcDbCircle
 10
821.857855
 20
974.741863
 30
0.0
 40
2.000000000000076
100
AcDbArc
 50
244.152631
 51
270.0
  0
ARC
  5
26E
102
{ACAD_REACTORS
330
5B7
102
}
330
1F
100
AcDbEntity
  8
LC-002-002-----0
 62
     7
370
    25
100
AcDbCircle
 10
821.857855
 20
1041.738137
 30
0.0
 40
2.0
100
AcDbArc
 50
90.0
 51
115.847369
  0
ARC
  5
26F
102
{ACAD_REACTORS
330
5B7
102
}
330
1F
100
AcDbEntity
  8
LC-002-002-----0
 62
     7
370
    25
100
AcDbCircle
 10
823.601552
 20
978.341796
 30
0.0
 40
5.999999999999973
100
AcDbArc
 50
196.283517
 51
244.155028
  0
ARC
  5
270
102
{ACAD_REACTORS
330
5B7
102
}
330
1F
100
AcDbEntity
  8
LC-002-002-----0
 62
     7
370
    25
100
AcDbCircle
 10
823.601552
 20
1038.138204
 30
0.0
 40
5.999999999999901
100
AcDbArc
 50
115.844972
 51
163.716483
  0
ARC
  5
271
102
{ACAD_REACTORS
330
5B7
102
}
330
1F
100
AcDbEntity
  8
LC-002-002-----0
 62
     7
370
    25
100
AcDbCircle
 10
814.002737
 20
975.537737
 30
0.0
 40
3.999999999999933
100
AcDbArc
 50
16.281751
 51
79.647048
  0
ARC
  5
272
102
{ACAD_REACTORS
330
5B7
102
}
330
1F
100
AcDbEntity
  8
LC-002-002-----0
 62
     7
370
    25
100
AcDbCircle
 10
814.002737
 20
1040.942263
 30
0.0
 40
3.99999999999998
100
AcDbArc
 50
280.352952
 51
343.718249
  0
INSERT
  5
277
102
{ACAD_REACTORS
330
5B6
102
}
330
1F
100
AcDbEntity
  8
LC-002-002-----0
 62
     7
370
    25
100
AcDbBlockReference
  2
POLY1
 10
0.0
 20
0.0
 30
0.0
  0
LINE
  5
278
102
{ACAD_REACTORS
330
5B6
102
}
330
1F
100
AcDbEntity
  8
LC-002-002-----0
 62
     7
370
    25
100
AcDbLine
 10
770.601552
 20
1133.59832
 30
0.0
 11
770.601552
 21
1082.24
 31
0.0
  0
LINE
  5
279
102
{ACAD_REACTORS
330
5B7
102
}
330
1F
100
AcDbEntity
  8
LC-002-002-----0
 62
     7
370
    25
100
AcDbLine
 10
762.896759
 20
1065.74
 30
0.0
 11
762.896759
 21
1063.24
 31
0.0
  0
LINE
  5
27A
102
{ACAD_REACTORS
330
5B7
102
}
330
1F
100
AcDbEntity
  8
LC-002-002-----0
 62
     7
370
    25
100
AcDbLine
 10
763.646759
 20
1066.74
 30
0.0
 11
763.646759
 21
1066.49
 31
0.0
  0
LINE
  5
27B
102
{ACAD_REACTORS
330
5B7
102
}
330
1F
100
AcDbEntity
  8
LC-002-002-----0
 62
     7
370
    25
100
AcDbLine
 10
764.801552
 20
1066.74
 30
0.0
 11
764.801552
 21
1080.24
 31
0.0
  0
LINE
  5
27C
102
{ACAD_REACTORS
330
5B7
102
}
330
1F
100
AcDbEntity
  8
LC-002-002-----0
 62
     7
370
    25
100
AcDbLine
 10
816.401552
 20
1066.74
 30
0.0
 11
816.401552
 21
1080.24
 31
0.0
  0
LINE
  5
27D
102
{ACAD_REACTORS
330
5B7
102
}
330
1F
100
AcDbEntity
  8
LC-002-002-----0
 62
     7
370
    25
100
AcDbLine
 10
817.556345
 20
1066.74
 30
0.0
 11
817.556345
 21
1066.49
 31
0.0
  0
LINE
  5
27E
102
{ACAD_REACTORS
330
5B7
102
}
330
1F
100
AcDbEntity
  8
LC-002-002-----0
 62
     7
370
    25
100
AcDbLine
 10
818.306345
 20
1065.74
 30
0.0
 11
818.306345
 21
1063.24
 31
0.0
  0
LINE
  5
27F
102
{ACAD_REACTORS
330
5B7
102
}
330
1F
100
AcDbEntity
  8
LC-002-002-----0
 62
     7
370
    25
100
AcDbLine
 10
763.64676
 20
1066.490001
 30
0.0
 11
762.89676
 21
1065.740001
 31
0.0
  0
LINE
  5
280
102
{ACAD_REACTORS
330
5B7
102
}
330
1F
100
AcDbEntity
  8
LC-002-002-----0
 62
     7
370
    25
100
AcDbLine
 10
814.401552
 20
1082.24
 30
0.0
 11
766.801552
 21
1082.24
 31
0.0
  0
LINE
  5
281
102
{ACAD_REACTORS
330
5B7
102
}
330
1F
100
AcDbEntity
  8
LC-002-002-----0
 62
     7
370
    25
100
AcDbLine
 10
817.556328
 20
1066.74
 30
0.0
 11
763.646776
 21
1066.74
 31
0.0
  0
LINE
  5
282
102
{ACAD_REACTORS
330
5B7
102
}
330
1F
100
AcDbEntity
  8
LC-002-002-----0
 62
     7
370
    25
100
AcDbLine
 10
818.306345
 20
1063.24
 30
0.0
 11
762.896759
 21
1063.24
 31
0.0
  0
LINE
  5
283
102
{ACAD_REACTORS
330
5B7
102
}
330
1F
100
AcDbEntity
  8
LC-002-002-----0
 62
     7
370
    25
100
AcDbLine
 10
817.556344
 20
1066.490001
 30
0.0
 11
818.306344
 21
1065.740001
 31
0.0
  0
ARC
  5
284
102
{ACAD_REACTORS
330
5B7
102
}
330
1F
100
AcDbEntity
  8
LC-002-002-----0
 62
     7
370
    25
100
AcDbCircle
 10
814.401552
 20
1080.24
 30
0.0
 40
2.0
100
AcDbArc
 50
0.0
 51
90.0
  0
ARC
  5
285
102
{ACAD_REACTORS
330
5B7
102
}
330
1F
100
AcDbEntity
  8
LC-002-002-----0
 62
     7
370
    25
100
AcDbCircle
 10
766.801552
 20
1080.24
 30
0.0
 40
2.0
100
AcDbArc
 50
90.0
 51
180.0
  0
LINE
  5
286
102
{ACAD_REACTORS
330
5B7
102
}
330
1F
100
AcDbEntity
  8
LC-002-002-----0
 62
     7
370
    25
100
AcDbLine
 10
813.813939
 20
1066.74
 30
0.0
 11
813.813939
 21
1080.24
 31
0.0
  0
INSERT
  5
296
102
{ACAD_REACTORS
330
5B7
102
}
330
1F
100
AcDbEntity
  8
LC-002-002-----0
 62
     7
370
    25
100
AcDbBlockReference
  2
POLY2
 10
0.0
 20
0.0
 30
0.0
  0
LINE
  5
297
102
{ACAD_REACTORS
330
5B7
102
}
330
1F
100
AcDbEntity
  8
LC-002-002-----0
 62
     7
370
    25
100
AcDbLine
 10
790.6001
 20
1066.74
 30
0.0
 11
790.6001
 21
1080.24
 31
0.0
  0
INSERT
  5
2A7
102
{ACAD_REACTORS
330
5B7
102
}
330
1F
100
AcDbEntity
  8
LC-002-002-----0
 62
     7
370
    25
100
AcDbBlockReference
  2
POLY3
 10
0.0
 20
0.0
 30
0.0
  0
LINE
  5
2A8
102
{ACAD_REACTORS
330
5B7
102
}
330
1F
100
AcDbEntity
  8
LC-002-002-----0
 62
     7
370
    25
100
AcDbLine
 10
767.389058
 20
1080.24
 30
0.0
 11
767.389058
 21
1066.74
 31
0.0
  0
INSERT
  5
2B8
102
{ACAD_REACTORS
330
5B7
102
}
330
1F
100
AcDbEntity
  8
LC-002-002-----0
 62
     7
370
    25
100
AcDbBlockReference
  2
POLY4
 10
0.0
 20
0.0
 30
0.0
  0
LINE
  5
2B9
102
{ACAD_REACTORS
330
5B8
102
}
330
1F
100
AcDbEntity
  8
LC-002-002-----0
 62
     7
370
    25
100
AcDbLine
 10
865.20378
 20
1063.24
 30
0.0
 11
865.20378
 21
953.24
 31
0.0
  0
LINE
  5
2BA
102
{ACAD_REACTORS
330
5B8
102
}
330
1F
100
AcDbEntity
  8
LC-002-002-----0
 62
     7
370
    25
100
AcDbLine
 10
861.20378
 20
953.24
 30
0.0
 11
865.20378
 21
953.24
 31
0.0
  0
LINE
  5
2BB
102
{ACAD_REACTORS
330
5B8
102
}
330
1F
100
AcDbEntity
  8
LC-002-002-----0
 62
     7
370
    25
100
AcDbLine
 10
822.561099
 20
970.74
 30
0.0
 11
822.561099
 21
1045.74
 31
0.0
  0
LINE
  5
2BC
102
{ACAD_REACTORS
330
5B8
102
}
330
1F
100
AcDbEntity
  8
LC-002-002-----0
 62
     7
370
    25
100
AcDbLine
 10
825.061099
 20
968.735036
 30
0.0
 11
825.061099
 21
970.74
 31
0.0
  0
LINE
  5
2BD
102
{ACAD_REACTORS
330
5B8
102
}
330
1F
100
AcDbEntity
  8
LC-002-002-----0
 62
     7
370
    25
100
AcDbLine
 10
829.390874
 20
965.49061
 30
0.0
 11
830.401222
 21
963.740635
 31
0.0
  0
LINE
  5
2BE
102
{ACAD_REACTORS
330
5B8
102
}
330
1F
100
AcDbEntity
  8
LC-002-002-----0
 62
     7
370
    25
100
AcDbLine
 10
825.061099
 20
970.74
 30
0.0
 11
822.561099
 21
970.74
 31
0.0
  0
LINE
  5
2BF
102
{ACAD_REACTORS
330
5B8
102
}
330
1F
100
AcDbEntity
  8
LC-002-002-----0
 62
     7
370
    25
100
AcDbLine
 10
835.597741
 20
960.74
 30
0.0
 11
851.061099
 21
960.74
 31
0.0
  0
LINE
  5
2C0
102
{ACAD_REACTORS
330
5B8
102
}
330
1F
100
AcDbEntity
  8
LC-002-002-----0
 62
     7
370
    25
100
AcDbLine
 10
860.743557
 20
953.24
 30
0.0
 11
861.20378
 21
953.24
 31
0.0
  0
ARC
  5
2C1
102
{ACAD_REACTORS
330
5B8
102
}
330
1F
100
AcDbEntity
  8
LC-002-002-----0
 62
     7
370
    25
100
AcDbCircle
 10
851.061099
 20
956.74
 30
0.0
 40
3.999999999999869
100
AcDbArc
 50
14.492147
 51
90.0
  0
ARC
  5
2C2
102
{ACAD_REACTORS
330
5B8
102
}
330
1F
100
AcDbEntity
  8
LC-002-002-----0
 62
     7
370
    25
100
AcDbCircle
 10
860.743557
 20
959.24
 30
0.0
 40
6.000000000000098
100
AcDbArc
 50
194.469452
 51
270.0
  0
ARC
  5
2C3
102
{ACAD_REACTORS
330
5B8
102
}
330
1F
100
AcDbEntity
  8
LC-002-002-----0
 62
     7
370
    25
100
AcDbCircle
 10
835.597741
 20
966.74
 30
0.0
 40
5.999999999999863
100
AcDbArc
 50
209.988476
 51
270.0
  0
ARC
  5
2C4
102
{ACAD_REACTORS
330
5B8
102
}
330
1F
100
AcDbEntity
  8
LC-002-002-----0
 62
     7
370
    25
100
AcDbCircle
 10
825.061099
 20
962.99
 30
0.0
 40
5.000000000000217
100
AcDbArc
 50
30.016153
 51
82.072225
  0
ARC
  5
2C5
102
{ACAD_REACTORS
330
5B8
102
}
330
1F
100
AcDbEntity
  8
LC-002-002-----0
 62
     7
370
    25
100
AcDbCircle
 10
825.861099
 20
968.734563
 30
0.0
 40
0.7999999999999545
100
AcDbArc
 50
180.0
 51
262.062606
  0
LINE
  5
2C6
102
{ACAD_REACTORS
330
5B8
102
}
330
1F
100
AcDbEntity
  8
LC-002-002-----0
 62
     7
370
    25
100
AcDbLine
 10
861.20378
 20
1063.24
 30
0.0
 11
865.20378
 21
1063.24
 31
0.0
  0
LINE
  5
2C7
102
{ACAD_REACTORS
330
5B8
102
}
330
1F
100
AcDbEntity
  8
LC-002-002-----0
 62
     7
370
    25
100
AcDbLine
 10
829.390874
 20
1050.98939
 30
0.0
 11
830.401222
 21
1052.739365
 31
0.0
  0
LINE
  5
2C8
102
{ACAD_REACTORS
330
5B8
102
}
330
1F
100
AcDbEntity
  8
LC-002-002-----0
 62
     7
370
    25
100
AcDbLine
 10
825.061099
 20
1045.74
 30
0.0
 11
822.561099
 21
1045.74
 31
0.0
  0
LINE
  5
2C9
102
{ACAD_REACTORS
330
5B8
102
}
330
1F
100
AcDbEntity
  8
LC-002-002-----0
 62
     7
370
    25
100
AcDbLine
 10
835.597741
 20
1055.74
 30
0.0
 11
851.061099
 21
1055.74
 31
0.0
  0
LINE
  5
2CA
102
{ACAD_REACTORS
330
5B8
102
}
330
1F
100
AcDbEntity
  8
LC-002-002-----0
 62
     7
370
    25
100
AcDbLine
 10
860.743557
 20
1063.24
 30
0.0
 11
861.20378
 21
1063.24
 31
0.0
  0
ARC
  5
2CB
102
{ACAD_REACTORS
330
5B8
102
}
330
1F
100
AcDbEntity
  8
LC-002-002-----0
 62
     7
370
    25
100
AcDbCircle
 10
851.061099
 20
1059.74
 30
0.0
 40
4.0
100
AcDbArc
 50
270.0
 51
345.507853
  0
ARC
  5
2CC
102
{ACAD_REACTORS
330
5B8
102
}
330
1F
100
AcDbEntity
  8
LC-002-002-----0
 62
     7
370
    25
100
AcDbCircle
 10
860.743557
 20
1057.24
 30
0.0
 40
6.0
100
AcDbArc
 50
90.0
 51
165.530548
  0
ARC
  5
2CD
102
{ACAD_REACTORS
330
5B8
102
}
330
1F
100
AcDbEntity
  8
LC-002-002-----0
 62
     7
370
    25
100
AcDbCircle
 10
835.597741
 20
1049.74
 30
0.0
 40
6.0
100
AcDbArc
 50
90.0
 51
150.011524
  0
ARC
  5
2CE
102
{ACAD_REACTORS
330
5B8
102
}
330
1F
100
AcDbEntity
  8
LC-002-002-----0
 62
     7
370
    25
100
AcDbCircle
 10
825.061099
 20
1053.49
 30
0.0
 40
5.000000000000194
100
AcDbArc
 50
277.927775
 51
329.983847
  0
ARC
  5
2CF
102
{ACAD_REACTORS
330
5B8
102
}
330
1F
100
AcDbEntity
  8
LC-002-002-----0
 62
     7
370
    25
100
AcDbCircle
 10
825.861099
 20
1047.745437
 30
0.0
 40
0.7999999999998813
100
AcDbArc
 50
97.937394
 51
180.0
  0
ELLIPSE
  5
2D0
102
{ACAD_REACTORS
330
5B1
102
}
330
1F
100
AcDbEntity
  8
LC-002-002-----0
 62
     7
370
    25
100
AcDbEllipse
 10
307.427815
 20
1127.24
 30
0.0
 11
15.49999999796748
 21
0.0
 31
0.0
210
0.0
220
0.0
230
0.9999999999999999
 40
0.193548
 41
0.0
 42
6.283185307179586
  0
LINE
  5
2D1
102
{ACAD_REACTORS
330
5AE
102
}
330
1F
100
AcDbEntity
  8
LC-004-006-MLN-0
 62
     7
370
    25
100
AcDbLine
 10
307.427815
 20
1565.03
 30
0.0
 11
307.427815
 21
1516.387319
 31
0.0
  0
LINE
  5
2D2
102
{ACAD_REACTORS
330
5AE
102
}
330
1F
100
AcDbEntity
  8
LC-002-002-----0
 62
     7
370
    25
100
AcDbLine
 10
252.427815
 20
1562.03
 30
0.0
 11
362.427815
 21
1562.03
 31
0.0
  0
LINE
  5
2D3
102
{ACAD_REACTORS
330
5AE
102
}
330
1F
100
AcDbEntity
  8
LC-002-002-----0
 62
     7
370
    25
100
AcDbLine
 10
362.427815
 20
1558.03
 30
0.0
 11
362.427815
 21
1562.03
 31
0.0
  0
LINE
  5
2D4
102
{ACAD_REACTORS
330
5AE
102
}
330
1F
100
AcDbEntity
  8
LC-002-002-----0
 62
     7
370
    25
100
AcDbLine
 10
344.927815
 20
1519.387319
 30
0.0
 11
269.927815
 21
1519.387319
 31
0.0
  0
LINE
  5
2D5
102
{ACAD_REACTORS
330
5AE
102
}
330
1F
100
AcDbEntity
  8
LC-002-002-----0
 62
     7
370
    25
100
AcDbLine
 10
346.932778
 20
1521.887319
 30
0.0
 11
344.927815
 21
1521.887319
 31
0.0
  0
LINE
  5
2D6
102
{ACAD_REACTORS
330
5AE
102
}
330
1F
100
AcDbEntity
  8
LC-002-002-----0
 62
     7
370
    25
100
AcDbLine
 10
362.427815
 20
1558.03
 30
0.0
 11
252.427815
 21
1558.03
 31
0.0
  0
LINE
  5
2D7
102
{ACAD_REACTORS
330
5AE
102
}
330
1F
100
AcDbEntity
  8
LC-002-002-----0
 62
     7
370
    25
100
AcDbLine
 10
269.927815
 20
1521.887319
 30
0.0
 11
269.927815
 21
1519.387319
 31
0.0
  0
LINE
  5
2D8
102
{ACAD_REACTORS
330
5AE
102
}
330
1F
100
AcDbEntity
  8
LC-002-002-----0
 62
     7
370
    25
100
AcDbLine
 10
350.177205
 20
1526.217093
 30
0.0
 11
351.92718
 21
1527.227442
 31
0.0
  0
LINE
  5
2D9
102
{ACAD_REACTORS
330
5AE
102
}
330
1F
100
AcDbEntity
  8
LC-002-002-----0
 62
     7
370
    25
100
AcDbLine
 10
344.927815
 20
1521.887319
 30
0.0
 11
344.927815
 21
1519.387319
 31
0.0
  0
LINE
  5
2DA
102
{ACAD_REACTORS
330
5AE
102
}
330
1F
100
AcDbEntity
  8
LC-002-002-----0
 62
     7
370
    25
100
AcDbLine
 10
354.927815
 20
1532.423961
 30
0.0
 11
354.927815
 21
1547.887319
 31
0.0
  0
LINE
  5
2DB
102
{ACAD_REACTORS
330
5AE
102
}
330
1F
100
AcDbEntity
  8
LC-002-002-----0
 62
     7
370
    25
100
AcDbLine
 10
362.427815
 20
1557.569777
 30
0.0
 11
362.427815
 21
1558.03
 31
0.0
  0
ARC
  5
2DC
102
{ACAD_REACTORS
330
5AE
102
}
330
1F
100
AcDbEntity
  8
LC-002-002-----0
 62
     7
370
    25
100
AcDbCircle
 10
358.927815
 20
1547.887319
 30
0.0
 40
3.999999999999812
100
AcDbArc
 50
104.492147
 51
180.0
  0
ARC
  5
2DD
102
{ACAD_REACTORS
330
5AE
102
}
330
1F
100
AcDbEntity
  8
LC-002-002-----0
 62
     7
370
    25
100
AcDbCircle
 10
356.427815
 20
1557.569777
 30
0.0
 40
6.000000000000098
100
AcDbArc
 50
284.469452
 51
0.0
  0
ARC
  5
2DE
102
{ACAD_REACTORS
330
5AE
102
}
330
1F
100
AcDbEntity
  8
LC-002-002-----0
 62
     7
370
    25
100
AcDbCircle
 10
348.927815
 20
1532.423961
 30
0.0
 40
5.999999999999977
100
AcDbArc
 50
299.988476
 51
0.0
  0
ARC
  5
2DF
102
{ACAD_REACTORS
330
5AE
102
}
330
1F
100
AcDbEntity
  8
LC-002-002-----0
 62
     7
370
    25
100
AcDbCircle
 10
352.677815
 20
1521.887319
 30
0.0
 40
5.000000000000103
100
AcDbArc
 50
120.016153
 51
172.072225
  0
ARC
  5
2E0
102
{ACAD_REACTORS
330
5AE
102
}
330
1F
100
AcDbEntity
  8
LC-002-002-----0
 62
     7
370
    25
100
AcDbCircle
 10
346.933252
 20
1522.687319
 30
0.0
 40
0.7999999999999545
100
AcDbArc
 50
270.0
 51
352.062606
  0
LINE
  5
2E1
102
{ACAD_REACTORS
330
5AE
102
}
330
1F
100
AcDbEntity
  8
LC-002-002-----0
 62
     7
370
    25
100
AcDbLine
 10
252.427815
 20
1558.03
 30
0.0
 11
252.427815
 21
1562.03
 31
0.0
  0
ARC
  5
2E2
102
{ACAD_REACTORS
330
5AE
102
}
330
1F
100
AcDbEntity
  8
LC-002-002-----0
 62
     7
370
    25
100
AcDbCircle
 10
307.427815
 20
1487.427772
 30
0.0
 40
21.99999999999994
100
AcDbArc
 50
180.0
 51
0.0
  0
LINE
  5
2E3
102
{ACAD_REACTORS
330
5AE
102
}
330
1F
100
AcDbEntity
  8
LC-002-002-----0
 62
     7
370
    25
100
AcDbLine
 10
285.427815
 20
1487.427772
 30
0.0
 11
285.427815
 21
1501.118956
 31
0.0
  0
LINE
  5
2E4
102
{ACAD_REACTORS
330
5AE
102
}
330
1F
100
AcDbEntity
  8
LC-002-002-----0
 62
     7
370
    25
100
AcDbLine
 10
329.427815
 20
1487.427772
 30
0.0
 11
329.427815
 21
1501.118956
 31
0.0
  0
LINE
  5
2E5
102
{ACAD_REACTORS
330
5AE
102
}
330
1F
100
AcDbEntity
  8
LC-002-002-----0
 62
     7
370
    25
100
AcDbLine
 10
335.716754
 20
1508.928938
 30
0.0
 11
336.1952
 21
1511.547802
 31
0.0
  0
ARC
  5
2E6
102
{ACAD_REACTORS
330
5AE
102
}
330
1F
100
AcDbEntity
  8
LC-002-002-----0
 62
     7
370
    25
100
AcDbCircle
 10
329.32259
 20
1510.097129
 30
0.0
 40
6.500000000000005
100
AcDbArc
 50
289.07704
 51
349.645823
  0
ARC
  5
2E7
102
{ACAD_REACTORS
330
5AE
102
}
330
1F
100
AcDbEntity
  8
LC-002-002-----0
 62
     7
370
    25
100
AcDbCircle
 10
332.427815
 20
1501.118956
 30
0.0
 40
3.00000000000008
100
AcDbArc
 50
109.055448
 51
180.0
  0
ARC
  5
2E8
102
{ACAD_REACTORS
330
5AE
102
}
330
1F
100
AcDbEntity
  8
LC-002-002-----0
 62
     7
370
    25
100
AcDbCircle
 10
340.925952
 20
1518.684074
 30
0.0
 40
2.000000000000076
100
AcDbArc
 50
334.152631
 51
0.0
  0
ARC
  5
2E9
102
{ACAD_REACTORS
330
5AE
102
}
330
1F
100
AcDbEntity
  8
LC-002-002-----0
 62
     7
370
    25
100
AcDbCircle
 10
337.326019
 20
1520.427772
 30
0.0
 40
5.999999999999973
100
AcDbArc
 50
286.283517
 51
334.155028
  0
ARC
  5
2EA
102
{ACAD_REACTORS
330
5AE
102
}
330
1F
100
AcDbEntity
  8
LC-002-002-----0
 62
     7
370
    25
100
AcDbCircle
 10
340.130078
 20
1510.828956
 30
0.0
 40
3.999999999999933
100
AcDbArc
 50
106.281751
 51
169.647048
  0
LINE
  5
2EB
102
{ACAD_REACTORS
330
5AE
102
}
330
1F
100
AcDbEntity
  8
LC-002-002-----0
 62
     7
370
    25
100
AcDbLine
 10
279.138876
 20
1508.928938
 30
0.0
 11
278.66043
 21
1511.547802
 31
0.0
  0
ARC
  5
2EC
102
{ACAD_REACTORS
330
5AE
102
}
330
1F
100
AcDbEntity
  8
LC-002-002-----0
 62
     7
370
    25
100
AcDbCircle
 10
285.53304
 20
1510.097129
 30
0.0
 40
6.499999999999932
100
AcDbArc
 50
190.354177
 51
250.92296
  0
ARC
  5
2ED
102
{ACAD_REACTORS
330
5AE
102
}
330
1F
100
AcDbEntity
  8
LC-002-002-----0
 62
     7
370
    25
100
AcDbCircle
 10
282.427815
 20
1501.118956
 30
0.0
 40
2.999999995699682
100
AcDbArc
 50
0.0
 51
70.944552
  0
ARC
  5
2EE
102
{ACAD_REACTORS
330
5AE
102
}
330
1F
100
AcDbEntity
  8
LC-002-002-----0
 62
     7
370
    25
100
AcDbCircle
 10
273.929677
 20
1518.684074
 30
0.0
 40
1.999999999999773
100
AcDbArc
 50
180.0
 51
205.847369
  0
ARC
  5
2EF
102
{ACAD_REACTORS
330
5AE
102
}
330
1F
100
AcDbEntity
  8
LC-002-002-----0
 62
     7
370
    25
100
AcDbCircle
 10
277.529611
 20
1520.427772
 30
0.0
 40
5.999999999999901
100
AcDbArc
 50
205.844972
 51
253.716483
  0
ARC
  5
2F0
102
{ACAD_REACTORS
330
5AE
102
}
330
1F
100
AcDbEntity
  8
LC-002-002-----0
 62
     7
370
    25
100
AcDbCircle
 10
274.725552
 20
1510.828956
 30
0.0
 40
4.00000000000002
100
AcDbArc
 50
10.352952
 51
73.718249
  0
ARC
  5
2F1
102
{ACAD_REACTORS
330
5AE
102
}
330
1F
100
AcDbEntity
  8
LC-002-002-----0
 62
     7
370
    25
100
AcDbCircle
 10
307.427815
 20
1487.427772
 30
0.0
 40
27.70479324130004
100
AcDbArc
 50
145.394244
 51
34.605756
  0
LINE
  5
2F2
102
{ACAD_REACTORS
330
5AE
102
}
330
1F
100
AcDbEntity
  8
LC-002-002-----0
 62
     7
370
    25
100
AcDbLine
 10
264.678425
 20
1526.217093
 30
0.0
 11
262.92845
 21
1527.227442
 31
0.0
  0
LINE
  5
2F3
102
{ACAD_REACTORS
330
5AE
102
}
330
1F
100
AcDbEntity
  8
LC-002-002-----0
 62
     7
370
    25
100
AcDbLine
 10
259.927815
 20
1532.423961
 30
0.0
 11
259.927815
 21
1547.887319
 31
0.0
  0
LINE
  5
2F4
102
{ACAD_REACTORS
330
5AE
102
}
330
1F
100
AcDbEntity
  8
LC-002-002-----0
 62
     7
370
    25
100
AcDbLine
 10
252.427815
 20
1557.569777
 30
0.0
 11
252.427815
 21
1558.03
 31
0.0
  0
ARC
  5
2F5
102
{ACAD_REACTORS
330
5AE
102
}
330
1F
100
AcDbEntity
  8
LC-002-002-----0
 62
     7
370
    25
100
AcDbCircle
 10
255.927815
 20
1547.887319
 30
0.0
 40
3.99999999999983
100
AcDbArc
 50
0.0
 51
75.507853
  0
ARC
  5
2F6
102
{ACAD_REACTORS
330
5AE
102
}
330
1F
100
AcDbEntity
  8
LC-002-002-----0
 62
     7
370
    25
100
AcDbCircle
 10
258.427815
 20
1557.569777
 30
0.0
 40
6.000000000000085
100
AcDbArc
 50
180.0
 51
255.530548
  0
ARC
  5
2F7
102
{ACAD_REACTORS
330
5AE
102
}
330
1F
100
AcDbEntity
  8
LC-002-002-----0
 62
     7
370
    25
100
AcDbCircle
 10
265.927815
 20
1532.423961
 30
0.0
 40
5.999999999999943
100
AcDbArc
 50
180.0
 51
240.011524
  0
ARC
  5
2F8
102
{ACAD_REACTORS
330
5AE
102
}
330
1F
100
AcDbEntity
  8
LC-002-002-----0
 62
     7
370
    25
100
AcDbCircle
 10
262.177815
 20
1521.887319
 30
0.0
 40
5.000000000000082
100
AcDbArc
 50
7.927775
 51
59.983847
  0
ARC
  5
2F9
102
{ACAD_REACTORS
330
5AE
102
}
330
1F
100
AcDbEntity
  8
LC-002-002-----0
 62
     7
370
    25
100
AcDbCircle
 10
267.922377
 20
1522.687319
 30
0.0
 40
0.799999999999969
100
AcDbArc
 50
187.937394
 51
270.0
  0
LINE
  5
2FA
102
{ACAD_REACTORS
330
5AE
102
}
330
1F
100
AcDbEntity
  8
LC-002-002-----0
 62
     7
370
    25
100
AcDbLine
 10
269.927815
 20
1521.887319
 30
0.0
 11
267.922851
 21
1521.887319
 31
0.0
  0
LINE
  5
2FB
102
{ACAD_REACTORS
330
5B2
102
}
330
1F
100
AcDbEntity
  8
LC-002-002-----0
 62
     7
370
    25
100
AcDbLine
 10
1021.796401
 20
1132.332273
 30
0.0
 11
1022.067888
 21
1131.958603
 31
0.0
  0
LINE
  5
2FC
102
{ACAD_REACTORS
330
5B5
102
}
330
1F
100
AcDbEntity
  8
LC-002-002-----0
 62
     7
370
    25
100
AcDbLine
 10
830.45378
 20
1087.74
 30
0.0
 11
830.45378
 21
1132.000273
 31
0.0
  0
LINE
  5
2FD
102
{ACAD_REACTORS
330
5B2
102
}
330
1F
100
AcDbEntity
  8
LC-002-002-----0
 62
     7
370
    25
100
AcDbLine
 10
1053.174628
 20
1151.035495
 30
0.0
 11
1014.299775
 21
1154.641806
 31
0.0
  0
LINE
  5
2FE
102
{ACAD_REACTORS
330
5B5
102
}
330
1F
100
AcDbEntity
  8
LC-002-002-----0
 62
     7
370
    25
100
AcDbLine
 10
862.926221
 20
1145.197257
 30
0.0
 11
842.95377
 21
1144.499804
 31
0.0
  0
LINE
  5
2FF
102
{ACAD_REACTORS
330
5B5
102
}
330
1F
100
AcDbEntity
  8
LC-002-002-----0
 62
     7
370
    25
100
AcDbLine
 10
877.95378
 20
1151.999804
 30
0.0
 11
883.95378
 21
1151.999804
 31
0.0
  0
LINE
  5
300
102
{ACAD_REACTORS
330
5B4
102
}
330
1F
100
AcDbEntity
  8
LC-002-002-----0
 62
     7
370
    25
100
AcDbLine
 10
946.770968
 20
1151.696056
 30
0.0
 11
890.231514
 21
1145.75352
 31
0.0
  0
LINE
  5
301
102
{ACAD_REACTORS
330
5B3
102
}
330
1F
100
AcDbEntity
  8
LC-002-002-----0
 62
     7
370
    25
100
AcDbLine
 10
966.464125
 20
1152.45873
 30
0.0
 11
974.545734
 21
1152.101531
 31
0.0
  0
LINE
  5
302
102
{ACAD_REACTORS
330
5B5
102
}
330
1F
100
AcDbEntity
  8
LC-002-002-----0
 62
     7
370
    25
100
AcDbLine
 10
855.45378
 20
1087.74
 30
0.0
 11
855.45378
 21
1119.063295
 31
0.0
  0
LINE
  5
303
102
{ACAD_REACTORS
330
5B2
102
}
330
1F
100
AcDbEntity
  8
LC-002-002-----0
 62
     7
370
    25
100
AcDbLine
 10
1005.68189
 20
1153.926141
 30
0.0
 11
1004.544805
 21
1153.682609
 31
0.0
  0
LINE
  5
304
102
{ACAD_REACTORS
330
5B3
102
}
330
1F
100
AcDbEntity
  8
LC-002-002-----0
 62
     7
370
    25
100
AcDbLine
 10
947.404116
 20
1150.455442
 30
0.0
 11
966.464125
 21
1152.45873
 31
0.0
  0
LINE
  5
305
102
{ACAD_REACTORS
330
5B3
102
}
330
1F
100
AcDbEntity
  8
LC-002-002-----0
 62
     7
370
    25
100
AcDbLine
 10
1003.982857
 20
1155.195497
 30
0.0
 11
974.545734
 21
1152.101531
 31
0.0
  0
LINE
  5
306
102
{ACAD_REACTORS
330
5B2
102
}
330
1F
100
AcDbEntity
  8
LC-002-002-----0
 62
     7
370
    25
100
AcDbLine
 10
1014.004584
 20
1154.64001
 30
0.0
 11
1005.698615
 21
1153.767018
 31
0.0
  0
LINE
  5
307
102
{ACAD_REACTORS
330
5B2
102
}
330
1F
100
AcDbEntity
  8
LC-002-002-----0
 62
     7
370
    25
100
AcDbLine
 10
1006.433981
 20
1135.708297
 30
0.0
 11
1007.596852
 21
1135.7065
 31
0.0
  0
LINE
  5
308
102
{ACAD_REACTORS
330
5B5
102
}
330
1F
100
AcDbEntity
  8
LC-002-002-----0
 62
     7
370
    25
100
AcDbLine
 10
883.95378
 20
1151.999804
 30
0.0
 11
883.95378
 21
1111.999804
 31
0.0
  0
LINE
  5
309
102
{ACAD_REACTORS
330
5B2
102
}
330
1F
100
AcDbEntity
  8
LC-002-002-----0
 62
     7
370
    25
100
AcDbLine
 10
1021.779058
 20
1138.866254
 30
0.0
 11
1056.900456
 21
1142.557661
 31
0.0
  0
LINE
  5
30A
102
{ACAD_REACTORS
330
5B2
102
}
330
1F
100
AcDbEntity
  8
LC-002-002-----0
 62
     7
370
    25
100
AcDbLine
 10
1007.580127
 20
1135.865624
 30
0.0
 11
1019.76305
 21
1137.1461
 31
0.0
  0
LINE
  5
30B
102
{ACAD_REACTORS
330
5B3
102
}
330
1F
100
AcDbEntity
  8
LC-002-002-----0
 62
     7
370
    25
100
AcDbLine
 10
968.805562
 20
1130.181446
 30
0.0
 11
976.761737
 21
1131.017673
 31
0.0
  0
LINE
  5
30C
102
{ACAD_REACTORS
330
5B3
102
}
330
1F
100
AcDbEntity
  8
LC-002-002-----0
 62
     7
370
    25
100
AcDbLine
 10
949.745553
 20
1128.178152
 30
0.0
 11
968.805562
 21
1130.181439
 31
0.0
  0
LINE
  5
30D
102
{ACAD_REACTORS
330
5B3
102
}
330
1F
100
AcDbEntity
  8
LC-002-002-----0
 62
     7
370
    25
100
AcDbLine
 10
976.761738
 20
1131.017667
 30
0.0
 11
1006.199139
 21
1134.111663
 31
0.0
  0
LINE
  5
30E
102
{ACAD_REACTORS
330
5B4
102
}
330
1F
100
AcDbEntity
  8
LC-002-002-----0
 62
     7
370
    25
100
AcDbLine
 10
949.384179
 20
1126.833009
 30
0.0
 11
892.844725
 21
1120.890473
 31
0.0
  0
LINE
  5
30F
102
{ACAD_REACTORS
330
5B2
102
}
330
1F
100
AcDbEntity
  8
LC-002-002-----0
 62
     7
370
    25
100
AcDbLine
 10
1020.076606
 20
1134.162532
 30
0.0
 11
1058.365699
 21
1138.186877
 31
0.0
  0
LINE
  5
310
102
{ACAD_REACTORS
330
5B2
102
}
330
1F
100
AcDbEntity
  8
LC-002-002-----0
 62
     7
370
    25
100
AcDbLine
 10
1057.828864
 20
1136.119437
 30
0.0
 11
1057.064017
 21
1136.039049
 31
0.0
  0
LINE
  5
311
102
{ACAD_REACTORS
330
5B5
102
}
330
1F
100
AcDbEntity
  8
LC-002-002-----0
 62
     7
370
    25
100
AcDbLine
 10
877.95378
 20
1111.999804
 30
0.0
 11
883.95378
 21
1111.999804
 31
0.0
  0
LINE
  5
312
102
{ACAD_REACTORS
330
5B5
102
}
330
1F
100
AcDbEntity
  8
LC-002-002-----0
 62
     7
370
    25
100
AcDbLine
 10
862.926221
 20
1118.802351
 30
0.0
 11
855.451152
 21
1119.063387
 31
0.0
  0
LINE
  5
313
102
{ACAD_REACTORS
330
5B4
102
}
330
1F
100
AcDbEntity
  8
LC-002-002-----0
 62
     7
370
    25
100
AcDbLine
 10
892.844725
 20
1120.890473
 30
0.0
 11
890.231514
 21
1145.75352
 31
0.0
  0
LINE
  5
314
102
{ACAD_REACTORS
330
5B4
102
}
330
1F
100
AcDbEntity
  8
LC-002-002-----0
 62
     7
370
    25
100
AcDbLine
 10
949.829176
 20
1127.382534
 30
0.0
 11
947.320493
 21
1151.25106
 31
0.0
  0
LINE
  5
315
102
{ACAD_REACTORS
330
5B3
102
}
330
1F
100
AcDbEntity
  8
LC-002-002-----0
 62
     7
370
    25
100
AcDbLine
 10
1006.54512
 20
1134.650876
 30
0.0
 11
1004.433663
 21
1154.740046
 31
0.0
  0
LINE
  5
316
102
{ACAD_REACTORS
330
5B2
102
}
330
1F
100
AcDbEntity
  8
LC-002-002-----0
 62
     7
370
    25
100
AcDbLine
 10
1007.596852
 20
1135.7065
 30
0.0
 11
1007.580127
 21
1135.865624
 31
0.0
  0
LINE
  5
317
102
{ACAD_REACTORS
330
5B2
102
}
330
1F
100
AcDbEntity
  8
LC-002-002-----0
 62
     7
370
    25
100
AcDbLine
 10
1020.076606
 20
1134.162532
 30
0.0
 11
1019.76302
 21
1137.146097
 31
0.0
  0
LINE
  5
318
102
{ACAD_REACTORS
330
5B2
102
}
330
1F
100
AcDbEntity
  8
LC-002-002-----0
 62
     7
370
    25
100
AcDbLine
 10
1020.822497
 20
1134.240928
 30
0.0
 11
1021.031554
 21
1132.251884
 31
0.0
  0
LINE
  5
319
102
{ACAD_REACTORS
330
5B2
102
}
330
1F
100
AcDbEntity
  8
LC-002-002-----0
 62
     7
370
    25
100
AcDbLine
 10
1057.064017
 20
1136.039049
 30
0.0
 11
1056.876153
 21
1135.617099
 31
0.0
  0
LINE
  5
31A
102
{ACAD_REACTORS
330
5B2
102
}
330
1F
100
AcDbEntity
  8
LC-002-002-----0
 62
     7
370
    25
100
AcDbLine
 10
1055.055857
 20
1143.369295
 30
0.0
 11
1054.376373
 21
1149.83415
 31
0.0
  0
LINE
  5
31B
102
{ACAD_REACTORS
330
5B2
102
}
330
1F
100
AcDbEntity
  8
LC-002-002-----0
 62
     7
370
    25
100
AcDbLine
 10
1057.619807
 20
1138.108481
 30
0.0
 11
1057.828864
 21
1136.119437
 31
0.0
  0
LINE
  5
31C
102
{ACAD_REACTORS
330
5B2
102
}
330
1F
100
AcDbEntity
  8
LC-002-002-----0
 62
     7
370
    25
100
AcDbLine
 10
1058.365699
 20
1138.186877
 30
0.0
 11
1057.999849
 21
1141.667704
 31
0.0
  0
ARC
  5
31D
102
{ACAD_REACTORS
330
5B4
102
}
330
1F
100
AcDbEntity
  8
LC-002-002-----0
 62
     7
370
    25
100
AcDbCircle
 10
949.331915
 20
1127.33027
 30
0.0
 40
0.4999999999998858
100
AcDbArc
 50
276.0
 51
6.0
  0
ARC
  5
31E
102
{ACAD_REACTORS
330
5B4
102
}
330
1F
100
AcDbEntity
  8
LC-002-002-----0
 62
     7
370
    25
100
AcDbCircle
 10
946.823232
 20
1151.198795
 30
0.0
 40
0.5000000000001238
100
AcDbArc
 50
6.0
 51
96.0
  0
ARC
  5
31F
102
{ACAD_REACTORS
330
5B4
102
}
330
1F
100
AcDbEntity
  8
LC-002-002-----0
 62
     7
370
    25
100
AcDbCircle
 10
892.949254
 20
1119.895951
 30
0.0
 40
1.00000000000001
100
AcDbArc
 50
96.0
 51
139.137678
  0
ARC
  5
320
102
{ACAD_REACTORS
330
5B4
102
}
330
1F
100
AcDbEntity
  8
LC-002-002-----0
 62
     7
370
    25
100
AcDbCircle
 10
890.126985
 20
1146.748042
 30
0.0
 40
0.9999999999998596
100
AcDbArc
 50
232.862322
 51
276.0
  0
ARC
  5
321
102
{ACAD_REACTORS
330
5B4
102
}
330
1F
100
AcDbEntity
  8
LC-002-002-----0
 62
     7
370
    25
100
AcDbCircle
 10
878.958302
 20
1131.999804
 30
0.0
 40
17.50000000000004
100
AcDbArc
 50
52.85835
 51
73.413898
  0
ARC
  5
322
102
{ACAD_REACTORS
330
5B4
102
}
330
1F
100
AcDbEntity
  8
LC-002-002-----0
 62
     7
370
    25
100
AcDbCircle
 10
878.958302
 20
1131.999804
 30
0.0
 40
17.50000000000015
100
AcDbArc
 50
286.586103
 51
319.141806
  0
ARC
  5
323
102
{ACAD_REACTORS
330
5B2
102
}
330
1F
100
AcDbEntity
  8
LC-002-002-----0
 62
     7
370
    25
100
AcDbCircle
 10
1057.005327
 20
1141.563176
 30
0.0
 40
0.9999999999999977
100
AcDbArc
 50
6.0
 51
96.0
  0
ARC
  5
324
102
{ACAD_REACTORS
330
5B2
102
}
330
1F
100
AcDbEntity
  8
LC-002-002-----0
 62
     7
370
    25
100
AcDbCircle
 10
1056.050379
 20
1143.473823
 30
0.0
 40
1.000000000000379
100
AcDbArc
 50
186.0
 51
275.987263
  0
ARC
  5
325
102
{ACAD_REACTORS
330
5B5
102
}
330
1F
100
AcDbEntity
  8
LC-002-002-----0
 62
     7
370
    25
100
AcDbCircle
 10
877.95378
 20
1131.999804
 30
0.0
 40
19.99999999999994
100
AcDbArc
 50
221.290426
 51
270.0
  0
ARC
  5
326
102
{ACAD_REACTORS
330
5B5
102
}
330
1F
100
AcDbEntity
  8
LC-002-002-----0
 62
     7
370
    25
100
AcDbCircle
 10
877.95378
 20
1131.999804
 30
0.0
 40
20.0
100
AcDbArc
 50
90.0
 51
138.709438
  0
ARC
  5
327
102
{ACAD_REACTORS
330
5B5
102
}
330
1F
100
AcDbEntity
  8
LC-002-002-----0
 62
     7
370
    25
100
AcDbCircle
 10
842.95378
 20
1131.999804
 30
0.0
 40
12.5
100
AcDbArc
 50
90.0
 51
180.0
  0
INSERT
  5
33F
102
{ACAD_REACTORS
330
5B2
102
}
330
1F
100
AcDbEntity
  8
LC-002-002-----0
 62
     7
370
    25
100
AcDbBlockReference
  2
POLY5
 10
0.0
 20
0.0
 30
0.0
  0
INSERT
  5
349
102
{ACAD_REACTORS
330
5B2
102
}
330
1F
100
AcDbEntity
  8
LC-002-002-----0
 62
     7
370
    25
100
AcDbBlockReference
  2
POLY6
 10
0.0
 20
0.0
 30
0.0
  0
INSERT
  5
35B
102
{ACAD_REACTORS
330
5B2
102
}
330
1F
100
AcDbEntity
  8
LC-002-002-----0
 62
     7
370
    25
100
AcDbBlockReference
  2
POLY7
 10
0.0
 20
0.0
 30
0.0
  0
INSERT
  5
385
102
{ACAD_REACTORS
330
5B5
102
}
330
1F
100
AcDbEntity
  8
LC-002-002-----0
 62
     7
370
    25
100
AcDbBlockReference
  2
POLY8
 10
0.0
 20
0.0
 30
0.0
  0
LINE
  5
386
102
{ACAD_REACTORS
330
5B3
102
}
330
1F
100
AcDbEntity
  8
LC-002-002-----0
 62
     7
370
    25
100
AcDbLine
 10
1006.199139
 20
1134.111663
 30
0.0
 11
1006.41109
 21
1134.255127
 31
0.0
  0
LINE
  5
387
102
{ACAD_REACTORS
330
5B3
102
}
330
1F
100
AcDbEntity
  8
LC-002-002-----0
 62
     7
370
    25
100
AcDbLine
 10
1006.41109
 20
1134.255127
 30
0.0
 11
1006.522281
 21
1134.440846
 31
0.0
  0
LINE
  5
388
102
{ACAD_REACTORS
330
5B3
102
}
330
1F
100
AcDbEntity
  8
LC-002-002-----0
 62
     7
370
    25
100
AcDbLine
 10
1006.522281
 20
1134.440846
 30
0.0
 11
1006.54512
 21
1134.650876
 31
0.0
  0
LINE
  5
389
102
{ACAD_REACTORS
330
5B3
102
}
330
1F
100
AcDbEntity
  8
LC-002-002-----0
 62
     7
370
    25
100
AcDbLine
 10
1004.433663
 20
1154.740046
 30
0.0
 11
1004.367526
 21
1154.940959
 31
0.0
  0
LINE
  5
38A
102
{ACAD_REACTORS
330
5B3
102
}
330
1F
100
AcDbEntity
  8
LC-002-002-----0
 62
     7
370
    25
100
AcDbLine
 10
1004.367526
 20
1154.940959
 30
0.0
 11
1004.21992
 21
1155.099529
 31
0.0
  0
LINE
  5
38B
102
{ACAD_REACTORS
330
5B3
102
}
330
1F
100
AcDbEntity
  8
LC-002-002-----0
 62
     7
370
    25
100
AcDbLine
 10
1004.21992
 20
1155.099529
 30
0.0
 11
1003.982857
 21
1155.195497
 31
0.0
  0
LINE
  5
38C
102
{ACAD_REACTORS
330
5B2
102
}
330
1F
100
AcDbEntity
  8
LC-002-002-----0
 62
     7
370
    25
100
AcDbLine
 10
1054.364952
 20
1149.865239
 30
0.0
 11
1054.364952
 21
1149.865239
 31
0.0
  0
LINE
  5
38D
102
{ACAD_REACTORS
330
5B2
102
}
330
1F
100
AcDbEntity
  8
LC-002-002-----0
 62
     7
370
    25
100
AcDbLine
 10
1054.376373
 20
1149.83415
 30
0.0
 11
1054.216886
 21
1150.268288
 31
0.0
  0
LINE
  5
38E
102
{ACAD_REACTORS
330
5B2
102
}
330
1F
100
AcDbEntity
  8
LC-002-002-----0
 62
     7
370
    25
100
AcDbLine
 10
1054.216886
 20
1150.268288
 30
0.0
 11
1054.216886
 21
1150.268288
 31
0.0
  0
LINE
  5
38F
102
{ACAD_REACTORS
330
5B2
102
}
330
1F
100
AcDbEntity
  8
LC-002-002-----0
 62
     7
370
    25
100
AcDbLine
 10
1054.216886
 20
1150.268288
 30
0.0
 11
1053.960434
 21
1150.613121
 31
0.0
  0
LINE
  5
390
102
{ACAD_REACTORS
330
5B2
102
}
330
1F
100
AcDbEntity
  8
LC-002-002-----0
 62
     7
370
    25
100
AcDbLine
 10
1053.960434
 20
1150.613121
 30
0.0
 11
1053.960434
 21
1150.613121
 31
0.0
  0
LINE
  5
391
102
{ACAD_REACTORS
330
5B2
102
}
330
1F
100
AcDbEntity
  8
LC-002-002-----0
 62
     7
370
    25
100
AcDbLine
 10
1053.960434
 20
1150.613121
 30
0.0
 11
1053.616522
 21
1150.871164
 31
0.0
  0
LINE
  5
392
102
{ACAD_REACTORS
330
5B2
102
}
330
1F
100
AcDbEntity
  8
LC-002-002-----0
 62
     7
370
    25
100
AcDbLine
 10
1053.616522
 20
1150.871164
 30
0.0
 11
1053.616522
 21
1150.871164
 31
0.0
  0
LINE
  5
393
102
{ACAD_REACTORS
330
5B2
102
}
330
1F
100
AcDbEntity
  8
LC-002-002-----0
 62
     7
370
    25
100
AcDbLine
 10
1053.616522
 20
1150.871164
 30
0.0
 11
1053.174628
 21
1151.035495
 31
0.0
  0
LINE
  5
394
102
{ACAD_REACTORS
330
5B8
102
}
330
1F
100
AcDbEntity
  8
LC-002-002-----0
 62
     7
370
    25
100
AcDbLine
 10
858.09878
 20
1068.24
 30
0.0
 11
858.05378
 21
1068.24
 31
0.0
  0
LINE
  5
395
102
{ACAD_REACTORS
330
5B8
102
}
330
1F
100
AcDbEntity
  8
LC-002-002-----0
 62
     7
370
    25
100
AcDbLine
 10
827.80878
 20
1068.494729
 30
0.0
 11
827.80878
 21
1068.24
 31
0.0
  0
LINE
  5
396
102
{ACAD_REACTORS
330
5B8
102
}
330
1F
100
AcDbEntity
  8
LC-002-002-----0
 62
     7
370
    25
100
AcDbLine
 10
858.09878
 20
1068.494729
 30
0.0
 11
858.09878
 21
1068.24
 31
0.0
  0
LINE
  5
397
102
{ACAD_REACTORS
330
5B8
102
}
330
1F
100
AcDbEntity
  8
LC-002-002-----0
 62
     7
370
    25
100
AcDbLine
 10
827.80878
 20
1073.117365
 30
0.0
 11
826.328832
 21
1072.346952
 31
0.0
  0
LINE
  5
398
102
{ACAD_REACTORS
330
5B8
102
}
330
1F
100
AcDbEntity
  8
LC-002-002-----0
 62
     7
370
    25
100
AcDbLine
 10
827.80878
 20
1071.576486
 30
0.0
 11
826.328832
 21
1070.806074
 31
0.0
  0
LINE
  5
399
102
{ACAD_REACTORS
330
5B8
102
}
330
1F
100
AcDbEntity
  8
LC-002-002-----0
 62
     7
370
    25
100
AcDbLine
 10
827.80878
 20
1070.035608
 30
0.0
 11
826.328832
 21
1069.265195
 31
0.0
  0
LINE
  5
39A
102
{ACAD_REACTORS
330
5B8
102
}
330
1F
100
AcDbEntity
  8
LC-002-002-----0
 62
     7
370
    25
100
AcDbLine
 10
859.578729
 20
1072.346898
 30
0.0
 11
858.09878
 21
1071.576486
 31
0.0
  0
LINE
  5
39B
102
{ACAD_REACTORS
330
5B8
102
}
330
1F
100
AcDbEntity
  8
LC-002-002-----0
 62
     7
370
    25
100
AcDbLine
 10
859.578729
 20
1070.80602
 30
0.0
 11
858.09878
 21
1070.035608
 31
0.0
  0
LINE
  5
39C
102
{ACAD_REACTORS
330
5B8
102
}
330
1F
100
AcDbEntity
  8
LC-002-002-----0
 62
     7
370
    25
100
AcDbLine
 10
859.578729
 20
1069.265142
 30
0.0
 11
858.09878
 21
1068.494729
 31
0.0
  0
LINE
  5
39D
102
{ACAD_REACTORS
330
5B8
102
}
330
1F
100
AcDbEntity
  8
LC-002-002-----0
 62
     7
370
    25
100
AcDbLine
 10
858.09878
 20
1073.117365
 30
0.0
 11
859.578729
 21
1072.346952
 31
0.0
  0
LINE
  5
39E
102
{ACAD_REACTORS
330
5B8
102
}
330
1F
100
AcDbEntity
  8
LC-002-002-----0
 62
     7
370
    25
100
AcDbLine
 10
858.09878
 20
1071.576486
 30
0.0
 11
859.578729
 21
1070.806074
 31
0.0
  0
LINE
  5
39F
102
{ACAD_REACTORS
330
5B8
102
}
330
1F
100
AcDbEntity
  8
LC-002-002-----0
 62
     7
370
    25
100
AcDbLine
 10
858.09878
 20
1070.035608
 30
0.0
 11
859.578729
 21
1069.265195
 31
0.0
  0
LINE
  5
3A0
102
{ACAD_REACTORS
330
5B8
102
}
330
1F
100
AcDbEntity
  8
LC-002-002-----0
 62
     7
370
    25
100
AcDbLine
 10
826.328832
 20
1072.346898
 30
0.0
 11
827.80878
 21
1071.576486
 31
0.0
  0
LINE
  5
3A1
102
{ACAD_REACTORS
330
5B8
102
}
330
1F
100
AcDbEntity
  8
LC-002-002-----0
 62
     7
370
    25
100
AcDbLine
 10
826.328832
 20
1070.80602
 30
0.0
 11
827.80878
 21
1070.035608
 31
0.0
  0
LINE
  5
3A2
102
{ACAD_REACTORS
330
5B8
102
}
330
1F
100
AcDbEntity
  8
LC-002-002-----0
 62
     7
370
    25
100
AcDbLine
 10
826.328832
 20
1069.265142
 30
0.0
 11
827.80878
 21
1068.494729
 31
0.0
  0
LINE
  5
3A3
102
{ACAD_REACTORS
330
5B8
102
}
330
1F
100
AcDbEntity
  8
LC-002-002-----0
 62
     7
370
    25
100
AcDbLine
 10
822.95378
 20
1073.24
 30
0.0
 11
822.95378
 21
1075.24
 31
0.0
  0
LINE
  5
3A4
102
{ACAD_REACTORS
330
5B8
102
}
330
1F
100
AcDbEntity
  8
LC-002-002-----0
 62
     7
370
    25
100
AcDbLine
 10
824.996542
 20
1075.990001
 30
0.0
 11
824.996542
 21
1087.729234
 31
0.0
  0
LINE
  5
3A5
102
{ACAD_REACTORS
330
5B8
102
}
330
1F
100
AcDbEntity
  8
LC-002-002-----0
 62
     7
370
    25
100
AcDbLine
 10
826.069004
 20
1075.49
 30
0.0
 11
826.069004
 21
1085.74
 31
0.0
  0
LINE
  5
3A6
102
{ACAD_REACTORS
330
5B8
102
}
330
1F
100
AcDbEntity
  8
LC-002-002-----0
 62
     7
370
    25
100
AcDbLine
 10
842.523403
 20
1075.49
 30
0.0
 11
842.523403
 21
1085.74
 31
0.0
  0
LINE
  5
3A7
102
{ACAD_REACTORS
330
5B8
102
}
330
1F
100
AcDbEntity
  8
LC-002-002-----0
 62
     7
370
    25
100
AcDbLine
 10
843.384158
 20
1075.49
 30
0.0
 11
843.384158
 21
1085.74
 31
0.0
  0
LINE
  5
3A8
102
{ACAD_REACTORS
330
5B8
102
}
330
1F
100
AcDbEntity
  8
LC-002-002-----0
 62
     7
370
    25
100
AcDbLine
 10
859.838557
 20
1075.49
 30
0.0
 11
859.838557
 21
1085.74
 31
0.0
  0
LINE
  5
3A9
102
{ACAD_REACTORS
330
5B8
102
}
330
1F
100
AcDbEntity
  8
LC-002-002-----0
 62
     7
370
    25
100
AcDbLine
 10
860.911019
 20
1075.990001
 30
0.0
 11
860.911019
 21
1087.729234
 31
0.0
  0
LINE
  5
3AA
102
{ACAD_REACTORS
330
5B8
102
}
330
1F
100
AcDbEntity
  8
LC-002-002-----0
 62
     7
370
    25
100
AcDbLine
 10
862.95378
 20
1073.24
 30
0.0
 11
862.95378
 21
1075.24
 31
0.0
  0
LINE
  5
3AB
102
{ACAD_REACTORS
330
5B8
102
}
330
1F
100
AcDbEntity
  8
LC-002-002-----0
 62
     7
370
    25
100
AcDbLine
 10
822.953877
 20
1075.240097
 30
0.0
 11
823.703768
 21
1075.989987
 31
0.0
  0
LINE
  5
3AC
102
{ACAD_REACTORS
330
5B8
102
}
330
1F
100
AcDbEntity
  8
LC-002-002-----0
 62
     7
370
    25
100
AcDbLine
 10
825.203971
 20
1087.74
 30
0.0
 11
860.70359
 21
1087.74
 31
0.0
  0
LINE
  5
3AD
102
{ACAD_REACTORS
330
5B8
102
}
330
1F
100
AcDbEntity
  8
LC-002-002-----0
 62
     7
370
    25
100
AcDbLine
 10
827.256297
 20
1075.990142
 30
0.0
 11
841.153194
 21
1075.990142
 31
0.0
  0
LINE
  5
3AE
102
{ACAD_REACTORS
330
5B8
102
}
330
1F
100
AcDbEntity
  8
LC-002-002-----0
 62
     7
370
    25
100
AcDbLine
 10
844.754367
 20
1075.990142
 30
0.0
 11
858.651264
 21
1075.990142
 31
0.0
  0
LINE
  5
3AF
102
{ACAD_REACTORS
330
5B8
102
}
330
1F
100
AcDbEntity
  8
LC-002-002-----0
 62
     7
370
    25
100
AcDbLine
 10
823.703768
 20
1075.989987
 30
0.0
 11
825.45557
 21
1075.989987
 31
0.0
  0
LINE
  5
3B0
102
{ACAD_REACTORS
330
5B8
102
}
330
1F
100
AcDbEntity
  8
LC-002-002-----0
 62
     7
370
    25
100
AcDbLine
 10
860.45198
 20
1075.99
 30
0.0
 11
862.203793
 21
1075.989987
 31
0.0
  0
LINE
  5
3B1
102
{ACAD_REACTORS
330
5B8
102
}
330
1F
100
AcDbEntity
  8
LC-002-002-----0
 62
     7
370
    25
100
AcDbLine
 10
825.638772
 20
1075.490092
 30
0.0
 11
826.06908
 21
1075.490092
 31
0.0
  0
LINE
  5
3B2
102
{ACAD_REACTORS
330
5B8
102
}
330
1F
100
AcDbEntity
  8
LC-002-002-----0
 62
     7
370
    25
100
AcDbLine
 10
859.838481
 20
1075.490092
 30
0.0
 11
860.268789
 21
1075.490092
 31
0.0
  0
LINE
  5
3B3
102
{ACAD_REACTORS
330
5B8
102
}
330
1F
100
AcDbEntity
  8
LC-002-002-----0
 62
     7
370
    25
100
AcDbLine
 10
842.520631
 20
1075.48999
 30
0.0
 11
843.38693
 21
1075.48999
 31
0.0
  0
LINE
  5
3B4
102
{ACAD_REACTORS
330
5B8
102
}
330
1F
100
AcDbEntity
  8
LC-002-002-----0
 62
     7
370
    25
100
AcDbLine
 10
822.95378
 20
1073.24
 30
0.0
 11
862.95378
 21
1073.24
 31
0.0
  0
LINE
  5
3B5
102
{ACAD_REACTORS
330
5B8
102
}
330
1F
100
AcDbEntity
  8
LC-002-002-----0
 62
     7
370
    25
100
AcDbLine
 10
862.953684
 20
1075.240097
 30
0.0
 11
862.203793
 21
1075.989987
 31
0.0
  0
ARC
  5
3B6
102
{ACAD_REACTORS
330
5B8
102
}
330
1F
100
AcDbEntity
  8
LC-002-002-----0
 62
     7
370
    25
100
AcDbCircle
 10
860.70378
 20
1085.74
 30
0.0
 40
1.999999999999995
100
AcDbArc
 50
84.05239
 51
90.0
  0
ARC
  5
3B7
102
{ACAD_REACTORS
330
5B8
102
}
330
1F
100
AcDbEntity
  8
LC-002-002-----0
 62
     7
370
    25
100
AcDbCircle
 10
825.20378
 20
1085.74
 30
0.0
 40
2.0
100
AcDbArc
 50
90.0
 51
95.94761
  0
INSERT
  5
3C1
102
{ACAD_REACTORS
330
5B8
102
}
330
1F
100
AcDbEntity
  8
LC-002-002-----0
 62
     7
370
    25
100
AcDbBlockReference
  2
POLY9
 10
0.0
 20
0.0
 30
0.0
  0
INSERT
  5
3CB
102
{ACAD_REACTORS
330
5B8
102
}
330
1F
100
AcDbEntity
  8
LC-002-002-----0
 62
     7
370
    25
100
AcDbBlockReference
  2
POLY10
 10
0.0
 20
0.0
 30
0.0
  0
INSERT
  5
3D5
102
{ACAD_REACTORS
330
5B8
102
}
330
1F
100
AcDbEntity
  8
LC-002-002-----0
 62
     7
370
    25
100
AcDbBlockReference
  2
POLY11
 10
0.0
 20
0.0
 30
0.0
  0
INSERT
  5
421
102
{ACAD_REACTORS
330
5B8
102
}
330
1F
100
AcDbEntity
  8
LC-002-002-----0
 62
     7
370
    25
100
AcDbBlockReference
  2
POLY12
 10
0.0
 20
0.0
 30
0.0
  0
INSERT
  5
42B
102
{ACAD_REACTORS
330
5B8
102
}
330
1F
100
AcDbEntity
  8
LC-002-002-----0
 62
     7
370
    25
100
AcDbBlockReference
  2
POLY13
 10
0.0
 20
0.0
 30
0.0
  0
INSERT
  5
435
102
{ACAD_REACTORS
330
5B8
102
}
330
1F
100
AcDbEntity
  8
LC-002-002-----0
 62
     7
370
    25
100
AcDbBlockReference
  2
POLY14
 10
0.0
 20
0.0
 30
0.0
  0
INSERT
  5
43F
102
{ACAD_REACTORS
330
5B8
102
}
330
1F
100
AcDbEntity
  8
LC-002-002-----0
 62
     7
370
    25
100
AcDbBlockReference
  2
POLY15
 10
0.0
 20
0.0
 30
0.0
  0
INSERT
  5
48B
102
{ACAD_REACTORS
330
5B8
102
}
330
1F
100
AcDbEntity
  8
LC-002-002-----0
 62
     7
370
    25
100
AcDbBlockReference
  2
POLY16
 10
0.0
 20
0.0
 30
0.0
  0
LINE
  5
48C
102
{ACAD_REACTORS
330
5B8
102
}
330
1F
100
AcDbEntity
  8
LC-002-002-----0
 62
     7
370
    25
100
AcDbLine
 10
827.5732
 20
1073.24
 30
0.0
 11
827.80878
 21
1073.117365
 31
0.0
  0
LINE
  5
48D
102
{ACAD_REACTORS
330
5B8
102
}
330
1F
100
AcDbEntity
  8
LC-002-002-----0
 62
     7
370
    25
100
AcDbLine
 10
858.334361
 20
1073.24
 30
0.0
 11
858.09878
 21
1073.117365
 31
0.0
  0
LINE
  5
48E
102
{ACAD_REACTORS
330
5B8
102
}
330
1F
100
AcDbEntity
  8
LC-002-002-----0
 62
     7
370
    25
100
AcDbLine
 10
827.85378
 20
1068.24
 30
0.0
 11
827.85378
 21
1049.3426
 31
0.0
  0
LINE
  5
48F
102
{ACAD_REACTORS
330
5B8
102
}
330
1F
100
AcDbEntity
  8
LC-002-002-----0
 62
     7
370
    25
100
AcDbLine
 10
858.05378
 20
1068.24
 30
0.0
 11
858.05378
 21
1063.222587
 31
0.0
  0
LINE
  5
490
102
{ACAD_REACTORS
330
5B2
102
}
330
1F
100
AcDbEntity
  8
LC-002-002-----0
 62
     7
370
    25
100
AcDbLine
 10
1005.698615
 20
1153.767018
 30
0.0
 11
1005.68189
 21
1153.926141
 31
0.0
  0
LINE
  5
491
102
{ACAD_REACTORS
330
5B2
102
}
330
1F
100
AcDbEntity
  8
LC-002-002-----0
 62
     7
370
    25
100
AcDbLine
 10
1021.796401
 20
1132.332273
 30
0.0
 11
1021.031554
 21
1132.251884
 31
0.0
  0
LINE
  5
492
102
{ACAD_REACTORS
330
5B8
102
}
330
1F
100
AcDbEntity
  8
LC-002-002-----0
 62
     7
370
    25
100
AcDbLine
 10
827.85378
 20
1068.24
 30
0.0
 11
827.80878
 21
1068.24
 31
0.0
  0
LINE
  5
493
102
{ACAD_REACTORS
330
5B8
102
}
330
1F
100
AcDbEntity
  8
LC-002-002-----0
 62
     7
370
    25
100
AcDbLine
 10
825.061099
 20
1045.74
 30
0.0
 11
825.061099
 21
1047.745437
 31
0.0
  0
LINE
  5
494
102
{ACAD_REACTORS
330
5B7
102
}
330
1F
100
AcDbEntity
  8
LC-002-002-----0
 62
     7
370
    25
100
AcDbLine
 10
768.201552
 20
1059.083603
 30
0.0
 11
767.650056
 21
1059.083603
 31
0.0
  0
INSERT
  5
4AE
330
1F
100
AcDbEntity
  8
LC-009-003-----0
 62
     7
370
    25
100
AcDbBlockReference
  2
LCDIM6
 10
0.0
 20
0.0
 30
0.0
  0
INSERT
  5
4B7
102
{ACAD_REACTORS
330
5AD
102
}
330
1F
100
AcDbEntity
  8
LC-012-005-----0
 62
     7
370
    25
100
AcDbBlockReference
  2
*X124
 10
0.0
 20
0.0
 30
0.0
  0
LINE
  5
4B8
102
{ACAD_REACTORS
330
5AD
102
}
330
1F
100
AcDbEntity
  8
LC-002-002-----0
 62
     7
370
    50
100
AcDbLine
 10
126.427815
 20
1734.03
 30
0.0
 11
126.427815
 21
1606.02774
 31
0.0
  0
LINE
  5
4B9
102
{ACAD_REACTORS
330
5AD
102
}
330
1F
100
AcDbEntity
  8
LC-002-002-----0
 62
     7
370
    50
100
AcDbLine
 10
126.427815
 20
1734.03
 30
0.0
 11
107.427815
 21
1734.03
 31
0.0
  0
LINE
  5
4BA
102
{ACAD_REACTORS
330
5AD
102
}
330
1F
100
AcDbEntity
  8
LC-002-002-----0
 62
     7
370
    50
100
AcDbLine
 10
107.427815
 20
1734.03
 30
0.0
 11
107.427815
 21
1606.02774
 31
0.0
  0
LINE
  5
4BB
102
{ACAD_REACTORS
330
5AD
102
}
330
1F
100
AcDbEntity
  8
LC-002-002-----0
 62
     7
370
    50
100
AcDbLine
 10
117.427815
 20
1772.03
 30
0.0
 11
117.427815
 21
1734.03
 31
0.0
  0
LINE
  5
4BC
102
{ACAD_REACTORS
330
5AD
102
}
330
1F
100
AcDbEntity
  8
LC-002-002-----0
 62
     7
370
    50
100
AcDbLine
 10
117.427815
 20
1772.03
 30
0.0
 11
53.885782
 21
1772.03
 31
0.0
  0
LINE
  5
4BD
102
{ACAD_REACTORS
330
5AD
102
}
330
1F
100
AcDbEntity
  8
LC-002-002-----0
 62
     7
370
    50
100
AcDbLine
 10
117.427815
 20
1734.03
 30
0.0
 11
53.885782
 21
1734.03
 31
0.0
  0
INSERT
  5
4C4
102
{ACAD_REACTORS
330
5AD
102
}
330
1F
100
AcDbEntity
  8
LC-012-005-----0
 62
     7
370
    25
100
AcDbBlockReference
  2
*X225
 10
0.0
 20
0.0
 30
0.0
  0
LINE
  5
4C5
102
{ACAD_REACTORS
330
5AD
102
}
330
1F
100
AcDbEntity
  8
LC-002-002-----0
 62
     7
370
    25
100
AcDbLine
 10
53.885782
 20
1772.03
 30
0.0
 11
50.3555
 21
1753.477462
 31
0.0
  0
LINE
  5
4C6
102
{ACAD_REACTORS
330
5AD
102
}
330
1F
100
AcDbEntity
  8
LC-002-002-----0
 62
     7
370
    25
100
AcDbLine
 10
50.3555
 20
1753.477462
 30
0.0
 11
53.885782
 21
1734.03
 31
0.0
  0
INSERT
  5
4E0
102
{ACAD_REACTORS
330
5AD
102
}
330
1F
100
AcDbEntity
  8
LC-009-003-----0
 62
     7
370
    25
100
AcDbBlockReference
  2
LCDIM7
 10
0.0
 20
0.0
 30
0.0
  0
INSERT
  5
4E9
102
{ACAD_REACTORS
330
5AD
102
}
330
1F
100
AcDbEntity
  8
LC-012-005-----0
 62
     7
370
    25
100
AcDbBlockReference
  2
*X327
 10
0.0
 20
0.0
 30
0.0
  0
INSERT
  5
4F3
102
{ACAD_REACTORS
330
5AD
102
}
330
1F
100
AcDbEntity
  8
LC-012-005-----0
 62
     7
370
    25
100
AcDbBlockReference
  2
*X428
 10
0.0
 20
0.0
 30
0.0
  0
INSERT
  5
50D
102
{ACAD_REACTORS
330
5B9
102
}
330
1F
100
AcDbEntity
  8
LC-009-003-----0
 62
     7
370
    25
100
AcDbBlockReference
  2
LCDIM8
 10
0.0
 20
0.0
 30
0.0
  0
INSERT
  5
527
102
{ACAD_REACTORS
330
5B1
102
}
330
1F
100
AcDbEntity
  8
LC-009-003-----0
 62
     7
370
    25
100
AcDbBlockReference
  2
LCDIM9
 10
0.0
 20
0.0
 30
0.0
  0
INSERT
  5
541
330
1F
100
AcDbEntity
  8
LC-009-003-----0
 62
     7
370
    25
100
AcDbBlockReference
  2
LCDIM10
 10
0.0
 20
0.0
 30
0.0
  0
INSERT
  5
55B
330
1F
100
AcDbEntity
  8
LC-009-003-----0
 62
     7
370
    25
100
AcDbBlockReference
  2
LCDIM11
 10
0.0
 20
0.0
 30
0.0
  0
TEXT
  5
55C
330
1F
100
AcDbEntity
  8
LC-011-004-----0
 62
     7
370
    25
100
AcDbText
 10
723.874512
 20
-265.031872
 30
0.0
 40
25.0
  1
Art. Nr. 265
 41
0.8
  7
LCTX0-400-0-0pDIN-Schrift
100
AcDbText
  0
LINE
  5
55D
102
{ACAD_REACTORS
330
5AC
102
}
330
1F
100
AcDbEntity
  8
LC-002-002-----0
 62
     7
370
    50
100
AcDbLine
 10
920.68643
 20
127.480766
 30
0.0
 11
1009.68643
 21
127.480766
 31
0.0
  0
ARC
  5
55E
102
{ACAD_REACTORS
330
5AC
102
}
330
1F
100
AcDbEntity
  8
LC-002-002-----0
 62
     7
370
    50
100
AcDbCircle
 10
1009.68643
 20
132.480766
 30
0.0
 40
5.0
100
AcDbArc
 50
270.0
 51
0.0
  0
LINE
  5
55F
102
{ACAD_REACTORS
330
5AC
102
}
330
1F
100
AcDbEntity
  8
LC-002-002-----0
 62
     7
370
    50
100
AcDbLine
 10
1014.68643
 20
132.480766
 30
0.0
 11
1014.68643
 21
310.480766
 31
0.0
  0
ARC
  5
560
102
{ACAD_REACTORS
330
5AC
102
}
330
1F
100
AcDbEntity
  8
LC-002-002-----0
 62
     7
370
    50
100
AcDbCircle
 10
1009.68643
 20
310.480766
 30
0.0
 40
5.0
100
AcDbArc
 50
0.0
 51
90.0
  0
LINE
  5
561
102
{ACAD_REACTORS
330
5AC
102
}
330
1F
100
AcDbEntity
  8
LC-002-002-----0
 62
     7
370
    50
100
AcDbLine
 10
1009.68643
 20
315.480766
 30
0.0
 11
831.68643
 21
315.480766
 31
0.0
  0
ARC
  5
562
102
{ACAD_REACTORS
330
5AC
102
}
330
1F
100
AcDbEntity
  8
LC-002-002-----0
 62
     7
370
    50
100
AcDbCircle
 10
831.68643
 20
310.480766
 30
0.0
 40
5.0
100
AcDbArc
 50
90.0
 51
180.0
  0
LINE
  5
563
102
{ACAD_REACTORS
330
5AC
102
}
330
1F
100
AcDbEntity
  8
LC-002-002-----0
 62
     7
370
    50
100
AcDbLine
 10
826.68643
 20
310.480766
 30
0.0
 11
826.68643
 21
132.480766
 31
0.0
  0
ARC
  5
564
102
{ACAD_REACTORS
330
5AC
102
}
330
1F
100
AcDbEntity
  8
LC-002-002-----0
 62
     7
370
    50
100
AcDbCircle
 10
831.68643
 20
132.480766
 30
0.0
 40
5.0
100
AcDbArc
 50
180.0
 51
270.0
  0
LINE
  5
565
102
{ACAD_REACTORS
330
5AC
102
}
330
1F
100
AcDbEntity
  8
LC-002-002-----0
 62
     7
370
    50
100
AcDbLine
 10
831.68643
 20
127.480766
 30
0.0
 11
920.68643
 21
127.480766
 31
0.0
  0
LINE
  5
566
102
{ACAD_REACTORS
330
5AC
102
}
330
1F
100
AcDbEntity
  8
LC-004-006-MLN-0
 62
     7
370
    25
100
AcDbLine
 10
823.68643
 20
221.480766
 30
0.0
 11
1017.68643
 21
221.480766
 31
0.0
  0
LINE
  5
567
102
{ACAD_REACTORS
330
5AC
102
}
330
1F
100
AcDbEntity
  8
LC-004-006-MLN-0
 62
     7
370
    25
100
AcDbLine
 10
920.68643
 20
124.480766
 30
0.0
 11
920.68643
 21
318.480766
 31
0.0
  0
INSERT
  5
581
102
{ACAD_REACTORS
330
5AC
102
}
330
1F
100
AcDbEntity
  8
LC-009-003-----0
 62
     7
370
    25
100
AcDbBlockReference
  2
LCDIM12
 10
0.0
 20
0.0
 30
0.0
  0
INSERT
  5
59B
102
{ACAD_REACTORS
330
5AC
102
}
330
1F
100
AcDbEntity
  8
LC-009-003-----0
 62
     7
370
    25
100
AcDbBlockReference
  2
LCDIM13
 10
0.0
 20
0.0
 30
0.0
  0
INSERT
  5
5AA
102
{ACAD_REACTORS
330
5AC
102
}
330
1F
100
AcDbEntity
  8
LC-009-003-----0
 62
     7
370
    25
100
AcDbBlockReference
  2
LCDIM14
 10
0.0
 20
0.0
 30
0.0
  0
TEXT
  5
5AB
330
1F
100
AcDbEntity
  8
LC-011-004-----0
 62
     7
370
    35
100
AcDbText
 10
781.676486
 20
358.217472
 30
0.0
 40
35.0
  1
Ausschnitt Unterbau M 1:20
 41
0.8
  7
LCTX0-400-0-0pDIN-Schrift
100
AcDbText
  0
ENDSEC
  0
SECTION
  2
OBJECTS
  0
DICTIONARY
  5
C
330
0
100
AcDbDictionary
281
     1
  3
ACAD_GROUP
350
D
  3
ACAD_LAYOUT
350
1A
  3
ACAD_MLINESTYLE
350
17
  3
ACAD_PLOTSETTINGS
350
19
  3
ACAD_PLOTSTYLENAME
350
E
  0
DICTIONARY
  5
D
102
{ACAD_REACTORS
330
C
102
}
330
C
100
AcDbDictionary
281
     1
  3
LCGROUP131
350
5B1
  3
LCGROUP132
350
5AF
  3
LCGROUP133
350
5B0
  3
LCGROUP248
350
5B9
  3
LCGROUP513
350
5B8
  3
LCGROUP514
350
5B7
  3
LCGROUP516
350
5B6
  3
LCGROUP63
350
5AC
  3
LCGROUP86
350
5AD
  3
LCGROUP943
350
5AE
  3
LCGROUP986
350
5B5
  3
LCGROUP987
350
5B4
  3
LCGROUP988
350
5B3
  3
LCGROUP989
350
5B2
  0
DICTIONARY
  5
1A
102
{ACAD_REACTORS
330
C
102
}
330
C
100
AcDbDictionary
281
     1
  3
Layout1
350
1E
  3
Layout2
350
26
  3
Model
350
22
  0
DICTIONARY
  5
17
102
{ACAD_REACTORS
330
C
102
}
330
C
100
AcDbDictionary
281
     1
  3
Standard
350
18
  0
DICTIONARY
  5
19
102
{ACAD_REACTORS
330
C
102
}
330
C
100
AcDbDictionary
281
     1
  0
ACDBDICTIONARYWDFLT
  5
E
102
{ACAD_REACTORS
330
C
102
}
330
C
100
AcDbDictionary
281
     1
  3
Normal
350
F
100
AcDbDictionaryWithDefault
340
F
  0
GROUP
  5
5B1
102
{ACAD_REACTORS
330
D
102
}
330
D
100
AcDbGroup
300
GRP131
 70
     1
 71
     1
340
104
340
105
340
10A
340
10B
340
10C
340
10D
340
10E
340
10F
340
110
340
111
340
112
340
113
340
114
340
115
340
116
340
117
340
118
340
119
340
11B
340
11C
340
11D
340
11E
340
11F
340
120
340
121
340
122
340
123
340
124
340
125
340
126
340
127
340
128
340
182
340
189
340
2D0
340
527
  0
GROUP
  5
5AF
102
{ACAD_REACTORS
330
D
102
}
330
D
100
AcDbGroup
300
GRP132
 70
     1
 71
     1
340
134
340
135
340
136
340
137
340
138
340
139
340
13A
340
13B
340
13C
340
13D
340
13E
340
13F
340
140
340
141
340
142
340
143
340
144
340
145
340
146
340
14A
340
14B
340
14C
340
14D
340
14E
340
14F
340
154
340
155
340
156
340
157
340
158
340
159
340
15A
340
15B
340
15C
340
15D
340
15E
340
15F
340
160
340
161
340
162
340
163
340
164
340
165
340
183
340
184
340
185
340
186
340
18B
340
18C
340
18D
340
18E
  0
GROUP
  5
5B0
102
{ACAD_REACTORS
330
D
102
}
330
D
100
AcDbGroup
300
GRP133
 70
     1
 71
     1
340
132
340
18A
340
18F
340
190
340
191
340
192
340
193
340
194
340
195
340
196
340
197
340
198
340
199
340
19A
340
19B
340
19C
340
19D
340
19E
340
19F
340
1A0
340
1A1
340
1A2
340
1A3
340
1A4
340
1A5
340
1A6
340
1A7
340
1C1
340
1C2
340
1C3
340
1C4
340
1C5
340
1C6
340
1C7
340
1C8
340
1C9
340
1CA
340
1CB
340
1CC
340
1CD
340
1CE
340
1CF
340
1D0
340
1D1
340
1D2
340
1D3
340
1D4
340
1D5
340
1D6
340
1D7
340
1D8
340
1D9
340
1DA
  0
GROUP
  5
5B9
102
{ACAD_REACTORS
330
D
102
}
330
D
100
AcDbGroup
300
GRP248
 70
     1
 71
     1
340
152
340
153
340
187
340
188
340
1DB
340
1DC
340
1DD
340
1DE
340
1E0
340
1E1
340
1E2
340
1E3
340
1FD
340
217
340
226
340
228
340
50D
  0
GROUP
  5
5B8
102
{ACAD_REACTORS
330
D
102
}
330
D
100
AcDbGroup
300
GRP10
 70
     1
 71
     1
340
229
340
2B9
340
2BA
340
2BB
340
2BC
340
2BD
340
2BE
340
2BF
340
2C0
340
2C1
340
2C2
340
2C3
340
2C4
340
2C5
340
2C6
340
2C7
340
2C8
340
2C9
340
2CA
340
2CB
340
2CC
340
2CD
340
2CE
340
2CF
340
394
340
395
340
396
340
397
340
398
340
399
340
39A
340
39B
340
39C
340
39D
340
39E
340
39F
340
3A0
340
3A1
340
3A2
340
3A3
340
3A4
340
3A5
340
3A6
340
3A7
340
3A8
340
3A9
340
3AA
340
3AB
340
3AC
340
3AD
340
3AE
340
3AF
340
3B0
340
3B1
340
3B2
340
3B3
340
3B4
340
3B5
340
3B6
340
3B7
340
3C1
340
3CB
340
3D5
340
421
340
42B
340
435
340
43F
340
48B
340
48C
340
48D
340
48E
340
48F
340
492
340
493
  0
GROUP
  5
5B7
102
{ACAD_REACTORS
330
D
102
}
330
D
100
AcDbGroup
300
GRP514-LCMaster-LCGROUP513
 70
     1
 71
     1
340
238
340
239
340
23A
340
23C
340
23E
340
240
340
241
340
242
340
243
340
244
340
24D
340
24E
340
24F
340
250
340
251
340
252
340
253
340
254
340
255
340
256
340
257
340
26B
340
26C
340
26D
340
26E
340
26F
340
270
340
271
340
272
340
279
340
27A
340
27B
340
27C
340
27D
340
27E
340
27F
340
280
340
281
340
282
340
283
340
284
340
285
340
286
340
296
340
297
340
2A7
340
2A8
340
2B8
340
494
  0
GROUP
  5
5B6
102
{ACAD_REACTORS
330
D
102
}
330
D
100
AcDbGroup
300
GRP516-LCMaster-LCGROUP515
 70
     1
 71
     1
340
22A
340
22B
340
22C
340
22D
340
22E
340
22F
340
230
340
231
340
232
340
233
340
234
340
235
340
236
340
237
340
23B
340
23D
340
23F
340
245
340
246
340
247
340
248
340
249
340
24A
340
24B
340
24C
340
258
340
259
340
25A
340
25B
340
25C
340
25D
340
25E
340
25F
340
260
340
261
340
262
340
263
340
264
340
265
340
266
340
267
340
268
340
269
340
26A
340
277
340
278
  0
GROUP
  5
5AC
102
{ACAD_REACTORS
330
D
102
}
330
D
100
AcDbGroup
300
GRP63
 70
     1
 71
     1
340
55D
340
55E
340
55F
340
560
340
561
340
562
340
563
340
564
340
565
340
566
340
567
340
581
340
59B
340
5AA
  0
GROUP
  5
5AD
102
{ACAD_REACTORS
330
D
102
}
330
D
100
AcDbGroup
300
GRP86
 70
     1
 71
     1
340
129
340
12A
340
12B
340
12C
340
12D
340
12E
340
12F
340
130
340
147
340
148
340
149
340
150
340
4B7
340
4B8
340
4B9
340
4BA
340
4BB
340
4BC
340
4BD
340
4C4
340
4C5
340
4C6
340
4E0
340
4E9
340
4F3
  0
GROUP
  5
5AE
102
{ACAD_REACTORS
330
D
102
}
330
D
100
AcDbGroup
300
GRP943
 70
     1
 71
     1
340
2D1
340
2D2
340
2D3
340
2D4
340
2D5
340
2D6
340
2D7
340
2D8
340
2D9
340
2DA
340
2DB
340
2DC
340
2DD
340
2DE
340
2DF
340
2E0
340
2E1
340
2E2
340
2E3
340
2E4
340
2E5
340
2E6
340
2E7
340
2E8
340
2E9
340
2EA
340
2EB
340
2EC
340
2ED
340
2EE
340
2EF
340
2F0
340
2F1
340
2F2
340
2F3
340
2F4
340
2F5
340
2F6
340
2F7
340
2F8
340
2F9
340
2FA
  0
GROUP
  5
5B5
102
{ACAD_REACTORS
330
D
102
}
330
D
100
AcDbGroup
300
GRP986-LCMaster-LCGROUP513
 70
     1
 71
     1
340
2FC
340
2FE
340
2FF
340
302
340
308
340
311
340
312
340
325
340
326
340
327
340
385
  0
GROUP
  5
5B4
102
{ACAD_REACTORS
330
D
102
}
330
D
100
AcDbGroup
300
GRP987-LCMaster-LCGROUP986
 70
     1
 71
     1
340
300
340
30E
340
313
340
314
340
31D
340
31E
340
31F
340
320
340
321
340
322
  0
GROUP
  5
5B3
102
{ACAD_REACTORS
330
D
102
}
330
D
100
AcDbGroup
300
GRP988-LCMaster-LCGROUP987
 70
     1
 71
     1
340
301
340
304
340
305
340
30B
340
30C
340
30D
340
315
340
386
340
387
340
388
340
389
340
38A
340
38B
  0
GROUP
  5
5B2
102
{ACAD_REACTORS
330
D
102
}
330
D
100
AcDbGroup
300
GRP989-LCMaster-LCGROUP988
 70
     1
 71
     1
340
2FB
340
2FD
340
303
340
306
340
307
340
309
340
30A
340
30F
340
310
340
316
340
317
340
318
340
319
340
31A
340
31B
340
31C
340
323
340
324
340
33F
340
349
340
35B
340
38C
340
38D
340
38E
340
38F
340
390
340
391
340
392
340
393
340
490
340
491
  0
LAYOUT
  5
1E
102
{ACAD_REACTORS
330
1A
102
}
330
1A
100
AcDbPlotSettings
  1

  2

  4

  6

 40
0.0
 41
0.0
 42
0.0
 43
0.0
 44
0.0
 45
0.0
 46
0.0
 47
0.0
 48
0.0
 49
0.0
140
0.0
141
0.0
142
1.0
143
1.0
 70
   688
 72
     0
 73
     0
 74
     5
  7

 75
    16
147
1.0
148
0.0
149
0.0
100
AcDbLayout
  1
Layout1
 70
     1
 71
     1
 10
-525.0
 20
-742.5
 11
1575.0
 21
2227.5
 12
0.0
 22
0.0
 32
0.0
 14
-525.0
 24
-742.5
 34
0.0
 15
1575.0
 25
2227.5
 35
0.0
146
0.0
 13
0.0
 23
0.0
 33
0.0
 16
1.0
 26
0.0
 36
0.0
 17
0.0
 27
1.0
 37
0.0
 76
     0
330
1B
  0
LAYOUT
  5
26
102
{ACAD_REACTORS
330
1A
102
}
330
1A
100
AcDbPlotSettings
  1

  2

  4

  6

 40
0.0
 41
0.0
 42
0.0
 43
0.0
 44
0.0
 45
0.0
 46
0.0
 47
0.0
 48
0.0
 49
0.0
140
0.0
141
0.0
142
1.0
143
1.0
 70
   688
 72
     0
 73
     0
 74
     5
  7

 75
    16
147
1.0
148
0.0
149
0.0
100
AcDbLayout
  1
Layout2
 70
     1
 71
     2
 10
0.0
 20
0.0
 11
0.0
 21
0.0
 12
0.0
 22
0.0
 32
0.0
 14
0.0
 24
0.0
 34
0.0
 15
0.0
 25
0.0
 35
0.0
146
0.0
 13
0.0
 23
0.0
 33
0.0
 16
1.0
 26
0.0
 36
0.0
 17
0.0
 27
1.0
 37
0.0
 76
     0
330
23
  0
LAYOUT
  5
22
102
{ACAD_REACTORS
330
1A
102
}
330
1A
100
AcDbPlotSettings
  1

  2

  4

  6

 40
0.0
 41
0.0
 42
0.0
 43
0.0
 44
0.0
 45
0.0
 46
0.0
 47
0.0
 48
0.0
 49
0.0
140
0.0
141
0.0
142
1.0
143
1.0
 70
  1776
 72
     0
 73
     0
 74
     0
  7

 75
     0
147
1.0
148
0.0
149
0.0
100
AcDbLayout
  1
Model
 70
     1
 71
     0
 10
-525.0
 20
-742.5
 11
1575.0
 21
2227.5
 12
0.0
 22
0.0
 32
0.0
 14
-525.0
 24
-742.5
 34
0.0
 15
1575.0
 25
2227.5
 35
0.0
146
0.0
 13
0.0
 23
0.0
 33
0.0
 16
1.0
 26
0.0
 36
0.0
 17
0.0
 27
1.0
 37
0.0
 76
     0
330
1F
  0
MLINESTYLE
  5
18
102
{ACAD_REACTORS
330
17
102
}
330
17
100
AcDbMlineStyle
  2
Standard
 70
     0
  3

 62
   256
 51
90.0
 52
90.0
 71
     2
 49
0.5
 62
   256
  6
BYLAYER
 49
-0.5
 62
   256
  6
BYLAYER
  0
ACDBPLACEHOLDER
  5
F
102
{ACAD_REACTORS
330
E
102
}
330
E
  0
ENDSEC
  0
EOF
