  0
SECTION
  2
HEADER
  9
$ACADVER
  1
AC1018
  9
$ACADMAINTVER
 70
     0
  9
$DWGCODEPAGE
  3
ANSI_1252
  9
$INSBASE
 10
0.0
 20
0.0
 30
0.0
  9
$EXTMIN
 10
0.0
 20
0.0
 30
0.0
  9
$EXTMAX
 10
2100.0
 20
2970.0
 30
0.0
  9
$LIMMIN
 10
0.0
 20
0.0
  9
$LIMMAX
 10
2100.0
 20
2970.0
  9
$ORTHOMODE
 70
     0
  9
$REGENMODE
 70
     1
  9
$FILLMODE
 70
     1
  9
$QTEXTMODE
 70
     0
  9
$MIRRTEXT
 70
     1
  9
$LTSCALE
 40
10.0
  9
$ATTMODE
 70
     1
  9
$TEXTSIZE
 40
2.5
  9
$TRACEWID
 40
1.0
  9
$TEXTSTYLE
  7
Standard
  9
$CLAYER
  8
0
  9
$CELTYPE
  6
ByLayer
  9
$CECOLOR
 62
     7
  9
$CELTSCALE
 40
1.0
  9
$DISPSILH
 70
     0
  9
$DIMSCALE
 40
10.0
  9
$DIMASZ
 40
3.5
  9
$DIMEXO
 40
0.625
  9
$DIMDLI
 40
3.75
  9
$DIMRND
 40
0.0
  9
$DIMDLE
 40
0.0
  9
$DIMEXE
 40
1.25
  9
$DIMTP
 40
0.0
  9
$DIMTM
 40
0.0
  9
$DIMTXT
 40
3.5
  9
$DIMCEN
 40
2.5
  9
$DIMTSZ
 40
0.0
  9
$DIMTOL
 70
     0
  9
$DIMLIM
 70
     0
  9
$DIMTIH
 70
     0
  9
$DIMTOH
 70
     0
  9
$DIMSE1
 70
     0
  9
$DIMSE2
 70
     0
  9
$DIMTAD
 70
     1
  9
$DIMZIN
 70
     8
  9
$DIMBLK
  1

  9
$DIMASO
 70
     1
  9
$DIMSHO
 70
     1
  9
$DIMPOST
  1

  9
$DIMAPOST
  1

  9
$DIMALT
 70
     0
  9
$DIMALTD
 70
     3
  9
$DIMALTF
 40
0.03937
  9
$DIMLFAC
 40
1.0
  9
$DIMTOFL
 70
     1
  9
$DIMTVP
 40
0.0
  9
$DIMTIX
 70
     0
  9
$DIMSOXD
 70
     0
  9
$DIMSAH
 70
     0
  9
$DIMBLK1
  1

  9
$DIMBLK2
  1

  9
$DIMSTYLE
  2
ISO-25
  9
$DIMCLRD
 70
     0
  9
$DIMCLRE
 70
     0
  9
$DIMCLRT
 70
     0
  9
$DIMTFAC
 40
1.0
  9
$DIMGAP
 40
0.625
  9
$DIMJUST
 70
     0
  9
$DIMSD1
 70
     0
  9
$DIMSD2
 70
     0
  9
$DIMTOLJ
 70
     0
  9
$DIMTZIN
 70
     8
  9
$DIMALTZ
 70
     0
  9
$DIMALTTZ
 70
     0
  9
$DIMUPT
 70
     0
  9
$DIMDEC
 70
     2
  9
$DIMTDEC
 70
     2
  9
$DIMALTU
 70
     2
  9
$DIMALTTD
 70
     3
  9
$DIMTXSTY
  7
Standard
  9
$DIMAUNIT
 70
     0
  9
$DIMADEC
 70
     0
  9
$DIMALTRND
 40
0.0
  9
$DIMAZIN
 70
     0
  9
$DIMDSEP
 70
    44
  9
$DIMATFIT
 70
     3
  9
$DIMFRAC
 70
     0
  9
$DIMLDRBLK
  1

  9
$DIMLUNIT
 70
     2
  9
$DIMLWD
 70
    -2
  9
$DIMLWE
 70
    -2
  9
$DIMTMOVE
 70
     0
  9
$LUNITS
 70
     2
  9
$LUPREC
 70
     4
  9
$SKETCHINC
 40
1.0
  9
$FILLETRAD
 40
10.0
  9
$AUNITS
 70
     0
  9
$AUPREC
 70
     0
  9
$MENU
  1
.
  9
$ELEVATION
 40
0.0
  9
$PELEVATION
 40
0.0
  9
$THICKNESS
 40
0.0
  9
$LIMCHECK
 70
     0
  9
$CHAMFERA
 40
10.0
  9
$CHAMFERB
 40
10.0
  9
$CHAMFERC
 40
20.0
  9
$CHAMFERD
 40
0.0
  9
$SKPOLY
 70
     0
  9
$TDCREATE
 40
2455587.629968912
  9
$TDUCREATE
 40
2455587.588302245
  9
$TDUPDATE
 40
2455587.629968924
  9
$TDUUPDATE
 40
2455587.588302257
  9
$TDINDWG
 40
0.0000000116
  9
$TDUSRTIMER
 40
0.0000000116
  9
$USRTIMER
 70
     1
  9
$ANGBASE
 50
0.0
  9
$ANGDIR
 70
     0
  9
$PDMODE
 70
     0
  9
$PDSIZE
 40
0.0
  9
$PLINEWID
 40
0.0
  9
$SPLFRAME
 70
     0
  9
$SPLINETYPE
 70
     6
  9
$SPLINESEGS
 70
     8
  9
$HANDSEED
  5
529
  9
$SURFTAB1
 70
     6
  9
$SURFTAB2
 70
     6
  9
$SURFTYPE
 70
     6
  9
$SURFU
 70
     6
  9
$SURFV
 70
     6
  9
$UCSBASE
  2

  9
$UCSNAME
  2

  9
$UCSORG
 10
0.0
 20
0.0
 30
0.0
  9
$UCSXDIR
 10
1.0
 20
0.0
 30
0.0
  9
$UCSYDIR
 10
0.0
 20
1.0
 30
0.0
  9
$UCSORTHOREF
  2

  9
$UCSORTHOVIEW
 70
     0
  9
$UCSORGTOP
 10
0.0
 20
0.0
 30
0.0
  9
$UCSORGBOTTOM
 10
0.0
 20
0.0
 30
0.0
  9
$UCSORGLEFT
 10
0.0
 20
0.0
 30
0.0
  9
$UCSORGRIGHT
 10
0.0
 20
0.0
 30
0.0
  9
$UCSORGFRONT
 10
0.0
 20
0.0
 30
0.0
  9
$UCSORGBACK
 10
0.0
 20
0.0
 30
0.0
  9
$PUCSBASE
  2

  9
$PUCSNAME
  2

  9
$PUCSORG
 10
0.0
 20
0.0
 30
0.0
  9
$PUCSXDIR
 10
1.0
 20
0.0
 30
0.0
  9
$PUCSYDIR
 10
0.0
 20
1.0
 30
0.0
  9
$PUCSORTHOREF
  2

  9
$PUCSORTHOVIEW
 70
     0
  9
$PUCSORGTOP
 10
0.0
 20
0.0
 30
0.0
  9
$PUCSORGBOTTOM
 10
0.0
 20
0.0
 30
0.0
  9
$PUCSORGLEFT
 10
0.0
 20
0.0
 30
0.0
  9
$PUCSORGRIGHT
 10
0.0
 20
0.0
 30
0.0
  9
$PUCSORGFRONT
 10
0.0
 20
0.0
 30
0.0
  9
$PUCSORGBACK
 10
0.0
 20
0.0
 30
0.0
  9
$USERI1
 70
     0
  9
$USERI2
 70
     0
  9
$USERI3
 70
     0
  9
$USERI4
 70
     0
  9
$USERI5
 70
     0
  9
$USERR1
 40
0.0
  9
$USERR2
 40
0.0
  9
$USERR3
 40
0.0
  9
$USERR4
 40
0.0
  9
$USERR5
 40
0.0
  9
$WORLDVIEW
 70
     1
  9
$SHADEDGE
 70
     3
  9
$SHADEDIF
 70
    70
  9
$TILEMODE
 70
     1
  9
$MAXACTVP
 70
    64
  9
$PINSBASE
 10
0.0
 20
0.0
 30
0.0
  9
$PLIMCHECK
 70
     0
  9
$PEXTMIN
 10
0.0
 20
0.0
 30
0.0
  9
$PEXTMAX
 10
2100.0
 20
2970.0
 30
0.0
  9
$PLIMMIN
 10
0.0
 20
0.0
  9
$PLIMMAX
 10
2100.0
 20
2970.0
  9
$UNITMODE
 70
     0
  9
$VISRETAIN
 70
     1
  9
$PLINEGEN
 70
     0
  9
$PSLTSCALE
 70
     1
  9
$TREEDEPTH
 70
  3020
  9
$CMLSTYLE
  2
Standard
  9
$CMLJUST
 70
     0
  9
$CMLSCALE
 40
20.0
  9
$PROXYGRAPHICS
 70
     1
  9
$MEASUREMENT
 70
     1
  9
$CELWEIGHT
370
    -1
  9
$ENDCAPS
280
     0
  9
$JOINSTYLE
280
     0
  9
$LWDISPLAY
290
     0
  9
$INSUNITS
 70
     4
  9
$HYPERLINKBASE
  1

  9
$STYLESHEET
  1

  9
$XEDIT
290
     1
  9
$CEPSNTYPE
380
     0
  9
$PSTYLEMODE
290
     1
  9
$FINGERPRINTGUID
  2
{FAEB1C30-E019-11D5-929B-00C0DF256EC4}
  9
$VERSIONGUID
  2
{FAEB1C32-E019-11D5-929B-00C0DF256EC4}
  9
$EXTNAMES
290
     1
  9
$PSVPSCALE
 40
0.0
  9
$OLESTARTUP
290
     0
  9
$SORTENTS
280
   127
  9
$INDEXCTL
280
     0
  9
$HIDETEXT
280
     1
  9
$XCLIPFRAME
290
     0
  9
$HALOGAP
280
     0
  9
$OBSCOLOR
 70
   257
  9
$OBSLTYPE
280
     0
  9
$INTERSECTIONDISPLAY
280
     0
  9
$INTERSECTIONCOLOR
 70
   257
  9
$DIMASSOC
280
     2
  9
$PROJECTNAME
  1

  0
ENDSEC
  0
SECTION
  2
CLASSES
  0
CLASS
  1
ACDBDICTIONARYWDFLT
  2
AcDbDictionaryWithDefault
  3
ObjectDBX Classes
 90
        0
 91
        1
280
     0
281
     0
  0
ENDSEC
  0
SECTION
  2
TABLES
  0
TABLE
  2
VPORT
  5
8
330
0
100
AcDbSymbolTable
 70
     2
  0
VPORT
  5
29
330
8
100
AcDbSymbolTableRecord
100
AcDbViewportTableRecord
  2
*ACTIVE
 70
     0
 10
0.0
 20
0.0
 11
1.0
 21
1.0
 12
1050.0
 22
1485.0
 13
0.0
 23
0.0
 14
1.0
 24
1.0
 15
0.0
 25
0.0
 16
0.0
 26
0.0
 36
1.0
 17
0.0
 27
0.0
 37
0.0
 40
2970.0
 41
0.707071
 42
50.0
 43
0.0
 44
0.0
 50
0.0
 51
0.0
 71
    16
 72
   100
 73
     1
 74
     0
 75
     0
 76
     0
 77
     0
 78
     0
281
     0
 65
     0
110
0.0
120
0.0
130
0.0
111
1.0
121
0.0
131
0.0
112
0.0
122
1.0
132
0.0
 79
     0
146
0.0
  0
ENDTAB
  0
TABLE
  2
LTYPE
  5
5
330
0
100
AcDbSymbolTable
 70
     4
  0
LTYPE
  5
14
330
5
100
AcDbSymbolTableRecord
100
AcDbLinetypeTableRecord
  2
ByBlock
 70
     0
  3

 72
    65
 73
     0
 40
0.0
  0
LTYPE
  5
15
330
5
100
AcDbSymbolTableRecord
100
AcDbLinetypeTableRecord
  2
ByLayer
 70
     0
  3

 72
    65
 73
     0
 40
0.0
  0
LTYPE
  5
16
330
5
100
AcDbSymbolTableRecord
100
AcDbLinetypeTableRecord
  2
Continuous
 70
     0
  3
Solid line
 72
    65
 73
     0
 40
0.0
  0
LTYPE
  5
2A
330
5
100
AcDbSymbolTableRecord
100
AcDbLinetypeTableRecord
  2
DASHED
 70
     0
  3
__ __ __ __ __
 72
    65
 73
     2
 40
6.25
 49
5.0
 74
     4
 75
     0
340
0
 46
1.0
 50
0.0
 44
0.0
 45
0.0
 49
-1.25
 74
     4
 75
     0
340
0
 46
1.0
 50
0.0
 44
0.0
 45
0.0
  0
LTYPE
  5
10C
330
5
100
AcDbSymbolTableRecord
100
AcDbLinetypeTableRecord
  2
CENTER
 70
     0
  3
__ . __ . __ . __ . __
 72
    65
 73
     4
 40
7.5
 49
5.0
 74
     4
 75
     0
340
0
 46
1.0
 50
0.0
 44
0.0
 45
0.0
 49
-1.25
 74
     4
 75
     0
340
0
 46
1.0
 50
0.0
 44
0.0
 45
0.0
 49
0.0
 74
     4
 75
     0
340
0
 46
1.0
 50
0.0
 44
0.0
 45
0.0
 49
-1.25
 74
     4
 75
     0
340
0
 46
1.0
 50
0.0
 44
0.0
 45
0.0
  0
LTYPE
  5
117
330
5
100
AcDbSymbolTableRecord
100
AcDbLinetypeTableRecord
  2
DASHDOT
 70
     0
  3
__ . __ . __ . __ . __
 72
    65
 73
     4
 40
7.5
 49
5.0
 74
     4
 75
     0
340
0
 46
1.0
 50
0.0
 44
0.0
 45
0.0
 49
-1.25
 74
     4
 75
     0
340
0
 46
1.0
 50
0.0
 44
0.0
 45
0.0
 49
0.0
 74
     4
 75
     0
340
0
 46
1.0
 50
0.0
 44
0.0
 45
0.0
 49
-1.25
 74
     4
 75
     0
340
0
 46
1.0
 50
0.0
 44
0.0
 45
0.0
  0
ENDTAB
  0
TABLE
  2
LAYER
  5
2
330
0
100
AcDbSymbolTable
 70
    16
  0
LAYER
  5
10
330
2
100
AcDbSymbolTableRecord
100
AcDbLayerTableRecord
  2
0
 70
     0
 62
     7
  6
Continuous
370
    -3
390
F
  0
LAYER
  5
2B
330
2
100
AcDbSymbolTableRecord
100
AcDbLayerTableRecord
  2
LC-INFO-1-10-mm-A4H-0
 70
     1
 62
     7
  6
ByBlock
370
    -3
390
F
  0
LAYER
  5
2C
330
2
100
AcDbSymbolTableRecord
100
AcDbLayerTableRecord
  2
LC-CUT-HIDDEN
 70
     0
 62
     7
  6
DASHED
370
    -3
390
F
  0
LAYER
  5
2D
330
2
100
AcDbSymbolTableRecord
100
AcDbLayerTableRecord
  2
LC-VIEWPORT
 70
     0
 62
     7
  6
ByBlock
370
    -3
390
F
  0
LAYER
  5
2E
330
2
100
AcDbSymbolTableRecord
100
AcDbLayerTableRecord
  2
LC-3D-HIDDEN
 70
     0
 62
     9
  6
DASHED
370
    -3
390
F
  0
LAYER
  5
33
330
2
100
AcDbSymbolTableRecord
100
AcDbLayerTableRecord
  2
LC-001-111-----0
 70
     0
 62
   253
  6
ByBlock
370
    -3
390
F
  0
LAYER
  5
A1
330
2
100
AcDbSymbolTableRecord
100
AcDbLayerTableRecord
  2
LC-002-002-----0
 70
     0
 62
     1
  6
ByBlock
370
    -3
390
F
  0
LAYER
  5
103
330
2
100
AcDbSymbolTableRecord
100
AcDbLayerTableRecord
  2
LC-003-230-ZVN-0
 70
     0
 62
     7
  6
ByBlock
370
    -3
390
F
  0
LAYER
  5
105
330
2
100
AcDbSymbolTableRecord
100
AcDbLayerTableRecord
  2
LC-004-002-RND-0
 70
     0
 62
     1
  6
ByBlock
370
    -3
390
F
  0
LAYER
  5
10D
330
2
100
AcDbSymbolTableRecord
100
AcDbLayerTableRecord
  2
LC-005-006-MLN-0
 70
     0
 62
     2
  6
CENTER
370
    -3
390
F
  0
LAYER
  5
16B
330
2
100
AcDbSymbolTableRecord
100
AcDbLayerTableRecord
  2
LC-006-100-D00-0
 70
     0
 62
    44
  6
ByBlock
370
    -3
390
F
  0
LAYER
  5
1FA
330
2
100
AcDbSymbolTableRecord
100
AcDbLayerTableRecord
  2
LC-007-003-MTH-0
 70
     0
 62
     2
  6
ByBlock
370
    -3
390
F
  0
LAYER
  5
1FD
330
2
100
AcDbSymbolTableRecord
100
AcDbLayerTableRecord
  2
LC-008-003-MTG-0
 70
     0
 62
     2
  6
ByBlock
370
    -3
390
F
  0
LAYER
  5
1FF
330
2
100
AcDbSymbolTableRecord
100
AcDbLayerTableRecord
  2
LC-009-003-----0
 70
     0
 62
     2
  6
ByBlock
370
    -3
390
F
  0
LAYER
  5
273
330
2
100
AcDbSymbolTableRecord
100
AcDbLayerTableRecord
  2
LC-010-004-----0
 70
     0
 62
     7
  6
ByBlock
370
    -3
390
F
  0
LAYER
  5
288
330
2
100
AcDbSymbolTableRecord
100
AcDbLayerTableRecord
  2
LC-011-005-----0
 70
     0
 62
     2
  6
ByBlock
370
    -3
390
F
  0
ENDTAB
  0
TABLE
  2
STYLE
  5
3
330
0
100
AcDbSymbolTable
 70
     2
  0
STYLE
  5
11
330
3
100
AcDbSymbolTableRecord
100
AcDbTextStyleTableRecord
  2
Standard
 70
     0
 40
0.0
 41
1.0
 50
0.0
 71
     0
 42
2.5
  3
txt
  4

  0
STYLE
  5
2F
330
3
100
AcDbSymbolTableRecord
100
AcDbTextStyleTableRecord
  2
LCTX0-400-0-0pDIN-Schrift
 70
     0
 40
0.0
 41
0.7
 50
0.0
 71
     0
 42
3.5
  3
TXT
  4

  0
ENDTAB
  0
TABLE
  2
VIEW
  5
6
330
0
100
AcDbSymbolTable
 70
     0
  0
ENDTAB
  0
TABLE
  2
UCS
  5
7
330
0
100
AcDbSymbolTable
 70
     0
  0
ENDTAB
  0
TABLE
  2
APPID
  5
9
330
0
100
AcDbSymbolTable
 70
     1
  0
APPID
  5
12
330
9
100
AcDbSymbolTableRecord
100
AcDbRegAppTableRecord
  2
ACAD
 70
     0
  0
ENDTAB
  0
TABLE
  2
DIMSTYLE
  5
A
330
0
100
AcDbSymbolTable
 70
     1
100
AcDbDimStyleTable
  0
DIMSTYLE
105
27
330
A
100
AcDbSymbolTableRecord
100
AcDbDimStyleTableRecord
  2
ISO-25
 70
     0
 41
2.5
 42
0.625
 43
3.75
 44
1.25
 73
     0
 74
     0
 77
     1
 78
     8
140
2.5
141
2.5
143
0.03937
147
0.625
171
     3
172
     1
271
     2
272
     2
274
     3
278
    44
283
     0
284
     8
340
11
  0
ENDTAB
  0
TABLE
  2
BLOCK_RECORD
  5
1
330
0
100
AcDbSymbolTable
 70
    22
  0
BLOCK_RECORD
  5
1F
330
1
100
AcDbSymbolTableRecord
100
AcDbBlockTableRecord
  2
*Model_Space
340
22
  0
BLOCK_RECORD
  5
1B
330
1
100
AcDbSymbolTableRecord
100
AcDbBlockTableRecord
  2
*Paper_Space
340
1E
  0
BLOCK_RECORD
  5
23
330
1
100
AcDbSymbolTableRecord
100
AcDbBlockTableRecord
  2
*Paper_Space0
340
26
  0
BLOCK_RECORD
  5
30
330
1
100
AcDbSymbolTableRecord
100
AcDbBlockTableRecord
  2
SYM1
340
0
102
{BLKREFS
331
104
102
}
  0
BLOCK_RECORD
  5
1F7
330
1
100
AcDbSymbolTableRecord
100
AcDbBlockTableRecord
  2
LCDIM1
340
0
102
{BLKREFS
331
213
102
}
  0
BLOCK_RECORD
  5
225
330
1
100
AcDbSymbolTableRecord
100
AcDbBlockTableRecord
  2
LCDIM2
340
0
102
{BLKREFS
331
23E
102
}
  0
BLOCK_RECORD
  5
23F
330
1
100
AcDbSymbolTableRecord
100
AcDbBlockTableRecord
  2
LCDIM3
340
0
102
{BLKREFS
331
258
102
}
  0
BLOCK_RECORD
  5
259
330
1
100
AcDbSymbolTableRecord
100
AcDbBlockTableRecord
  2
LCDIM4
340
0
102
{BLKREFS
331
272
102
}
  0
BLOCK_RECORD
  5
285
330
1
100
AcDbSymbolTableRecord
100
AcDbBlockTableRecord
  2
*X16
340
0
102
{BLKREFS
331
290
102
}
  0
BLOCK_RECORD
  5
2D1
330
1
100
AcDbSymbolTableRecord
100
AcDbBlockTableRecord
  2
POLY1
340
0
102
{BLKREFS
331
2D5
102
}
  0
BLOCK_RECORD
  5
30F
330
1
100
AcDbSymbolTableRecord
100
AcDbBlockTableRecord
  2
LCDIM5
340
0
102
{BLKREFS
331
328
102
}
  0
BLOCK_RECORD
  5
329
330
1
100
AcDbSymbolTableRecord
100
AcDbBlockTableRecord
  2
LCDIM6
340
0
102
{BLKREFS
331
342
102
}
  0
BLOCK_RECORD
  5
343
330
1
100
AcDbSymbolTableRecord
100
AcDbBlockTableRecord
  2
LCDIM7
340
0
102
{BLKREFS
331
351
102
}
  0
BLOCK_RECORD
  5
353
330
1
100
AcDbSymbolTableRecord
100
AcDbBlockTableRecord
  2
LCDIM8
340
0
102
{BLKREFS
331
36C
102
}
  0
BLOCK_RECORD
  5
36D
330
1
100
AcDbSymbolTableRecord
100
AcDbBlockTableRecord
  2
LCDIM9
340
0
102
{BLKREFS
331
386
102
}
  0
BLOCK_RECORD
  5
387
330
1
100
AcDbSymbolTableRecord
100
AcDbBlockTableRecord
  2
LCDIM10
340
0
102
{BLKREFS
331
395
102
}
  0
BLOCK_RECORD
  5
39A
330
1
100
AcDbSymbolTableRecord
100
AcDbBlockTableRecord
  2
LCDIM11
340
0
102
{BLKREFS
331
3B3
102
}
  0
BLOCK_RECORD
  5
3F7
330
1
100
AcDbSymbolTableRecord
100
AcDbBlockTableRecord
  2
LCDIM12
340
0
102
{BLKREFS
331
410
102
}
  0
BLOCK_RECORD
  5
411
330
1
100
AcDbSymbolTableRecord
100
AcDbBlockTableRecord
  2
LCDIM13
340
0
102
{BLKREFS
331
42A
102
}
  0
BLOCK_RECORD
  5
42B
330
1
100
AcDbSymbolTableRecord
100
AcDbBlockTableRecord
  2
LCDIM14
340
0
102
{BLKREFS
331
444
102
}
  0
BLOCK_RECORD
  5
470
330
1
100
AcDbSymbolTableRecord
100
AcDbBlockTableRecord
  2
LCDIM15
340
0
102
{BLKREFS
331
489
102
}
  0
BLOCK_RECORD
  5
49B
330
1
100
AcDbSymbolTableRecord
100
AcDbBlockTableRecord
  2
POLY2
340
0
102
{BLKREFS
331
4C4
102
}
  0
BLOCK_RECORD
  5
4F7
330
1
100
AcDbSymbolTableRecord
100
AcDbBlockTableRecord
  2
*X220
340
0
102
{BLKREFS
331
500
102
}
  0
BLOCK_RECORD
  5
501
330
1
100
AcDbSymbolTableRecord
100
AcDbBlockTableRecord
  2
LCDIM16
340
0
102
{BLKREFS
331
51A
102
}
  0
ENDTAB
  0
ENDSEC
  0
SECTION
  2
BLOCKS
  0
BLOCK
  5
20
330
1F
100
AcDbEntity
  8
0
100
AcDbBlockBegin
  2
*Model_Space
 70
     0
 71
     0
 10
0.0
 20
0.0
 30
0.0
  3
*Model_Space
  1

  0
ENDBLK
  5
21
330
1F
100
AcDbEntity
  8
0
100
AcDbBlockEnd
  0
BLOCK
  5
1C
330
1B
100
AcDbEntity
 67
     1
  8
0
100
AcDbBlockBegin
  2
*Paper_Space
 70
     0
 71
     0
 10
0.0
 20
0.0
 30
0.0
  3
*Paper_Space
  1

  0
ENDBLK
  5
1D
330
1B
100
AcDbEntity
 67
     1
  8
0
100
AcDbBlockEnd
  0
BLOCK
  5
24
330
23
100
AcDbEntity
  8
0
100
AcDbBlockBegin
  2
*Paper_Space0
 70
     0
 71
     0
 10
0.0
 20
0.0
 30
0.0
  3
*Paper_Space0
  1

  0
ENDBLK
  5
25
330
23
100
AcDbEntity
  8
0
100
AcDbBlockEnd
  0
BLOCK
  5
31
330
30
100
AcDbEntity
  8
0
100
AcDbBlockBegin
  2
SYM1
 70
     0
 71
     0
 10
0.0
 20
0.0
 30
0.0
  3
SYM1
  1

  4
SYM1
  0
LINE
  5
34
330
30
100
AcDbEntity
  8
LC-001-111-----0
 62
   253
370
    50
100
AcDbLine
 10
2050.0
 20
50.0
 30
0.0
 11
2050.0
 21
2920.0
 31
0.0
  0
LINE
  5
35
330
30
100
AcDbEntity
  8
LC-001-111-----0
 62
   253
370
    25
100
AcDbLine
 10
178.0
 20
220.0
 30
0.0
 11
724.0
 21
220.0
 31
0.0
  0
LINE
  5
36
330
30
100
AcDbEntity
  8
LC-001-111-----0
 62
   253
370
    35
100
AcDbLine
 10
724.0
 20
220.0
 30
0.0
 11
2050.0
 21
220.0
 31
0.0
  0
LINE
  5
37
330
30
100
AcDbEntity
  8
LC-001-111-----0
 62
   253
370
    50
100
AcDbLine
 10
178.0
 20
602.5
 30
0.0
 11
2050.0
 21
602.5
 31
0.0
  0
LINE
  5
38
330
30
100
AcDbEntity
  8
LC-001-111-----0
 62
   253
370
    25
100
AcDbLine
 10
178.0
 20
92.5
 30
0.0
 11
2050.0
 21
92.5
 31
0.0
  0
LINE
  5
39
330
30
100
AcDbEntity
  8
LC-001-111-----0
 62
   253
370
    25
100
AcDbLine
 10
178.0
 20
135.0
 30
0.0
 11
724.0
 21
135.0
 31
0.0
  0
LINE
  5
3A
330
30
100
AcDbEntity
  8
LC-001-111-----0
 62
   253
370
    25
100
AcDbLine
 10
178.0
 20
177.5
 30
0.0
 11
724.0
 21
177.5
 31
0.0
  0
LINE
  5
3B
330
30
100
AcDbEntity
  8
LC-001-111-----0
 62
   253
370
    25
100
AcDbLine
 10
178.0
 20
262.5
 30
0.0
 11
1166.0
 21
262.5
 31
0.0
  0
LINE
  5
3C
330
30
100
AcDbEntity
  8
LC-001-111-----0
 62
   253
370
    25
100
AcDbLine
 10
178.0
 20
305.0
 30
0.0
 11
1166.0
 21
305.0
 31
0.0
  0
LINE
  5
3D
330
30
100
AcDbEntity
  8
LC-001-111-----0
 62
   253
370
    25
100
AcDbLine
 10
178.0
 20
347.5
 30
0.0
 11
1166.0
 21
347.5
 31
0.0
  0
LINE
  5
3E
330
30
100
AcDbEntity
  8
LC-001-111-----0
 62
   253
370
    25
100
AcDbLine
 10
178.0
 20
390.0
 30
0.0
 11
1166.0
 21
390.0
 31
0.0
  0
LINE
  5
3F
330
30
100
AcDbEntity
  8
LC-001-111-----0
 62
   253
370
    35
100
AcDbLine
 10
178.0
 20
432.5
 30
0.0
 11
2050.0
 21
432.5
 31
0.0
  0
LINE
  5
40
330
30
100
AcDbEntity
  8
LC-001-111-----0
 62
   253
370
    25
100
AcDbLine
 10
828.0
 20
262.5
 30
0.0
 11
828.0
 21
432.5
 31
0.0
  0
LINE
  5
41
330
30
100
AcDbEntity
  8
LC-001-111-----0
 62
   253
370
    35
100
AcDbLine
 10
1920.0
 20
92.5
 30
0.0
 11
1920.0
 21
220.0
 31
0.0
  0
LINE
  5
42
330
30
100
AcDbEntity
  8
LC-001-111-----0
 62
   253
370
    25
100
AcDbLine
 10
1166.0
 20
538.75
 30
0.0
 11
2050.0
 21
538.75
 31
0.0
  0
LINE
  5
43
330
30
100
AcDbEntity
  8
LC-001-111-----0
 62
   253
370
    25
100
AcDbLine
 10
256.0
 20
50.0
 30
0.0
 11
256.0
 21
432.5
 31
0.0
  0
LINE
  5
44
330
30
100
AcDbEntity
  8
LC-001-111-----0
 62
   253
370
    25
100
AcDbLine
 10
516.0
 20
50.0
 30
0.0
 11
516.0
 21
432.5
 31
0.0
  0
LINE
  5
45
330
30
100
AcDbEntity
  8
LC-001-111-----0
 62
   253
370
    25
100
AcDbLine
 10
646.0
 20
50.0
 30
0.0
 11
646.0
 21
432.5
 31
0.0
  0
LINE
  5
46
330
30
100
AcDbEntity
  8
LC-001-111-----0
 62
   253
370
    35
100
AcDbLine
 10
724.0
 20
50.0
 30
0.0
 11
724.0
 21
602.5
 31
0.0
  0
LINE
  5
47
330
30
100
AcDbEntity
  8
LC-001-111-----0
 62
   253
370
    35
100
AcDbLine
 10
1166.0
 20
50.0
 30
0.0
 11
1166.0
 21
602.5
 31
0.0
  0
LINE
  5
48
330
30
100
AcDbEntity
  8
LC-001-111-----0
 62
   253
370
    25
100
AcDbLine
 10
1920.0
 20
135.0
 30
0.0
 11
2050.0
 21
135.0
 31
0.0
  0
LINE
  5
49
330
30
100
AcDbEntity
  8
LC-001-111-----0
 62
   253
370
    25
100
AcDbLine
 10
984.0
 20
220.0
 30
0.0
 11
984.0
 21
602.5
 31
0.0
  0
LINE
  5
4A
330
30
100
AcDbEntity
  8
LC-001-111-----0
 62
   253
370
    25
100
AcDbLine
 10
1686.0
 20
538.75
 30
0.0
 11
1686.0
 21
602.5
 31
0.0
  0
LINE
  5
4B
330
30
100
AcDbEntity
  8
LC-001-111-----0
 62
   253
370
    25
100
AcDbLine
 10
1608.0
 20
50.0
 30
0.0
 11
1608.0
 21
92.5
 31
0.0
  0
LINE
  5
4C
330
30
100
AcDbEntity
  8
LC-001-111-----0
 62
   253
370
    50
100
AcDbLine
 10
178.0
 20
50.0
 30
0.0
 11
178.0
 21
2920.0
 31
0.0
  0
LINE
  5
4D
330
30
100
AcDbEntity
  8
LC-001-111-----0
 62
   253
370
    50
100
AcDbLine
 10
178.0
 20
2920.0
 30
0.0
 11
2050.0
 21
2920.0
 31
0.0
  0
TEXT
  5
4E
330
30
100
AcDbEntity
  8
LC-001-111-----0
 62
     7
370
    25
100
AcDbText
 10
1471.410714
 20
558.125
 30
0.0
 40
25.0
  1
1:10
 41
0.75
  7
LCTX0-400-0-0pDIN-Schrift
 72
     1
 11
1504.0
 21
558.125
 31
0.0
100
AcDbText
  0
TEXT
  5
4F
330
30
100
AcDbEntity
  8
LC-001-111-----0
 62
     7
370
    25
100
AcDbText
 10
1947.410714
 20
101.25
 30
0.0
 40
25.0
  1
1
 41
0.75
  7
LCTX0-400-0-0pDIN-Schrift
 72
     1
 11
1955.0
 21
101.25
 31
0.0
100
AcDbText
  0
TEXT
  5
50
330
30
100
AcDbEntity
  8
LC-001-111-----0
 62
     7
370
    25
100
AcDbText
 10
740.285714
 20
398.75
 30
0.0
 40
25.0
  1
2010
 41
0.75
  7
LCTX0-400-0-0pDIN-Schrift
 72
     1
 11
776.0
 21
398.75
 31
0.0
100
AcDbText
  0
TEXT
  5
51
330
30
100
AcDbEntity
  8
LC-001-111-----0
 62
     7
370
    25
100
AcDbText
 10
861.803571
 20
356.25
 30
0.0
 40
25.0
  1
09.02.
 41
0.75
  7
LCTX0-400-0-0pDIN-Schrift
 72
     1
 11
906.0
 21
356.25
 31
0.0
100
AcDbText
  0
TEXT
  5
52
330
30
100
AcDbEntity
  8
LC-001-111-----0
 62
     7
370
    25
100
AcDbText
 10
1056.696429
 20
356.25
 30
0.0
 40
25.0
  1
HÄ
 41
0.75
  7
LCTX0-400-0-0pDIN-Schrift
 72
     1
 11
1075.0
 21
356.25
 31
0.0
100
AcDbText
  0
TEXT
  5
53
330
30
100
AcDbEntity
  8
LC-001-111-----0
 62
   253
370
    20
100
AcDbText
 10
1183.923077
 20
560.625
 30
0.0
 40
20.0
  1
Maßstab
 41
0.75
  7
LCTX0-400-0-0pDIN-Schrift
100
AcDbText
  0
TEXT
  5
54
330
30
100
AcDbEntity
  8
LC-001-111-----0
 62
   253
370
    20
100
AcDbText
 10
869.928571
 20
401.25
 30
0.0
 40
20.0
  1
Datum
 41
0.75
  7
LCTX0-400-0-0pDIN-Schrift
 72
     1
 11
906.0
 21
401.25
 31
0.0
100
AcDbText
  0
TEXT
  5
55
330
30
100
AcDbEntity
  8
LC-001-111-----0
 62
   253
370
    20
100
AcDbText
 10
1042.857143
 20
401.25
 30
0.0
 40
20.0
  1
Name
 41
0.75
  7
LCTX0-400-0-0pDIN-Schrift
 72
     1
 11
1075.0
 21
401.25
 31
0.0
100
AcDbText
  0
TEXT
  5
56
330
30
100
AcDbEntity
  8
LC-001-111-----0
 62
   253
370
    20
100
AcDbText
 10
741.923077
 20
358.75
 30
0.0
 40
20.0
  1
Bearb.
 41
0.75
  7
LCTX0-400-0-0pDIN-Schrift
100
AcDbText
  0
TEXT
  5
57
330
30
100
AcDbEntity
  8
LC-001-111-----0
 62
   253
370
    20
100
AcDbText
 10
741.923077
 20
316.25
 30
0.0
 40
20.0
  1
Gepr.
 41
0.75
  7
LCTX0-400-0-0pDIN-Schrift
100
AcDbText
  0
TEXT
  5
58
330
30
100
AcDbEntity
  8
LC-001-111-----0
 62
   253
370
    20
100
AcDbText
 10
741.923077
 20
273.75
 30
0.0
 40
20.0
  1
Norm
 41
0.75
  7
LCTX0-400-0-0pDIN-Schrift
100
AcDbText
  0
TEXT
  5
59
330
30
100
AcDbEntity
  8
LC-001-111-----0
 62
   253
370
    20
100
AcDbText
 10
1937.923077
 20
188.75
 30
0.0
 40
20.0
  1
Blatt
 41
0.75
  7
LCTX0-400-0-0pDIN-Schrift
100
AcDbText
  0
TEXT
  5
5A
330
30
100
AcDbEntity
  8
LC-001-111-----0
 62
   253
370
    20
100
AcDbText
 10
2012.076923
 20
103.75
 30
0.0
 40
20.0
  1
Bl.
 41
0.75
  7
LCTX0-400-0-0pDIN-Schrift
 72
     2
 11
2037.076923
 21
103.75
 31
0.0
100
AcDbText
  0
TEXT
  5
5B
330
30
100
AcDbEntity
  8
LC-001-111-----0
 62
   253
370
    20
100
AcDbText
 10
200.0
 20
61.25
 30
0.0
 40
20.0
  1
Zust.
 41
0.6
  7
LCTX0-400-0-0pDIN-Schrift
 72
     1
 11
222.0
 21
61.25
 31
0.0
100
AcDbText
  0
TEXT
  5
5C
330
30
100
AcDbEntity
  8
LC-001-111-----0
 62
   253
370
    20
100
AcDbText
 10
334.928571
 20
61.25
 30
0.0
 40
20.0
  1
Änderung
 41
0.75
  7
LCTX0-400-0-0pDIN-Schrift
 72
     1
 11
386.0
 21
61.25
 31
0.0
100
AcDbText
  0
TEXT
  5
5D
330
30
100
AcDbEntity
  8
LC-001-111-----0
 62
   253
370
    20
100
AcDbText
 10
544.928571
 20
61.25
 30
0.0
 40
20.0
  1
Datum
 41
0.75
  7
LCTX0-400-0-0pDIN-Schrift
 72
     1
 11
581.0
 21
61.25
 31
0.0
100
AcDbText
  0
TEXT
  5
5E
330
30
100
AcDbEntity
  8
LC-001-111-----0
 62
   253
370
    20
100
AcDbText
 10
652.857143
 20
61.25
 30
0.0
 40
20.0
  1
Name
 41
0.75
  7
LCTX0-400-0-0pDIN-Schrift
 72
     1
 11
685.0
 21
61.25
 31
0.0
100
AcDbText
  0
TEXT
  5
5F
330
30
100
AcDbEntity
  8
LC-001-111-----0
 62
     7
370
    50
100
AcDbText
 10
1466.035714
 20
343.75
 30
0.0
 40
50.0
  1
City D100
 41
0.75
  7
LCTX0-400-0-0pDIN-Schrift
 72
     1
 11
1608.0
 21
343.75
 31
0.0
100
AcDbText
  0
TEXT
  5
60
330
30
100
AcDbEntity
  8
LC-001-111-----0
 62
     7
370
    50
100
AcDbText
 10
1328.714286
 20
131.25
 30
0.0
 40
50.0
  1
4.10.755.04.00
 41
0.75
  7
LCTX0-400-0-0pDIN-Schrift
 72
     1
 11
1543.0
 21
131.25
 31
0.0
100
AcDbText
  0
ARC
  5
61
330
30
100
AcDbEntity
  8
LC-001-111-----0
 62
   253
370
    25
100
AcDbCircle
 10
758.903191
 20
174.567744
 30
0.0
 40
20.81533311668208
100
AcDbArc
 50
62.408264
 51
94.48185
  0
LINE
  5
62
330
30
100
AcDbEntity
  8
LC-001-111-----0
 62
   253
370
    50
100
AcDbLine
 10
178.0
 20
50.0
 30
0.0
 11
2050.0
 21
50.0
 31
0.0
  0
LINE
  5
63
330
30
100
AcDbEntity
  8
LC-001-111-----0
 62
   253
370
    25
100
AcDbLine
 10
50.0
 20
1485.0
 30
0.0
 11
0.0
 21
1485.0
 31
0.0
  0
LINE
  5
64
330
30
100
AcDbEntity
  8
LC-001-111-----0
 62
   253
370
    25
100
AcDbLine
 10
1063.835603
 20
195.169147
 30
0.0
 11
1063.835603
 21
157.149147
 31
0.0
  0
LINE
  5
65
330
30
100
AcDbEntity
  8
LC-001-111-----0
 62
   253
370
    25
100
AcDbLine
 10
2100.0
 20
2970.0
 30
0.0
 11
2100.0
 21
0.0
 31
0.0
  0
LINE
  5
66
330
30
100
AcDbEntity
  8
LC-001-111-----0
 62
   253
370
    25
100
AcDbLine
 10
2100.0
 20
0.0
 30
0.0
 11
0.0
 21
0.0
 31
0.0
  0
LINE
  5
67
330
30
100
AcDbEntity
  8
LC-001-111-----0
 62
   253
370
    25
100
AcDbLine
 10
0.0
 20
0.0
 30
0.0
 11
0.0
 21
2970.0
 31
0.0
  0
LINE
  5
68
330
30
100
AcDbEntity
  8
LC-001-111-----0
 62
   253
370
    25
100
AcDbLine
 10
2100.0
 20
2970.0
 30
0.0
 11
0.0
 21
2970.0
 31
0.0
  0
TEXT
  5
69
330
30
100
AcDbEntity
  8
LC-001-111-----0
 62
   253
370
    20
100
AcDbText
 10
763.0
 20
111.159147
 30
0.0
 40
20.0
  1
Hofbauerstraße1 · D-94209 REGEN
 41
0.65
  7
LCTX0-400-0-0pDIN-Schrift
 72
     1
 11
945.0
 21
111.159147
 31
0.0
100
AcDbText
  0
ARC
  5
6A
330
30
100
AcDbEntity
  8
LC-001-111-----0
 62
   253
370
    25
100
AcDbCircle
 10
758.032826
 20
185.671748
 30
0.0
 40
9.677270814709853
100
AcDbArc
 50
94.48185
 51
252.731329
  0
ARC
  5
6B
330
30
100
AcDbEntity
  8
LC-001-111-----0
 62
   253
370
    25
100
AcDbCircle
 10
823.845603
 20
176.159147
 30
0.0
 40
19.01000000000008
100
AcDbArc
 50
74.719456
 51
285.280544
  0
LINE
  5
6C
330
30
100
AcDbEntity
  8
LC-001-111-----0
 62
   253
370
    25
100
AcDbLine
 10
828.855603
 20
157.821208
 30
0.0
 11
828.855603
 21
163.204148
 31
0.0
  0
ARC
  5
6D
330
30
100
AcDbEntity
  8
LC-001-111-----0
 62
   253
370
    25
100
AcDbCircle
 10
823.845603
 20
176.159147
 30
0.0
 40
13.88999999999995
100
AcDbArc
 50
68.857352
 51
291.142648
  0
ARC
  5
6E
330
30
100
AcDbEntity
  8
LC-001-111-----0
 62
   253
370
    25
100
AcDbCircle
 10
823.845603
 20
176.159147
 30
0.0
 40
12.39000000000002
100
AcDbArc
 50
58.303227
 51
301.696773
  0
ARC
  5
6F
330
30
100
AcDbEntity
  8
LC-001-111-----0
 62
   253
370
    25
100
AcDbCircle
 10
1019.845603
 20
176.159147
 30
0.0
 40
19.01000000000008
100
AcDbArc
 50
74.719456
 51
285.280544
  0
LINE
  5
70
330
30
100
AcDbEntity
  8
LC-001-111-----0
 62
   253
370
    25
100
AcDbLine
 10
830.355603
 20
165.617231
 30
0.0
 11
830.355603
 21
156.709726
 31
0.0
  0
LINE
  5
71
330
30
100
AcDbEntity
  8
LC-001-111-----0
 62
   253
370
    25
100
AcDbLine
 10
755.160101
 20
176.430697
 30
0.0
 11
762.683613
 21
174.091896
 31
0.0
  0
ARC
  5
72
330
30
100
AcDbEntity
  8
LC-001-111-----0
 62
   253
370
    25
100
AcDbCircle
 10
823.845603
 20
176.159147
 30
0.0
 40
20.51000000000012
100
AcDbArc
 50
71.493868
 51
288.506132
  0
LINE
  5
73
330
30
100
AcDbEntity
  8
LC-001-111-----0
 62
   253
370
    25
100
AcDbLine
 10
1024.855603
 20
157.821208
 30
0.0
 11
1024.855603
 21
163.204148
 31
0.0
  0
LINE
  5
74
330
30
100
AcDbEntity
  8
LC-001-111-----0
 62
   253
370
    25
100
AcDbLine
 10
830.355603
 20
195.608569
 30
0.0
 11
830.355603
 21
186.701063
 31
0.0
  0
ARC
  5
75
330
30
100
AcDbEntity
  8
LC-001-111-----0
 62
   253
370
    25
100
AcDbCircle
 10
1019.845603
 20
176.159147
 30
0.0
 40
13.88999999999995
100
AcDbArc
 50
68.857352
 51
291.142648
  0
LINE
  5
76
330
30
100
AcDbEntity
  8
LC-001-111-----0
 62
   253
370
    25
100
AcDbLine
 10
862.835603
 20
155.649147
 30
0.0
 11
862.835603
 21
196.669147
 31
0.0
  0
LINE
  5
77
330
30
100
AcDbEntity
  8
LC-001-111-----0
 62
   253
370
    25
100
AcDbLine
 10
862.835603
 20
196.669147
 30
0.0
 11
872.355603
 21
196.669147
 31
0.0
  0
LINE
  5
78
330
30
100
AcDbEntity
  8
LC-001-111-----0
 62
   253
370
    25
100
AcDbLine
 10
872.355603
 20
196.669147
 30
0.0
 11
872.355603
 21
179.519147
 31
0.0
  0
LINE
  5
79
330
30
100
AcDbEntity
  8
LC-001-111-----0
 62
   253
370
    25
100
AcDbLine
 10
872.355603
 20
179.519147
 30
0.0
 11
887.335603
 21
179.519147
 31
0.0
  0
LINE
  5
7A
330
30
100
AcDbEntity
  8
LC-001-111-----0
 62
   253
370
    25
100
AcDbLine
 10
887.335603
 20
179.519147
 30
0.0
 11
887.335603
 21
196.669147
 31
0.0
  0
LINE
  5
7B
330
30
100
AcDbEntity
  8
LC-001-111-----0
 62
   253
370
    25
100
AcDbLine
 10
887.335603
 20
196.669147
 30
0.0
 11
896.855603
 21
196.669147
 31
0.0
  0
LINE
  5
7C
330
30
100
AcDbEntity
  8
LC-001-111-----0
 62
   253
370
    25
100
AcDbLine
 10
896.855603
 20
196.669147
 30
0.0
 11
896.855603
 21
155.649147
 31
0.0
  0
LINE
  5
7D
330
30
100
AcDbEntity
  8
LC-001-111-----0
 62
   253
370
    25
100
AcDbLine
 10
896.855603
 20
155.649147
 30
0.0
 11
887.335603
 21
155.649147
 31
0.0
  0
LINE
  5
7E
330
30
100
AcDbEntity
  8
LC-001-111-----0
 62
   253
370
    25
100
AcDbLine
 10
887.335603
 20
155.649147
 30
0.0
 11
887.335603
 21
172.799147
 31
0.0
  0
LINE
  5
7F
330
30
100
AcDbEntity
  8
LC-001-111-----0
 62
   253
370
    25
100
AcDbLine
 10
887.335603
 20
172.799147
 30
0.0
 11
872.355603
 21
172.799147
 31
0.0
  0
LINE
  5
80
330
30
100
AcDbEntity
  8
LC-001-111-----0
 62
   253
370
    25
100
AcDbLine
 10
872.355603
 20
172.799147
 30
0.0
 11
872.355603
 21
155.649147
 31
0.0
  0
LINE
  5
81
330
30
100
AcDbEntity
  8
LC-001-111-----0
 62
   253
370
    25
100
AcDbLine
 10
872.355603
 20
155.649147
 30
0.0
 11
862.835603
 21
155.649147
 31
0.0
  0
CIRCLE
  5
82
330
30
100
AcDbEntity
  8
LC-001-111-----0
 62
   253
370
    25
100
AcDbCircle
 10
946.345603
 20
176.159147
 30
0.0
 40
12.39000000000044
  0
CIRCLE
  5
83
330
30
100
AcDbEntity
  8
LC-001-111-----0
 62
   253
370
    25
100
AcDbCircle
 10
946.345603
 20
176.159147
 30
0.0
 40
20.51000000000049
  0
ARC
  5
84
330
30
100
AcDbEntity
  8
LC-001-111-----0
 62
   253
370
    25
100
AcDbCircle
 10
1019.845603
 20
176.159147
 30
0.0
 40
12.39000000000002
100
AcDbArc
 50
58.303227
 51
301.696773
  0
LINE
  5
85
330
30
100
AcDbEntity
  8
LC-001-111-----0
 62
   253
370
    25
100
AcDbLine
 10
864.335603
 20
195.169147
 30
0.0
 11
864.335603
 21
157.149147
 31
0.0
  0
LINE
  5
86
330
30
100
AcDbEntity
  8
LC-001-111-----0
 62
   253
370
    25
100
AcDbLine
 10
1026.355603
 20
165.617231
 30
0.0
 11
1026.355603
 21
156.709726
 31
0.0
  0
LINE
  5
87
330
30
100
AcDbEntity
  8
LC-001-111-----0
 62
   253
370
    25
100
AcDbLine
 10
864.335603
 20
157.149147
 30
0.0
 11
870.855603
 21
157.149147
 31
0.0
  0
LINE
  5
88
330
30
100
AcDbEntity
  8
LC-001-111-----0
 62
   253
370
    25
100
AcDbLine
 10
870.855603
 20
157.149147
 30
0.0
 11
870.855603
 21
174.299147
 31
0.0
  0
LINE
  5
89
330
30
100
AcDbEntity
  8
LC-001-111-----0
 62
   253
370
    25
100
AcDbLine
 10
870.855603
 20
174.299147
 30
0.0
 11
888.835603
 21
174.299147
 31
0.0
  0
LINE
  5
8A
330
30
100
AcDbEntity
  8
LC-001-111-----0
 62
   253
370
    25
100
AcDbLine
 10
888.835603
 20
174.299147
 30
0.0
 11
888.835603
 21
157.149147
 31
0.0
  0
LINE
  5
8B
330
30
100
AcDbEntity
  8
LC-001-111-----0
 62
   253
370
    25
100
AcDbLine
 10
888.835603
 20
157.149147
 30
0.0
 11
895.355603
 21
157.149147
 31
0.0
  0
LINE
  5
8C
330
30
100
AcDbEntity
  8
LC-001-111-----0
 62
   253
370
    25
100
AcDbLine
 10
895.355603
 20
157.149147
 30
0.0
 11
895.355603
 21
195.169147
 31
0.0
  0
LINE
  5
8D
330
30
100
AcDbEntity
  8
LC-001-111-----0
 62
   253
370
    25
100
AcDbLine
 10
895.355603
 20
195.169147
 30
0.0
 11
888.835603
 21
195.169147
 31
0.0
  0
LINE
  5
8E
330
30
100
AcDbEntity
  8
LC-001-111-----0
 62
   253
370
    25
100
AcDbLine
 10
888.835603
 20
195.169147
 30
0.0
 11
888.835603
 21
178.019147
 31
0.0
  0
LINE
  5
8F
330
30
100
AcDbEntity
  8
LC-001-111-----0
 62
   253
370
    25
100
AcDbLine
 10
888.835603
 20
178.019147
 30
0.0
 11
870.855603
 21
178.019147
 31
0.0
  0
LINE
  5
90
330
30
100
AcDbEntity
  8
LC-001-111-----0
 62
   253
370
    25
100
AcDbLine
 10
870.855603
 20
178.019147
 30
0.0
 11
870.855603
 21
195.169147
 31
0.0
  0
CIRCLE
  5
91
330
30
100
AcDbEntity
  8
LC-001-111-----0
 62
   253
370
    25
100
AcDbCircle
 10
946.345603
 20
176.159147
 30
0.0
 40
19.01000000000055
  0
ARC
  5
92
330
30
100
AcDbEntity
  8
LC-001-111-----0
 62
   253
370
    25
100
AcDbCircle
 10
760.836588
 20
168.15034
 30
0.0
 40
6.222024781007809
100
AcDbArc
 50
268.246912
 51
72.731329
  0
ARC
  5
93
330
30
100
AcDbEntity
  8
LC-001-111-----0
 62
   253
370
    25
100
AcDbCircle
 10
761.412387
 20
186.963179
 30
0.0
 40
25.04367341134793
100
AcDbArc
 50
239.19233
 51
268.246912
  0
LINE
  5
94
330
30
100
AcDbEntity
  8
LC-001-111-----0
 62
   253
370
    25
100
AcDbLine
 10
748.586073
 20
165.453385
 30
0.0
 11
748.586073
 21
160.350534
 31
0.0
  0
ARC
  5
95
330
30
100
AcDbEntity
  8
LC-001-111-----0
 62
   253
370
    25
100
AcDbCircle
 10
760.81067
 20
180.45076
 30
0.0
 40
23.52572762426598
100
AcDbArc
 50
238.692783
 51
274.343327
  0
ARC
  5
96
330
30
100
AcDbEntity
  8
LC-001-111-----0
 62
   253
370
    25
100
AcDbCircle
 10
1019.845603
 20
176.159147
 30
0.0
 40
20.51000000000012
100
AcDbArc
 50
71.493868
 51
288.506132
  0
ARC
  5
97
330
30
100
AcDbEntity
  8
LC-001-111-----0
 62
   253
370
    25
100
AcDbCircle
 10
761.779647
 20
167.692822
 30
0.0
 40
10.73104525444839
100
AcDbArc
 50
274.343327
 51
74.255463
  0
LINE
  5
98
330
30
100
AcDbEntity
  8
LC-001-111-----0
 62
   253
370
    25
100
AcDbLine
 10
1026.355603
 20
195.608569
 30
0.0
 11
1026.355603
 21
186.701063
 31
0.0
  0
LINE
  5
99
330
30
100
AcDbEntity
  8
LC-001-111-----0
 62
   253
370
    25
100
AcDbLine
 10
764.691502
 20
178.02125
 30
0.0
 11
757.135251
 21
180.151556
 31
0.0
  0
LINE
  5
9A
330
30
100
AcDbEntity
  8
LC-001-111-----0
 62
   253
370
    25
100
AcDbLine
 10
1024.855603
 20
189.114146
 30
0.0
 11
1024.855603
 21
194.497086
 31
0.0
  0
ARC
  5
9B
330
30
100
AcDbEntity
  8
LC-001-111-----0
 62
   253
370
    25
100
AcDbCircle
 10
758.632108
 20
185.460948
 30
0.0
 40
5.51636013010035
100
AcDbArc
 50
90.951212
 51
254.255463
  0
ARC
  5
9C
330
30
100
AcDbEntity
  8
LC-001-111-----0
 62
   253
370
    25
100
AcDbCircle
 10
758.906662
 20
168.924866
 30
0.0
 40
22.05472179307849
100
AcDbArc
 50
64.088485
 51
90.951212
  0
LINE
  5
9D
330
30
100
AcDbEntity
  8
LC-001-111-----0
 62
   253
370
    25
100
AcDbLine
 10
768.544191
 20
188.762426
 30
0.0
 11
768.544191
 21
193.015758
 31
0.0
  0
LINE
  5
9E
330
30
100
AcDbEntity
  8
LC-001-111-----0
 62
   253
370
    25
100
AcDbLine
 10
1071.855603
 20
177.513832
 30
0.0
 11
1087.818366
 21
196.669147
 31
0.0
  0
LINE
  5
9F
330
30
100
AcDbEntity
  8
LC-001-111-----0
 62
   253
370
    25
100
AcDbLine
 10
1087.818366
 20
196.669147
 30
0.0
 11
1099.299433
 21
196.669147
 31
0.0
  0
LINE
  5
A0
330
30
100
AcDbEntity
  8
LC-001-111-----0
 62
   253
370
    25
100
AcDbLine
 10
1099.299433
 20
196.669147
 30
0.0
 11
1082.207766
 21
176.159147
 31
0.0
  0
LINE
  5
A2
330
30
100
AcDbEntity
  8
LC-002-002-----0
 62
     1
370
    25
100
AcDbLine
 10
1143.855603
 20
159.963432
 30
0.0
 11
1143.855603
 21
192.354862
 31
0.0
  0
LINE
  5
A3
330
30
100
AcDbEntity
  8
LC-002-002-----0
 62
     1
370
    25
100
AcDbLine
 10
1143.855603
 20
192.354862
 30
0.0
 11
1127.659888
 21
176.159147
 31
0.0
  0
LINE
  5
A4
330
30
100
AcDbEntity
  8
LC-002-002-----0
 62
     1
370
    25
100
AcDbLine
 10
1127.659888
 20
176.159147
 30
0.0
 11
1143.855603
 21
159.963432
 31
0.0
  0
LINE
  5
A5
330
30
100
AcDbEntity
  8
LC-002-002-----0
 62
     1
370
    25
100
AcDbLine
 10
1142.355603
 20
163.584752
 30
0.0
 11
1142.355603
 21
188.733542
 31
0.0
  0
LINE
  5
A6
330
30
100
AcDbEntity
  8
LC-001-111-----0
 62
   253
370
    25
100
AcDbLine
 10
1082.207766
 20
176.159147
 30
0.0
 11
1099.299433
 21
155.649147
 31
0.0
  0
LINE
  5
A7
330
30
100
AcDbEntity
  8
LC-001-111-----0
 62
   253
370
    25
100
AcDbLine
 10
1099.299433
 20
155.649147
 30
0.0
 11
1087.818366
 21
155.649147
 31
0.0
  0
LINE
  5
A8
330
30
100
AcDbEntity
  8
LC-001-111-----0
 62
   253
370
    25
100
AcDbLine
 10
1087.818366
 20
155.649147
 30
0.0
 11
1071.855603
 21
174.804462
 31
0.0
  0
LINE
  5
A9
330
30
100
AcDbEntity
  8
LC-001-111-----0
 62
   253
370
    25
100
AcDbLine
 10
1062.335603
 20
155.649147
 30
0.0
 11
1062.335603
 21
196.669147
 31
0.0
  0
LINE
  5
AA
330
30
100
AcDbEntity
  8
LC-001-111-----0
 62
   253
370
    25
100
AcDbLine
 10
828.855603
 20
189.114146
 30
0.0
 11
828.855603
 21
194.497086
 31
0.0
  0
ARC
  5
AB
330
30
100
AcDbEntity
  8
LC-001-111-----0
 62
   253
370
    25
100
AcDbCircle
 10
758.903191
 20
174.567744
 30
0.0
 40
19.31533311668209
100
AcDbArc
 50
65.072024
 51
94.48185
  0
LINE
  5
AC
330
30
100
AcDbEntity
  8
LC-001-111-----0
 62
   253
370
    25
100
AcDbLine
 10
1063.835603
 20
157.149147
 30
0.0
 11
1070.355603
 21
157.149147
 31
0.0
  0
LINE
  5
AD
330
30
100
AcDbEntity
  8
LC-001-111-----0
 62
   253
370
    25
100
AcDbLine
 10
1070.355603
 20
157.149147
 30
0.0
 11
1070.355603
 21
195.169147
 31
0.0
  0
LINE
  5
AE
330
30
100
AcDbEntity
  8
LC-001-111-----0
 62
   253
370
    25
100
AcDbLine
 10
1070.355603
 20
195.169147
 30
0.0
 11
1063.835603
 21
195.169147
 31
0.0
  0
LINE
  5
AF
330
30
100
AcDbEntity
  8
LC-001-111-----0
 62
   253
370
    25
100
AcDbLine
 10
1065.335603
 20
193.669147
 30
0.0
 11
1065.335603
 21
158.649147
 31
0.0
  0
LINE
  5
B0
330
30
100
AcDbEntity
  8
LC-002-002-----0
 62
     1
370
    25
100
AcDbLine
 10
1142.355603
 20
188.733542
 30
0.0
 11
1129.781208
 21
176.159147
 31
0.0
  0
LINE
  5
B1
330
30
100
AcDbEntity
  8
LC-002-002-----0
 62
     1
370
    25
100
AcDbLine
 10
1129.781208
 20
176.159147
 30
0.0
 11
1142.355603
 21
163.584752
 31
0.0
  0
LINE
  5
B2
330
30
100
AcDbEntity
  8
LC-001-111-----0
 62
   253
370
    25
100
AcDbLine
 10
1062.335603
 20
196.669147
 30
0.0
 11
1071.855603
 21
196.669147
 31
0.0
  0
LINE
  5
B3
330
30
100
AcDbEntity
  8
LC-001-111-----0
 62
   253
370
    25
100
AcDbLine
 10
1071.855603
 20
196.669147
 30
0.0
 11
1071.855603
 21
155.649147
 31
0.0
  0
LINE
  5
B4
330
30
100
AcDbEntity
  8
LC-001-111-----0
 62
   253
370
    25
100
AcDbLine
 10
1071.855603
 20
155.649147
 30
0.0
 11
1062.335603
 21
155.649147
 31
0.0
  0
ARC
  5
B5
330
30
100
AcDbEntity
  8
LC-001-111-----0
 62
   253
370
    25
100
AcDbCircle
 10
758.032826
 20
185.671748
 30
0.0
 40
8.177270814709827
100
AcDbArc
 50
94.48185
 51
252.731329
  0
LINE
  5
B6
330
30
100
AcDbEntity
  8
LC-001-111-----0
 62
   253
370
    25
100
AcDbLine
 10
755.60538
 20
177.863082
 30
0.0
 11
763.128892
 21
175.524281
 31
0.0
  0
ARC
  5
B7
330
30
100
AcDbEntity
  8
LC-001-111-----0
 62
   253
370
    25
100
AcDbCircle
 10
760.836588
 20
168.15034
 30
0.0
 40
7.72202478100773
100
AcDbArc
 50
268.246912
 51
72.731329
  0
LINE
  5
B8
330
30
100
AcDbEntity
  8
LC-001-111-----0
 62
   253
370
    25
100
AcDbLine
 10
827.355603
 20
191.143539
 30
0.0
 11
827.355603
 21
193.313738
 31
0.0
  0
ARC
  5
B9
330
30
100
AcDbEntity
  8
LC-001-111-----0
 62
   253
370
    25
100
AcDbCircle
 10
823.845603
 20
176.159147
 30
0.0
 40
17.50999999999996
100
AcDbArc
 50
78.436322
 51
281.563678
  0
LINE
  5
BA
330
30
100
AcDbEntity
  8
LC-001-111-----0
 62
   253
370
    25
100
AcDbLine
 10
827.355603
 20
159.004556
 30
0.0
 11
827.355603
 21
161.174755
 31
0.0
  0
LINE
  5
BB
330
30
100
AcDbEntity
  8
LC-002-002-----0
 62
     1
370
    25
100
AcDbLine
 10
1145.355603
 20
195.976182
 30
0.0
 11
1145.355603
 21
156.342112
 31
0.0
  0
LINE
  5
BC
330
30
100
AcDbEntity
  8
LC-002-002-----0
 62
     1
370
    25
100
AcDbLine
 10
1145.355603
 20
156.342112
 30
0.0
 11
1125.538568
 21
176.159147
 31
0.0
  0
LINE
  5
BD
330
30
100
AcDbEntity
  8
LC-002-002-----0
 62
     1
370
    25
100
AcDbLine
 10
1125.538568
 20
176.159147
 30
0.0
 11
1145.355603
 21
195.976182
 31
0.0
  0
LINE
  5
BE
330
30
100
AcDbEntity
  8
LC-001-111-----0
 62
   253
370
    25
100
AcDbLine
 10
1065.335603
 20
158.649147
 30
0.0
 11
1068.855603
 21
158.649147
 31
0.0
  0
LINE
  5
BF
330
30
100
AcDbEntity
  8
LC-001-111-----0
 62
   253
370
    25
100
AcDbLine
 10
1068.855603
 20
158.649147
 30
0.0
 11
1068.855603
 21
193.669147
 31
0.0
  0
LINE
  5
C0
330
30
100
AcDbEntity
  8
LC-001-111-----0
 62
   253
370
    25
100
AcDbLine
 10
1068.855603
 20
193.669147
 30
0.0
 11
1065.335603
 21
193.669147
 31
0.0
  0
LINE
  5
C1
330
30
100
AcDbEntity
  8
LC-001-111-----0
 62
   253
370
    25
100
AcDbLine
 10
1067.095603
 20
192.169147
 30
0.0
 11
1067.095603
 21
160.149147
 31
0.0
  0
ARC
  5
C2
330
30
100
AcDbEntity
  8
LC-001-111-----0
 62
   253
370
    25
100
AcDbCircle
 10
823.845603
 20
176.159147
 30
0.0
 40
15.38999999999992
100
AcDbArc
 50
76.816519
 51
283.183481
  0
LINE
  5
C3
330
30
100
AcDbEntity
  8
LC-001-111-----0
 62
   253
370
    25
100
AcDbLine
 10
870.855603
 20
195.169147
 30
0.0
 11
864.335603
 21
195.169147
 31
0.0
  0
LINE
  5
C4
330
30
100
AcDbEntity
  8
LC-001-111-----0
 62
   253
370
    25
100
AcDbLine
 10
1096.09687
 20
195.169147
 30
0.0
 11
1088.520928
 21
195.169147
 31
0.0
  0
LINE
  5
C5
330
30
100
AcDbEntity
  8
LC-001-111-----0
 62
   253
370
    25
100
AcDbLine
 10
865.835603
 20
158.649147
 30
0.0
 11
869.355603
 21
158.649147
 31
0.0
  0
LINE
  5
C6
330
30
100
AcDbEntity
  8
LC-001-111-----0
 62
   253
370
    25
100
AcDbLine
 10
1023.355603
 20
191.143539
 30
0.0
 11
1023.355603
 21
193.313738
 31
0.0
  0
LINE
  5
C7
330
30
100
AcDbEntity
  8
LC-001-111-----0
 62
   253
370
    25
100
AcDbLine
 10
892.095603
 20
192.169147
 30
0.0
 11
892.095603
 21
160.149147
 31
0.0
  0
TEXT
  5
C8
330
30
100
AcDbEntity
  8
LC-001-111-----0
 62
     1
370
    15
100
AcDbText
 10
1914.071429
 20
21.25
 30
0.0
 40
15.0
  1
City-D100
 41
0.75
  7
LCTX0-400-0-0pDIN-Schrift
 72
     1
 11
1958.0
 21
21.25
 31
0.0
100
AcDbText
  0
CIRCLE
  5
C9
330
30
100
AcDbEntity
  8
LC-001-111-----0
 62
   253
370
    25
100
AcDbCircle
 10
946.345603
 20
176.159147
 30
0.0
 40
17.51000000000047
  0
LINE
  5
CA
330
30
100
AcDbEntity
  8
LC-001-111-----0
 62
   253
370
    25
100
AcDbLine
 10
1088.520928
 20
195.169147
 30
0.0
 11
1072.679261
 21
176.159147
 31
0.0
  0
ARC
  5
CB
330
30
100
AcDbEntity
  8
LC-001-111-----0
 62
   253
370
    25
100
AcDbCircle
 10
1019.845603
 20
176.159147
 30
0.0
 40
17.50999999999996
100
AcDbArc
 50
78.436322
 51
281.563678
  0
ARC
  5
CC
330
30
100
AcDbEntity
  8
LC-001-111-----0
 62
   253
370
    25
100
AcDbCircle
 10
761.412387
 20
186.963179
 30
0.0
 40
26.54367341134783
100
AcDbArc
 50
244.741378
 51
268.246912
  0
LINE
  5
CD
330
30
100
AcDbEntity
  8
LC-001-111-----0
 62
   253
370
    25
100
AcDbLine
 10
1023.355603
 20
159.004556
 30
0.0
 11
1023.355603
 21
161.174755
 31
0.0
  0
LINE
  5
CE
330
30
100
AcDbEntity
  8
LC-002-002-----0
 62
     1
370
    25
100
AcDbLine
 10
1140.855603
 20
167.206073
 30
0.0
 11
1140.855603
 21
185.112221
 31
0.0
  0
LINE
  5
CF
330
30
100
AcDbEntity
  8
LC-002-002-----0
 62
     1
370
    25
100
AcDbLine
 10
1140.855603
 20
185.112221
 30
0.0
 11
1131.902529
 21
176.159147
 31
0.0
  0
LINE
  5
D0
330
30
100
AcDbEntity
  8
LC-002-002-----0
 62
     1
370
    25
100
AcDbLine
 10
1131.902529
 20
176.159147
 30
0.0
 11
1140.855603
 21
167.206073
 31
0.0
  0
CIRCLE
  5
D1
330
30
100
AcDbEntity
  8
LC-001-111-----0
 62
   253
370
    25
100
AcDbCircle
 10
946.345603
 20
176.159147
 30
0.0
 40
13.89000000000002
  0
LINE
  5
D2
330
30
100
AcDbEntity
  8
LC-001-111-----0
 62
   253
370
    25
100
AcDbLine
 10
890.335603
 20
158.649147
 30
0.0
 11
893.855603
 21
158.649147
 31
0.0
  0
LINE
  5
D3
330
30
100
AcDbEntity
  8
LC-001-111-----0
 62
   253
370
    25
100
AcDbLine
 10
893.855603
 20
158.649147
 30
0.0
 11
893.855603
 21
193.669147
 31
0.0
  0
ARC
  5
D4
330
30
100
AcDbEntity
  8
LC-001-111-----0
 62
   253
370
    25
100
AcDbCircle
 10
758.906662
 20
168.924866
 30
0.0
 40
20.55472179307891
100
AcDbArc
 50
57.190491
 51
90.951212
  0
ARC
  5
D5
330
30
100
AcDbEntity
  8
LC-001-111-----0
 62
   253
370
    25
100
AcDbCircle
 10
761.779647
 20
167.692822
 30
0.0
 40
12.23104525444841
100
AcDbArc
 50
274.343327
 51
74.255463
  0
LINE
  5
D6
330
30
100
AcDbEntity
  8
LC-001-111-----0
 62
   253
370
    25
100
AcDbLine
 10
893.855603
 20
193.669147
 30
0.0
 11
890.335603
 21
193.669147
 31
0.0
  0
LINE
  5
D7
330
30
100
AcDbEntity
  8
LC-001-111-----0
 62
   253
370
    25
100
AcDbLine
 10
890.335603
 20
193.669147
 30
0.0
 11
890.335603
 21
158.649147
 31
0.0
  0
LINE
  5
D8
330
30
100
AcDbEntity
  8
LC-001-111-----0
 62
   253
370
    25
100
AcDbLine
 10
890.335603
 20
176.159147
 30
0.0
 11
869.355603
 21
176.159147
 31
0.0
  0
TEXT
  5
D9
330
30
100
AcDbEntity
  8
LC-001-111-----0
 62
     7
370
    25
100
AcDbText
 10
1977.410714
 20
143.75
 30
0.0
 40
25.0
  1
1
 41
0.75
  7
LCTX0-400-0-0pDIN-Schrift
 72
     1
 11
1985.0
 21
143.75
 31
0.0
100
AcDbText
  0
LINE
  5
DA
330
30
100
AcDbEntity
  8
LC-001-111-----0
 62
   253
370
    25
100
AcDbLine
 10
869.355603
 20
158.649147
 30
0.0
 11
869.355603
 21
193.669147
 31
0.0
  0
LINE
  5
DB
330
30
100
AcDbEntity
  8
LC-001-111-----0
 62
   253
370
    25
100
AcDbLine
 10
869.355603
 20
193.669147
 30
0.0
 11
865.835603
 21
193.669147
 31
0.0
  0
LINE
  5
DC
330
30
100
AcDbEntity
  8
LC-001-111-----0
 62
   253
370
    25
100
AcDbLine
 10
865.835603
 20
193.669147
 30
0.0
 11
865.835603
 21
158.649147
 31
0.0
  0
LINE
  5
DD
330
30
100
AcDbEntity
  8
LC-001-111-----0
 62
   253
370
    25
100
AcDbLine
 10
867.595603
 20
192.169147
 30
0.0
 11
867.595603
 21
160.149147
 31
0.0
  0
CIRCLE
  5
DE
330
30
100
AcDbEntity
  8
LC-001-111-----0
 62
   253
370
    25
100
AcDbCircle
 10
946.345603
 20
176.159147
 30
0.0
 40
15.38999999999984
  0
LINE
  5
DF
330
30
100
AcDbEntity
  8
LC-001-111-----0
 62
   253
370
    25
100
AcDbLine
 10
1072.679261
 20
176.159147
 30
0.0
 11
1088.520928
 21
157.149147
 31
0.0
  0
LINE
  5
E0
330
30
100
AcDbEntity
  8
LC-001-111-----0
 62
   253
370
    25
100
AcDbLine
 10
1088.520928
 20
157.149147
 30
0.0
 11
1096.09687
 21
157.149147
 31
0.0
  0
LINE
  5
E1
330
30
100
AcDbEntity
  8
LC-001-111-----0
 62
   253
370
    25
100
AcDbLine
 10
1096.09687
 20
157.149147
 30
0.0
 11
1080.255204
 21
176.159147
 31
0.0
  0
LINE
  5
E2
330
30
100
AcDbEntity
  8
LC-001-111-----0
 62
   253
370
    25
100
AcDbLine
 10
770.044191
 20
186.20063
 30
0.0
 11
770.044191
 21
193.903002
 31
0.0
  0
ARC
  5
E3
330
30
100
AcDbEntity
  8
LC-001-111-----0
 62
   253
370
    25
100
AcDbCircle
 10
761.412387
 20
186.963179
 30
0.0
 40
23.54367341134796
100
AcDbArc
 50
232.518913
 51
268.246912
  0
ARC
  5
E4
330
30
100
AcDbEntity
  8
LC-001-111-----0
 62
   253
370
    25
100
AcDbCircle
 10
760.836588
 20
168.15034
 30
0.0
 40
4.722024781007908
100
AcDbArc
 50
268.246912
 51
72.731329
  0
LINE
  5
E5
330
30
100
AcDbEntity
  8
LC-001-111-----0
 62
   253
370
    25
100
AcDbLine
 10
757.542274
 20
181.595277
 30
0.0
 11
765.098525
 21
179.464972
 31
0.0
  0
ARC
  5
E6
330
30
100
AcDbEntity
  8
LC-001-111-----0
 62
   253
370
    25
100
AcDbCircle
 10
758.632108
 20
185.460948
 30
0.0
 40
4.016360130100384
100
AcDbArc
 50
90.951212
 51
254.255463
  0
ARC
  5
E7
330
30
100
AcDbEntity
  8
LC-001-111-----0
 62
   253
370
    25
100
AcDbCircle
 10
758.032826
 20
185.671748
 30
0.0
 40
11.17727081470983
100
AcDbArc
 50
94.48185
 51
252.731329
  0
LINE
  5
E8
330
30
100
AcDbEntity
  8
LC-001-111-----0
 62
   253
370
    25
100
AcDbLine
 10
762.238334
 20
172.659511
 30
0.0
 11
754.714822
 21
174.998312
 31
0.0
  0
LINE
  5
E9
330
30
100
AcDbEntity
  8
LC-001-111-----0
 62
   253
370
    25
100
AcDbLine
 10
747.086073
 20
168.279997
 30
0.0
 11
747.086073
 21
159.524163
 31
0.0
  0
ARC
  5
EA
330
30
100
AcDbEntity
  8
LC-001-111-----0
 62
   253
370
    25
100
AcDbCircle
 10
758.903191
 20
174.567744
 30
0.0
 40
22.31533311668187
100
AcDbArc
 50
60.049399
 51
94.48185
  0
ARC
  5
EB
330
30
100
AcDbEntity
  8
LC-001-111-----0
 62
   253
370
    25
100
AcDbCircle
 10
760.81067
 20
180.45076
 30
0.0
 40
25.02572762426604
100
AcDbArc
 50
236.741348
 51
274.343327
  0
LINE
  5
EC
330
30
100
AcDbEntity
  8
LC-001-111-----0
 62
   253
370
    25
100
AcDbLine
 10
1080.255204
 20
176.159147
 30
0.0
 11
1096.09687
 21
195.169147
 31
0.0
  0
LINE
  5
ED
330
30
100
AcDbEntity
  8
LC-001-111-----0
 62
   253
370
    25
100
AcDbLine
 10
750.086073
 20
162.957321
 30
0.0
 11
750.086073
 21
161.212369
 31
0.0
  0
LINE
  5
EE
330
30
100
AcDbEntity
  8
LC-001-111-----0
 62
   253
370
    25
100
AcDbLine
 10
1078.302641
 20
176.159147
 30
0.0
 11
1092.894308
 21
193.669147
 31
0.0
  0
LINE
  5
EF
330
30
100
AcDbEntity
  8
LC-002-002-----0
 62
     1
370
    25
100
AcDbLine
 10
1139.355603
 20
170.827393
 30
0.0
 11
1139.355603
 21
181.490901
 31
0.0
  0
LINE
  5
F0
330
30
100
AcDbEntity
  8
LC-002-002-----0
 62
     1
370
    25
100
AcDbLine
 10
1139.355603
 20
181.490901
 30
0.0
 11
1134.023849
 21
176.159147
 31
0.0
  0
LINE
  5
F1
330
30
100
AcDbEntity
  8
LC-002-002-----0
 62
     1
370
    25
100
AcDbLine
 10
1134.023849
 20
176.159147
 30
0.0
 11
1139.355603
 21
170.827393
 31
0.0
  0
LINE
  5
F2
330
30
100
AcDbEntity
  8
LC-002-002-----0
 62
     1
370
    25
100
AcDbLine
 10
1137.855603
 20
174.448713
 30
0.0
 11
1137.855603
 21
177.869581
 31
0.0
  0
LINE
  5
F3
330
30
100
AcDbEntity
  8
LC-002-002-----0
 62
     1
370
    25
100
AcDbLine
 10
1137.855603
 20
177.869581
 30
0.0
 11
1136.145169
 21
176.159147
 31
0.0
  0
LINE
  5
F4
330
30
100
AcDbEntity
  8
LC-002-002-----0
 62
     1
370
    25
100
AcDbLine
 10
1136.145169
 20
176.159147
 30
0.0
 11
1137.855603
 21
174.448713
 31
0.0
  0
LINE
  5
F5
330
30
100
AcDbEntity
  8
LC-001-111-----0
 62
   253
370
    25
100
AcDbLine
 10
1092.894308
 20
193.669147
 30
0.0
 11
1089.22349
 21
193.669147
 31
0.0
  0
LINE
  5
F6
330
30
100
AcDbEntity
  8
LC-001-111-----0
 62
   253
370
    25
100
AcDbLine
 10
1089.22349
 20
193.669147
 30
0.0
 11
1074.631824
 21
176.159147
 31
0.0
  0
ARC
  5
F7
330
30
100
AcDbEntity
  8
LC-001-111-----0
 62
   253
370
    25
100
AcDbCircle
 10
1019.845603
 20
176.159147
 30
0.0
 40
15.38999999999992
100
AcDbArc
 50
76.816519
 51
283.183481
  0
LINE
  5
F8
330
30
100
AcDbEntity
  8
LC-001-111-----0
 62
   253
370
    25
100
AcDbLine
 10
1074.631824
 20
176.159147
 30
0.0
 11
1089.22349
 21
158.649147
 31
0.0
  0
LINE
  5
F9
330
30
100
AcDbEntity
  8
LC-001-111-----0
 62
   253
370
    25
100
AcDbLine
 10
1089.22349
 20
158.649147
 30
0.0
 11
1092.894308
 21
158.649147
 31
0.0
  0
LINE
  5
FA
330
30
100
AcDbEntity
  8
LC-001-111-----0
 62
   253
370
    25
100
AcDbLine
 10
1092.894308
 20
158.649147
 30
0.0
 11
1078.302641
 21
176.159147
 31
0.0
  0
LINE
  5
FB
330
30
100
AcDbEntity
  8
LC-001-111-----0
 62
   253
370
    25
100
AcDbLine
 10
1076.467232
 20
176.159147
 30
0.0
 11
1090.098623
 21
192.516815
 31
0.0
  0
LINE
  5
FC
330
30
100
AcDbEntity
  8
LC-001-111-----0
 62
   253
370
    25
100
AcDbLine
 10
1076.467232
 20
176.159147
 30
0.0
 11
1090.098623
 21
159.801479
 31
0.0
  0
ARC
  5
FD
330
30
100
AcDbEntity
  8
LC-001-111-----0
 62
   253
370
    25
100
AcDbCircle
 10
760.81067
 20
180.45076
 30
0.0
 40
22.02572762426587
100
AcDbArc
 50
240.862164
 51
274.343327
  0
ARC
  5
FE
330
30
100
AcDbEntity
  8
LC-001-111-----0
 62
   253
370
    25
100
AcDbCircle
 10
761.779647
 20
167.692822
 30
0.0
 40
9.231045254448425
100
AcDbArc
 50
274.343327
 51
74.255463
  0
LINE
  5
FF
330
30
100
AcDbEntity
  8
LC-001-111-----0
 62
   253
370
    25
100
AcDbLine
 10
764.284479
 20
176.577529
 30
0.0
 11
756.728228
 21
178.707834
 31
0.0
  0
ARC
  5
100
330
30
100
AcDbEntity
  8
LC-001-111-----0
 62
   253
370
    25
100
AcDbCircle
 10
758.632108
 20
185.460948
 30
0.0
 40
7.016360130100396
100
AcDbArc
 50
90.951212
 51
254.255463
  0
ARC
  5
101
330
30
100
AcDbEntity
  8
LC-001-111-----0
 62
   253
370
    25
100
AcDbCircle
 10
758.906662
 20
168.924866
 30
0.0
 40
23.55472179307856
100
AcDbArc
 50
69.789306
 51
90.951212
  0
LINE
  5
102
330
30
100
AcDbEntity
  8
LC-001-111-----0
 62
   253
370
    25
100
AcDbLine
 10
767.044191
 20
191.029289
 30
0.0
 11
767.044191
 21
192.083629
 31
0.0
  0
ENDBLK
  5
32
330
30
100
AcDbEntity
  8
0
100
AcDbBlockEnd
  0
BLOCK
  5
1F8
330
1F7
100
AcDbEntity
  8
0
100
AcDbBlockBegin
  2
LCDIM1
 70
     0
 71
     0
 10
0.0
 20
0.0
 30
0.0
  3
LCDIM1
  1

  4
LCDIM1
  0
LINE
  5
1FB
330
1F7
100
AcDbEntity
  8
LC-007-003-MTH-0
 62
     7
370
    25
100
AcDbLine
 10
934.788619
 20
2417.990196
 30
0.0
 11
965.0
 21
2417.990196
 31
0.0
  0
LINE
  5
1FC
330
1F7
100
AcDbEntity
  8
LC-007-003-MTH-0
 62
     7
370
    25
100
AcDbLine
 10
934.788619
 20
2612.990196
 30
0.0
 11
965.0
 21
2612.990196
 31
0.0
  0
LINE
  5
1FE
330
1F7
100
AcDbEntity
  8
LC-008-003-MTG-0
 62
     7
370
    25
100
AcDbLine
 10
950.0
 20
2417.990196
 30
0.0
 11
950.0
 21
2612.990196
 31
0.0
  0
LINE
  5
200
330
1F7
100
AcDbEntity
  8
LC-009-003-----0
 62
     7
370
    25
100
AcDbLine
 10
946.736845
 20
2442.776318
 30
0.0
 11
950.0
 21
2417.990196
 31
0.0
  0
LINE
  5
201
330
1F7
100
AcDbEntity
  8
LC-009-003-----0
 62
     7
370
    25
100
AcDbLine
 10
950.0
 20
2417.990196
 30
0.0
 11
953.263155
 21
2442.776318
 31
0.0
  0
LINE
  5
202
330
1F7
100
AcDbEntity
  8
LC-009-003-----0
 62
     7
370
    25
100
AcDbLine
 10
953.263155
 20
2442.776318
 30
0.0
 11
946.736845
 21
2442.776318
 31
0.0
  0
LINE
  5
203
330
1F7
100
AcDbEntity
  8
LC-009-003-----0
 62
     7
370
    25
100
AcDbLine
 10
947.585265
 20
2442.831926
 30
0.0
 11
950.0
 21
2424.490196
 31
0.0
  0
LINE
  5
204
330
1F7
100
AcDbEntity
  8
LC-009-003-----0
 62
     7
370
    25
100
AcDbLine
 10
950.0
 20
2424.490196
 30
0.0
 11
952.414735
 21
2442.831926
 31
0.0
  0
LINE
  5
205
330
1F7
100
AcDbEntity
  8
LC-009-003-----0
 62
     7
370
    25
100
AcDbLine
 10
948.433686
 20
2442.887534
 30
0.0
 11
950.0
 21
2430.990196
 31
0.0
  0
LINE
  5
206
330
1F7
100
AcDbEntity
  8
LC-009-003-----0
 62
     7
370
    25
100
AcDbLine
 10
950.0
 20
2430.990196
 30
0.0
 11
951.566314
 21
2442.887534
 31
0.0
  0
LINE
  5
207
330
1F7
100
AcDbEntity
  8
LC-009-003-----0
 62
     7
370
    25
100
AcDbLine
 10
949.282106
 20
2442.943143
 30
0.0
 11
950.0
 21
2437.490196
 31
0.0
  0
LINE
  5
208
330
1F7
100
AcDbEntity
  8
LC-009-003-----0
 62
     7
370
    25
100
AcDbLine
 10
950.0
 20
2437.490196
 30
0.0
 11
950.717894
 21
2442.943143
 31
0.0
  0
LINE
  5
209
330
1F7
100
AcDbEntity
  8
LC-009-003-----0
 62
     7
370
    25
100
AcDbLine
 10
953.263155
 20
2588.204074
 30
0.0
 11
950.0
 21
2612.990196
 31
0.0
  0
LINE
  5
20A
330
1F7
100
AcDbEntity
  8
LC-009-003-----0
 62
     7
370
    25
100
AcDbLine
 10
950.0
 20
2612.990196
 30
0.0
 11
946.736845
 21
2588.204074
 31
0.0
  0
LINE
  5
20B
330
1F7
100
AcDbEntity
  8
LC-009-003-----0
 62
     7
370
    25
100
AcDbLine
 10
946.736845
 20
2588.204074
 30
0.0
 11
953.263155
 21
2588.204074
 31
0.0
  0
LINE
  5
20C
330
1F7
100
AcDbEntity
  8
LC-009-003-----0
 62
     7
370
    25
100
AcDbLine
 10
952.414735
 20
2588.148465
 30
0.0
 11
950.0
 21
2606.490196
 31
0.0
  0
LINE
  5
20D
330
1F7
100
AcDbEntity
  8
LC-009-003-----0
 62
     7
370
    25
100
AcDbLine
 10
950.0
 20
2606.490196
 30
0.0
 11
947.585265
 21
2588.148465
 31
0.0
  0
LINE
  5
20E
330
1F7
100
AcDbEntity
  8
LC-009-003-----0
 62
     7
370
    25
100
AcDbLine
 10
951.566314
 20
2588.092857
 30
0.0
 11
950.0
 21
2599.990196
 31
0.0
  0
LINE
  5
20F
330
1F7
100
AcDbEntity
  8
LC-009-003-----0
 62
     7
370
    25
100
AcDbLine
 10
950.0
 20
2599.990196
 30
0.0
 11
948.433686
 21
2588.092857
 31
0.0
  0
LINE
  5
210
330
1F7
100
AcDbEntity
  8
LC-009-003-----0
 62
     7
370
    25
100
AcDbLine
 10
950.717894
 20
2588.037249
 30
0.0
 11
950.0
 21
2593.490195
 31
0.0
  0
LINE
  5
211
330
1F7
100
AcDbEntity
  8
LC-009-003-----0
 62
     7
370
    25
100
AcDbLine
 10
950.0
 20
2593.490195
 30
0.0
 11
949.282106
 21
2588.037249
 31
0.0
  0
TEXT
  5
212
330
1F7
100
AcDbEntity
  8
LC-009-003-----0
 62
     7
370
    25
100
AcDbText
 10
935.0
 20
2498.321814
 30
0.0
 40
25.0
  1
195
 50
90.0
 41
0.7
  7
LCTX0-400-0-0pDIN-Schrift
 72
     1
 11
935.0
 21
2524.571814
 31
0.0
100
AcDbText
  0
ENDBLK
  5
1F9
330
1F7
100
AcDbEntity
  8
0
100
AcDbBlockEnd
  0
BLOCK
  5
226
330
225
100
AcDbEntity
  8
0
100
AcDbBlockBegin
  2
LCDIM2
 70
     0
 71
     0
 10
0.0
 20
0.0
 30
0.0
  3
LCDIM2
  1

  4
LCDIM2
  0
LINE
  5
228
330
225
100
AcDbEntity
  8
LC-007-003-MTH-0
 62
     7
370
    25
100
AcDbLine
 10
819.940575
 20
2600.944432
 30
0.0
 11
819.940575
 21
2665.0
 31
0.0
  0
LINE
  5
229
330
225
100
AcDbEntity
  8
LC-007-003-MTH-0
 62
     7
370
    25
100
AcDbLine
 10
1234.788619
 20
2612.990196
 30
0.0
 11
1234.788619
 21
2665.0
 31
0.0
  0
LINE
  5
22A
330
225
100
AcDbEntity
  8
LC-008-003-MTG-0
 62
     7
370
    25
100
AcDbLine
 10
819.940575
 20
2650.0
 30
0.0
 11
1234.788619
 21
2650.0
 31
0.0
  0
LINE
  5
22B
330
225
100
AcDbEntity
  8
LC-009-003-----0
 62
     7
370
    25
100
AcDbLine
 10
844.726697
 20
2653.263155
 30
0.0
 11
819.940575
 21
2650.0
 31
0.0
  0
LINE
  5
22C
330
225
100
AcDbEntity
  8
LC-009-003-----0
 62
     7
370
    25
100
AcDbLine
 10
819.940575
 20
2650.0
 30
0.0
 11
844.726697
 21
2646.736845
 31
0.0
  0
LINE
  5
22D
330
225
100
AcDbEntity
  8
LC-009-003-----0
 62
     7
370
    25
100
AcDbLine
 10
844.726697
 20
2646.736845
 30
0.0
 11
844.726697
 21
2653.263155
 31
0.0
  0
LINE
  5
22E
330
225
100
AcDbEntity
  8
LC-009-003-----0
 62
     7
370
    25
100
AcDbLine
 10
844.782305
 20
2652.414735
 30
0.0
 11
826.440575
 21
2650.0
 31
0.0
  0
LINE
  5
22F
330
225
100
AcDbEntity
  8
LC-009-003-----0
 62
     7
370
    25
100
AcDbLine
 10
826.440575
 20
2650.0
 30
0.0
 11
844.782305
 21
2647.585265
 31
0.0
  0
LINE
  5
230
330
225
100
AcDbEntity
  8
LC-009-003-----0
 62
     7
370
    25
100
AcDbLine
 10
844.837914
 20
2651.566314
 30
0.0
 11
832.940575
 21
2650.0
 31
0.0
  0
LINE
  5
231
330
225
100
AcDbEntity
  8
LC-009-003-----0
 62
     7
370
    25
100
AcDbLine
 10
832.940575
 20
2650.0
 30
0.0
 11
844.837914
 21
2648.433686
 31
0.0
  0
LINE
  5
232
330
225
100
AcDbEntity
  8
LC-009-003-----0
 62
     7
370
    25
100
AcDbLine
 10
844.893522
 20
2650.717894
 30
0.0
 11
839.440575
 21
2650.0
 31
0.0
  0
LINE
  5
233
330
225
100
AcDbEntity
  8
LC-009-003-----0
 62
     7
370
    25
100
AcDbLine
 10
839.440575
 20
2650.0
 30
0.0
 11
844.893522
 21
2649.282106
 31
0.0
  0
LINE
  5
234
330
225
100
AcDbEntity
  8
LC-009-003-----0
 62
     7
370
    25
100
AcDbLine
 10
1210.002497
 20
2646.736845
 30
0.0
 11
1234.788619
 21
2650.0
 31
0.0
  0
LINE
  5
235
330
225
100
AcDbEntity
  8
LC-009-003-----0
 62
     7
370
    25
100
AcDbLine
 10
1234.788619
 20
2650.0
 30
0.0
 11
1210.002497
 21
2653.263155
 31
0.0
  0
LINE
  5
236
330
225
100
AcDbEntity
  8
LC-009-003-----0
 62
     7
370
    25
100
AcDbLine
 10
1210.002497
 20
2653.263155
 30
0.0
 11
1210.002497
 21
2646.736845
 31
0.0
  0
LINE
  5
237
330
225
100
AcDbEntity
  8
LC-009-003-----0
 62
     7
370
    25
100
AcDbLine
 10
1209.946889
 20
2647.585265
 30
0.0
 11
1228.288619
 21
2650.0
 31
0.0
  0
LINE
  5
238
330
225
100
AcDbEntity
  8
LC-009-003-----0
 62
     7
370
    25
100
AcDbLine
 10
1228.288619
 20
2650.0
 30
0.0
 11
1209.946889
 21
2652.414735
 31
0.0
  0
LINE
  5
239
330
225
100
AcDbEntity
  8
LC-009-003-----0
 62
     7
370
    25
100
AcDbLine
 10
1209.89128
 20
2648.433686
 30
0.0
 11
1221.788619
 21
2650.0
 31
0.0
  0
LINE
  5
23A
330
225
100
AcDbEntity
  8
LC-009-003-----0
 62
     7
370
    25
100
AcDbLine
 10
1221.788619
 20
2650.0
 30
0.0
 11
1209.89128
 21
2651.566314
 31
0.0
  0
LINE
  5
23B
330
225
100
AcDbEntity
  8
LC-009-003-----0
 62
     7
370
    25
100
AcDbLine
 10
1209.835672
 20
2649.282106
 30
0.0
 11
1215.288619
 21
2650.0
 31
0.0
  0
LINE
  5
23C
330
225
100
AcDbEntity
  8
LC-009-003-----0
 62
     7
370
    25
100
AcDbLine
 10
1215.288619
 20
2650.0
 30
0.0
 11
1209.835672
 21
2650.717894
 31
0.0
  0
TEXT
  5
23D
330
225
100
AcDbEntity
  8
LC-009-003-----0
 62
     7
370
    25
100
AcDbText
 10
992.215743
 20
2665.0
 30
0.0
 40
25.0
  1
415
 41
0.7
  7
LCTX0-400-0-0pDIN-Schrift
 72
     1
 11
1017.215743
 21
2665.0
 31
0.0
100
AcDbText
  0
ENDBLK
  5
227
330
225
100
AcDbEntity
  8
0
100
AcDbBlockEnd
  0
BLOCK
  5
240
330
23F
100
AcDbEntity
  8
0
100
AcDbBlockBegin
  2
LCDIM3
 70
     0
 71
     0
 10
0.0
 20
0.0
 30
0.0
  3
LCDIM3
  1

  4
LCDIM3
  0
LINE
  5
242
330
23F
100
AcDbEntity
  8
LC-007-003-MTH-0
 62
     7
370
    25
100
AcDbLine
 10
1250.288619
 20
1609.22
 30
0.0
 11
1365.0
 21
1609.22
 31
0.0
  0
LINE
  5
243
330
23F
100
AcDbEntity
  8
LC-007-003-MTH-0
 62
     7
370
    25
100
AcDbLine
 10
1250.288619
 20
2109.22
 30
0.0
 11
1365.0
 21
2109.22
 31
0.0
  0
LINE
  5
244
330
23F
100
AcDbEntity
  8
LC-008-003-MTG-0
 62
     7
370
    25
100
AcDbLine
 10
1350.0
 20
1609.22
 30
0.0
 11
1350.0
 21
2109.22
 31
0.0
  0
LINE
  5
245
330
23F
100
AcDbEntity
  8
LC-009-003-----0
 62
     7
370
    25
100
AcDbLine
 10
1346.736845
 20
1634.006122
 30
0.0
 11
1350.0
 21
1609.22
 31
0.0
  0
LINE
  5
246
330
23F
100
AcDbEntity
  8
LC-009-003-----0
 62
     7
370
    25
100
AcDbLine
 10
1350.0
 20
1609.22
 30
0.0
 11
1353.263155
 21
1634.006122
 31
0.0
  0
LINE
  5
247
330
23F
100
AcDbEntity
  8
LC-009-003-----0
 62
     7
370
    25
100
AcDbLine
 10
1353.263155
 20
1634.006122
 30
0.0
 11
1346.736845
 21
1634.006122
 31
0.0
  0
LINE
  5
248
330
23F
100
AcDbEntity
  8
LC-009-003-----0
 62
     7
370
    25
100
AcDbLine
 10
1347.585265
 20
1634.06173
 30
0.0
 11
1350.0
 21
1615.72
 31
0.0
  0
LINE
  5
249
330
23F
100
AcDbEntity
  8
LC-009-003-----0
 62
     7
370
    25
100
AcDbLine
 10
1350.0
 20
1615.72
 30
0.0
 11
1352.414735
 21
1634.06173
 31
0.0
  0
LINE
  5
24A
330
23F
100
AcDbEntity
  8
LC-009-003-----0
 62
     7
370
    25
100
AcDbLine
 10
1348.433686
 20
1634.117339
 30
0.0
 11
1350.0
 21
1622.22
 31
0.0
  0
LINE
  5
24B
330
23F
100
AcDbEntity
  8
LC-009-003-----0
 62
     7
370
    25
100
AcDbLine
 10
1350.0
 20
1622.22
 30
0.0
 11
1351.566314
 21
1634.117339
 31
0.0
  0
LINE
  5
24C
330
23F
100
AcDbEntity
  8
LC-009-003-----0
 62
     7
370
    25
100
AcDbLine
 10
1349.282106
 20
1634.172947
 30
0.0
 11
1350.0
 21
1628.72
 31
0.0
  0
LINE
  5
24D
330
23F
100
AcDbEntity
  8
LC-009-003-----0
 62
     7
370
    25
100
AcDbLine
 10
1350.0
 20
1628.72
 30
0.0
 11
1350.717894
 21
1634.172947
 31
0.0
  0
LINE
  5
24E
330
23F
100
AcDbEntity
  8
LC-009-003-----0
 62
     7
370
    25
100
AcDbLine
 10
1353.263155
 20
2084.433878
 30
0.0
 11
1350.0
 21
2109.22
 31
0.0
  0
LINE
  5
24F
330
23F
100
AcDbEntity
  8
LC-009-003-----0
 62
     7
370
    25
100
AcDbLine
 10
1350.0
 20
2109.22
 30
0.0
 11
1346.736845
 21
2084.433878
 31
0.0
  0
LINE
  5
250
330
23F
100
AcDbEntity
  8
LC-009-003-----0
 62
     7
370
    25
100
AcDbLine
 10
1346.736845
 20
2084.433878
 30
0.0
 11
1353.263155
 21
2084.433878
 31
0.0
  0
LINE
  5
251
330
23F
100
AcDbEntity
  8
LC-009-003-----0
 62
     7
370
    25
100
AcDbLine
 10
1352.414735
 20
2084.37827
 30
0.0
 11
1350.0
 21
2102.72
 31
0.0
  0
LINE
  5
252
330
23F
100
AcDbEntity
  8
LC-009-003-----0
 62
     7
370
    25
100
AcDbLine
 10
1350.0
 20
2102.72
 30
0.0
 11
1347.585265
 21
2084.37827
 31
0.0
  0
LINE
  5
253
330
23F
100
AcDbEntity
  8
LC-009-003-----0
 62
     7
370
    25
100
AcDbLine
 10
1351.566314
 20
2084.322661
 30
0.0
 11
1350.0
 21
2096.22
 31
0.0
  0
LINE
  5
254
330
23F
100
AcDbEntity
  8
LC-009-003-----0
 62
     7
370
    25
100
AcDbLine
 10
1350.0
 20
2096.22
 30
0.0
 11
1348.433686
 21
2084.322661
 31
0.0
  0
LINE
  5
255
330
23F
100
AcDbEntity
  8
LC-009-003-----0
 62
     7
370
    25
100
AcDbLine
 10
1350.717894
 20
2084.267053
 30
0.0
 11
1350.0
 21
2089.72
 31
0.0
  0
LINE
  5
256
330
23F
100
AcDbEntity
  8
LC-009-003-----0
 62
     7
370
    25
100
AcDbLine
 10
1350.0
 20
2089.72
 30
0.0
 11
1349.282106
 21
2084.267053
 31
0.0
  0
TEXT
  5
257
330
23F
100
AcDbEntity
  8
LC-009-003-----0
 62
     7
370
    25
100
AcDbText
 10
1335.0
 20
1840.159948
 30
0.0
 40
25.0
  1
500
 50
90.0
 41
0.7
  7
LCTX0-400-0-0pDIN-Schrift
 72
     1
 11
1335.0
 21
1865.159948
 31
0.0
100
AcDbText
  0
ENDBLK
  5
241
330
23F
100
AcDbEntity
  8
0
100
AcDbBlockEnd
  0
BLOCK
  5
25A
330
259
100
AcDbEntity
  8
0
100
AcDbBlockBegin
  2
LCDIM4
 70
     0
 71
     0
 10
0.0
 20
0.0
 30
0.0
  3
LCDIM4
  1

  4
LCDIM4
  0
LINE
  5
25C
330
259
100
AcDbEntity
  8
LC-007-003-MTH-0
 62
     7
370
    25
100
AcDbLine
 10
408.288619
 20
1627.22
 30
0.0
 11
408.288619
 21
1485.0
 31
0.0
  0
LINE
  5
25D
330
259
100
AcDbEntity
  8
LC-007-003-MTH-0
 62
     7
370
    25
100
AcDbLine
 10
1268.288619
 20
1627.22
 30
0.0
 11
1268.288619
 21
1485.0
 31
0.0
  0
LINE
  5
25E
330
259
100
AcDbEntity
  8
LC-008-003-MTG-0
 62
     7
370
    25
100
AcDbLine
 10
408.288619
 20
1500.0
 30
0.0
 11
1268.288619
 21
1500.0
 31
0.0
  0
LINE
  5
25F
330
259
100
AcDbEntity
  8
LC-009-003-----0
 62
     7
370
    25
100
AcDbLine
 10
433.074741
 20
1503.263155
 30
0.0
 11
408.288619
 21
1500.0
 31
0.0
  0
LINE
  5
260
330
259
100
AcDbEntity
  8
LC-009-003-----0
 62
     7
370
    25
100
AcDbLine
 10
408.288619
 20
1500.0
 30
0.0
 11
433.074741
 21
1496.736845
 31
0.0
  0
LINE
  5
261
330
259
100
AcDbEntity
  8
LC-009-003-----0
 62
     7
370
    25
100
AcDbLine
 10
433.074741
 20
1496.736845
 30
0.0
 11
433.074741
 21
1503.263155
 31
0.0
  0
LINE
  5
262
330
259
100
AcDbEntity
  8
LC-009-003-----0
 62
     7
370
    25
100
AcDbLine
 10
433.130349
 20
1502.414735
 30
0.0
 11
414.788619
 21
1500.0
 31
0.0
  0
LINE
  5
263
330
259
100
AcDbEntity
  8
LC-009-003-----0
 62
     7
370
    25
100
AcDbLine
 10
414.788619
 20
1500.0
 30
0.0
 11
433.130349
 21
1497.585265
 31
0.0
  0
LINE
  5
264
330
259
100
AcDbEntity
  8
LC-009-003-----0
 62
     7
370
    25
100
AcDbLine
 10
433.185958
 20
1501.566314
 30
0.0
 11
421.288619
 21
1500.0
 31
0.0
  0
LINE
  5
265
330
259
100
AcDbEntity
  8
LC-009-003-----0
 62
     7
370
    25
100
AcDbLine
 10
421.288619
 20
1500.0
 30
0.0
 11
433.185958
 21
1498.433686
 31
0.0
  0
LINE
  5
266
330
259
100
AcDbEntity
  8
LC-009-003-----0
 62
     7
370
    25
100
AcDbLine
 10
433.241566
 20
1500.717894
 30
0.0
 11
427.788619
 21
1500.0
 31
0.0
  0
LINE
  5
267
330
259
100
AcDbEntity
  8
LC-009-003-----0
 62
     7
370
    25
100
AcDbLine
 10
427.788619
 20
1500.0
 30
0.0
 11
433.241566
 21
1499.282106
 31
0.0
  0
LINE
  5
268
330
259
100
AcDbEntity
  8
LC-009-003-----0
 62
     7
370
    25
100
AcDbLine
 10
1243.502497
 20
1496.736845
 30
0.0
 11
1268.288619
 21
1500.0
 31
0.0
  0
LINE
  5
269
330
259
100
AcDbEntity
  8
LC-009-003-----0
 62
     7
370
    25
100
AcDbLine
 10
1268.288619
 20
1500.0
 30
0.0
 11
1243.502497
 21
1503.263155
 31
0.0
  0
LINE
  5
26A
330
259
100
AcDbEntity
  8
LC-009-003-----0
 62
     7
370
    25
100
AcDbLine
 10
1243.502497
 20
1503.263155
 30
0.0
 11
1243.502497
 21
1496.736845
 31
0.0
  0
LINE
  5
26B
330
259
100
AcDbEntity
  8
LC-009-003-----0
 62
     7
370
    25
100
AcDbLine
 10
1243.446889
 20
1497.585265
 30
0.0
 11
1261.788619
 21
1500.0
 31
0.0
  0
LINE
  5
26C
330
259
100
AcDbEntity
  8
LC-009-003-----0
 62
     7
370
    25
100
AcDbLine
 10
1261.788619
 20
1500.0
 30
0.0
 11
1243.446889
 21
1502.414735
 31
0.0
  0
LINE
  5
26D
330
259
100
AcDbEntity
  8
LC-009-003-----0
 62
     7
370
    25
100
AcDbLine
 10
1243.39128
 20
1498.433686
 30
0.0
 11
1255.288619
 21
1500.0
 31
0.0
  0
LINE
  5
26E
330
259
100
AcDbEntity
  8
LC-009-003-----0
 62
     7
370
    25
100
AcDbLine
 10
1255.288619
 20
1500.0
 30
0.0
 11
1243.39128
 21
1501.566314
 31
0.0
  0
LINE
  5
26F
330
259
100
AcDbEntity
  8
LC-009-003-----0
 62
     7
370
    25
100
AcDbLine
 10
1243.335672
 20
1499.282106
 30
0.0
 11
1248.788619
 21
1500.0
 31
0.0
  0
LINE
  5
270
330
259
100
AcDbEntity
  8
LC-009-003-----0
 62
     7
370
    25
100
AcDbLine
 10
1248.788619
 20
1500.0
 30
0.0
 11
1243.335672
 21
1500.717894
 31
0.0
  0
TEXT
  5
271
330
259
100
AcDbEntity
  8
LC-009-003-----0
 62
     7
370
    25
100
AcDbText
 10
807.030739
 20
1515.0
 30
0.0
 40
25.0
  1
860
 41
0.7
  7
LCTX0-400-0-0pDIN-Schrift
 72
     1
 11
832.030739
 21
1515.0
 31
0.0
100
AcDbText
  0
ENDBLK
  5
25B
330
259
100
AcDbEntity
  8
0
100
AcDbBlockEnd
  0
BLOCK
  5
286
330
285
100
AcDbEntity
  8
0
100
AcDbBlockBegin
  2
*X16
 70
     1
 71
     0
 10
0.0
 20
0.0
 30
0.0
  3
*X16
  1

  4
*X1
  0
LINE
  5
289
330
285
100
AcDbEntity
  8
LC-011-005-----0
 62
     7
370
    25
100
AcDbLine
 10
1323.482261
 20
2567.990196
 30
0.0
 11
1332.177884
 21
2576.685818
 31
0.0
  0
LINE
  5
28A
330
285
100
AcDbEntity
  8
LC-011-005-----0
 62
     7
370
    25
100
AcDbLine
 10
1295.19799
 20
2567.990196
 30
0.0
 11
1331.249115
 21
2604.041321
 31
0.0
  0
LINE
  5
28B
330
285
100
AcDbEntity
  8
LC-011-005-----0
 62
     7
370
    25
100
AcDbLine
 10
1266.913718
 20
2567.990196
 30
0.0
 11
1304.913718
 21
2605.990196
 31
0.0
  0
LINE
  5
28C
330
285
100
AcDbEntity
  8
LC-011-005-----0
 62
     7
370
    25
100
AcDbLine
 10
1258.288619
 20
2587.649368
 30
0.0
 11
1276.629447
 21
2605.990196
 31
0.0
  0
LINE
  5
28D
330
285
100
AcDbEntity
  8
LC-011-005-----0
 62
     7
370
    25
100
AcDbLine
 10
390.10131
 20
2567.990196
 30
0.0
 11
418.288619
 21
2596.177505
 31
0.0
  0
LINE
  5
28E
330
285
100
AcDbEntity
  8
LC-011-005-----0
 62
     7
370
    25
100
AcDbLine
 10
361.817038
 20
2567.990196
 30
0.0
 11
399.817038
 21
2605.990196
 31
0.0
  0
LINE
  5
28F
330
285
100
AcDbEntity
  8
LC-011-005-----0
 62
     7
370
    25
100
AcDbLine
 10
345.172759
 20
2579.630188
 30
0.0
 11
371.532767
 21
2605.990196
 31
0.0
  0
ENDBLK
  5
287
330
285
100
AcDbEntity
  8
0
100
AcDbBlockEnd
  0
BLOCK
  5
2D2
330
2D1
100
AcDbEntity
  8
0
100
AcDbBlockBegin
  2
POLY1
 70
     0
 71
     0
 10
0.0
 20
0.0
 30
0.0
  3
POLY1
  1

  4
POLY1
  0
LINE
  5
2D4
330
2D1
100
AcDbEntity
  8
LC-002-002-----0
 62
     7
370
    25
100
AcDbLine
 10
1481.889017
 20
2052.926339
 30
0.0
 11
1481.864001
 21
2052.901298
 31
0.0
  0
ENDBLK
  5
2D3
330
2D1
100
AcDbEntity
  8
0
100
AcDbBlockEnd
  0
BLOCK
  5
310
330
30F
100
AcDbEntity
  8
0
100
AcDbBlockBegin
  2
LCDIM5
 70
     0
 71
     0
 10
0.0
 20
0.0
 30
0.0
  3
LCDIM5
  1

  4
LCDIM5
  0
LINE
  5
312
330
30F
100
AcDbEntity
  8
LC-007-003-MTH-0
 62
     7
370
    25
100
AcDbLine
 10
466.704624
 20
837.732212
 30
0.0
 11
466.704624
 21
735.0
 31
0.0
  0
LINE
  5
313
330
30F
100
AcDbEntity
  8
LC-007-003-MTH-0
 62
     7
370
    25
100
AcDbLine
 10
886.704624
 20
837.732212
 30
0.0
 11
886.704624
 21
735.0
 31
0.0
  0
LINE
  5
314
330
30F
100
AcDbEntity
  8
LC-008-003-MTG-0
 62
     7
370
    25
100
AcDbLine
 10
466.704624
 20
750.0
 30
0.0
 11
886.704624
 21
750.0
 31
0.0
  0
LINE
  5
315
330
30F
100
AcDbEntity
  8
LC-009-003-----0
 62
     7
370
    25
100
AcDbLine
 10
491.490746
 20
753.263155
 30
0.0
 11
466.704624
 21
750.0
 31
0.0
  0
LINE
  5
316
330
30F
100
AcDbEntity
  8
LC-009-003-----0
 62
     7
370
    25
100
AcDbLine
 10
466.704624
 20
750.0
 30
0.0
 11
491.490746
 21
746.736845
 31
0.0
  0
LINE
  5
317
330
30F
100
AcDbEntity
  8
LC-009-003-----0
 62
     7
370
    25
100
AcDbLine
 10
491.490746
 20
746.736845
 30
0.0
 11
491.490746
 21
753.263155
 31
0.0
  0
LINE
  5
318
330
30F
100
AcDbEntity
  8
LC-009-003-----0
 62
     7
370
    25
100
AcDbLine
 10
491.546354
 20
752.414735
 30
0.0
 11
473.204624
 21
750.0
 31
0.0
  0
LINE
  5
319
330
30F
100
AcDbEntity
  8
LC-009-003-----0
 62
     7
370
    25
100
AcDbLine
 10
473.204624
 20
750.0
 30
0.0
 11
491.546354
 21
747.585265
 31
0.0
  0
LINE
  5
31A
330
30F
100
AcDbEntity
  8
LC-009-003-----0
 62
     7
370
    25
100
AcDbLine
 10
491.601962
 20
751.566314
 30
0.0
 11
479.704624
 21
750.0
 31
0.0
  0
LINE
  5
31B
330
30F
100
AcDbEntity
  8
LC-009-003-----0
 62
     7
370
    25
100
AcDbLine
 10
479.704624
 20
750.0
 30
0.0
 11
491.601962
 21
748.433686
 31
0.0
  0
LINE
  5
31C
330
30F
100
AcDbEntity
  8
LC-009-003-----0
 62
     7
370
    25
100
AcDbLine
 10
491.657571
 20
750.717894
 30
0.0
 11
486.204624
 21
750.0
 31
0.0
  0
LINE
  5
31D
330
30F
100
AcDbEntity
  8
LC-009-003-----0
 62
     7
370
    25
100
AcDbLine
 10
486.204624
 20
750.0
 30
0.0
 11
491.657571
 21
749.282106
 31
0.0
  0
LINE
  5
31E
330
30F
100
AcDbEntity
  8
LC-009-003-----0
 62
     7
370
    25
100
AcDbLine
 10
861.918502
 20
746.736845
 30
0.0
 11
886.704624
 21
750.0
 31
0.0
  0
LINE
  5
31F
330
30F
100
AcDbEntity
  8
LC-009-003-----0
 62
     7
370
    25
100
AcDbLine
 10
886.704624
 20
750.0
 30
0.0
 11
861.918502
 21
753.263155
 31
0.0
  0
LINE
  5
320
330
30F
100
AcDbEntity
  8
LC-009-003-----0
 62
     7
370
    25
100
AcDbLine
 10
861.918502
 20
753.263155
 30
0.0
 11
861.918502
 21
746.736845
 31
0.0
  0
LINE
  5
321
330
30F
100
AcDbEntity
  8
LC-009-003-----0
 62
     7
370
    25
100
AcDbLine
 10
861.862893
 20
747.585265
 30
0.0
 11
880.204624
 21
750.0
 31
0.0
  0
LINE
  5
322
330
30F
100
AcDbEntity
  8
LC-009-003-----0
 62
     7
370
    25
100
AcDbLine
 10
880.204624
 20
750.0
 30
0.0
 11
861.862893
 21
752.414735
 31
0.0
  0
LINE
  5
323
330
30F
100
AcDbEntity
  8
LC-009-003-----0
 62
     7
370
    25
100
AcDbLine
 10
861.807285
 20
748.433686
 30
0.0
 11
873.704624
 21
750.0
 31
0.0
  0
LINE
  5
324
330
30F
100
AcDbEntity
  8
LC-009-003-----0
 62
     7
370
    25
100
AcDbLine
 10
873.704624
 20
750.0
 30
0.0
 11
861.807285
 21
751.566314
 31
0.0
  0
LINE
  5
325
330
30F
100
AcDbEntity
  8
LC-009-003-----0
 62
     7
370
    25
100
AcDbLine
 10
861.751677
 20
749.282106
 30
0.0
 11
867.204623
 21
750.0
 31
0.0
  0
LINE
  5
326
330
30F
100
AcDbEntity
  8
LC-009-003-----0
 62
     7
370
    25
100
AcDbLine
 10
867.204623
 20
750.0
 30
0.0
 11
861.751677
 21
750.717894
 31
0.0
  0
TEXT
  5
327
330
30F
100
AcDbEntity
  8
LC-009-003-----0
 62
     7
370
    25
100
AcDbText
 10
649.638415
 20
765.0
 30
0.0
 40
25.0
  1
840
 41
0.7
  7
LCTX0-400-0-0pDIN-Schrift
 72
     1
 11
674.638415
 21
765.0
 31
0.0
100
AcDbText
  0
ENDBLK
  5
311
330
30F
100
AcDbEntity
  8
0
100
AcDbBlockEnd
  0
BLOCK
  5
32A
330
329
100
AcDbEntity
  8
0
100
AcDbBlockBegin
  2
LCDIM6
 70
     0
 71
     0
 10
0.0
 20
0.0
 30
0.0
  3
LCDIM6
  1

  4
LCDIM6
  0
LINE
  5
32C
330
329
100
AcDbEntity
  8
LC-007-003-MTH-0
 62
     7
370
    25
100
AcDbLine
 10
881.704624
 20
832.732212
 30
0.0
 11
965.0
 21
832.732212
 31
0.0
  0
LINE
  5
32D
330
329
100
AcDbEntity
  8
LC-007-003-MTH-0
 62
     7
370
    25
100
AcDbLine
 10
881.704624
 20
1072.732212
 30
0.0
 11
965.0
 21
1072.732212
 31
0.0
  0
LINE
  5
32E
330
329
100
AcDbEntity
  8
LC-008-003-MTG-0
 62
     7
370
    25
100
AcDbLine
 10
950.0
 20
832.732212
 30
0.0
 11
950.0
 21
1072.732212
 31
0.0
  0
LINE
  5
32F
330
329
100
AcDbEntity
  8
LC-009-003-----0
 62
     7
370
    25
100
AcDbLine
 10
946.736845
 20
857.518334
 30
0.0
 11
950.0
 21
832.732212
 31
0.0
  0
LINE
  5
330
330
329
100
AcDbEntity
  8
LC-009-003-----0
 62
     7
370
    25
100
AcDbLine
 10
950.0
 20
832.732212
 30
0.0
 11
953.263155
 21
857.518334
 31
0.0
  0
LINE
  5
331
330
329
100
AcDbEntity
  8
LC-009-003-----0
 62
     7
370
    25
100
AcDbLine
 10
953.263155
 20
857.518334
 30
0.0
 11
946.736845
 21
857.518334
 31
0.0
  0
LINE
  5
332
330
329
100
AcDbEntity
  8
LC-009-003-----0
 62
     7
370
    25
100
AcDbLine
 10
947.585265
 20
857.573942
 30
0.0
 11
950.0
 21
839.232212
 31
0.0
  0
LINE
  5
333
330
329
100
AcDbEntity
  8
LC-009-003-----0
 62
     7
370
    25
100
AcDbLine
 10
950.0
 20
839.232212
 30
0.0
 11
952.414735
 21
857.573942
 31
0.0
  0
LINE
  5
334
330
329
100
AcDbEntity
  8
LC-009-003-----0
 62
     7
370
    25
100
AcDbLine
 10
948.433686
 20
857.629551
 30
0.0
 11
950.0
 21
845.732212
 31
0.0
  0
LINE
  5
335
330
329
100
AcDbEntity
  8
LC-009-003-----0
 62
     7
370
    25
100
AcDbLine
 10
950.0
 20
845.732212
 30
0.0
 11
951.566314
 21
857.629551
 31
0.0
  0
LINE
  5
336
330
329
100
AcDbEntity
  8
LC-009-003-----0
 62
     7
370
    25
100
AcDbLine
 10
949.282106
 20
857.685159
 30
0.0
 11
950.0
 21
852.232212
 31
0.0
  0
LINE
  5
337
330
329
100
AcDbEntity
  8
LC-009-003-----0
 62
     7
370
    25
100
AcDbLine
 10
950.0
 20
852.232212
 30
0.0
 11
950.717894
 21
857.685159
 31
0.0
  0
LINE
  5
338
330
329
100
AcDbEntity
  8
LC-009-003-----0
 62
     7
370
    25
100
AcDbLine
 10
953.263155
 20
1047.94609
 30
0.0
 11
950.0
 21
1072.732212
 31
0.0
  0
LINE
  5
339
330
329
100
AcDbEntity
  8
LC-009-003-----0
 62
     7
370
    25
100
AcDbLine
 10
950.0
 20
1072.732212
 30
0.0
 11
946.736845
 21
1047.94609
 31
0.0
  0
LINE
  5
33A
330
329
100
AcDbEntity
  8
LC-009-003-----0
 62
     7
370
    25
100
AcDbLine
 10
946.736845
 20
1047.94609
 30
0.0
 11
953.263155
 21
1047.94609
 31
0.0
  0
LINE
  5
33B
330
329
100
AcDbEntity
  8
LC-009-003-----0
 62
     7
370
    25
100
AcDbLine
 10
952.414735
 20
1047.890482
 30
0.0
 11
950.0
 21
1066.232212
 31
0.0
  0
LINE
  5
33C
330
329
100
AcDbEntity
  8
LC-009-003-----0
 62
     7
370
    25
100
AcDbLine
 10
950.0
 20
1066.232212
 30
0.0
 11
947.585265
 21
1047.890482
 31
0.0
  0
LINE
  5
33D
330
329
100
AcDbEntity
  8
LC-009-003-----0
 62
     7
370
    25
100
AcDbLine
 10
951.566314
 20
1047.834873
 30
0.0
 11
950.0
 21
1059.732212
 31
0.0
  0
LINE
  5
33E
330
329
100
AcDbEntity
  8
LC-009-003-----0
 62
     7
370
    25
100
AcDbLine
 10
950.0
 20
1059.732212
 30
0.0
 11
948.433686
 21
1047.834873
 31
0.0
  0
LINE
  5
33F
330
329
100
AcDbEntity
  8
LC-009-003-----0
 62
     7
370
    25
100
AcDbLine
 10
950.717894
 20
1047.779265
 30
0.0
 11
950.0
 21
1053.232212
 31
0.0
  0
LINE
  5
340
330
329
100
AcDbEntity
  8
LC-009-003-----0
 62
     7
370
    25
100
AcDbLine
 10
950.0
 20
1053.232212
 30
0.0
 11
949.282106
 21
1047.779265
 31
0.0
  0
TEXT
  5
341
330
329
100
AcDbEntity
  8
LC-009-003-----0
 62
     7
370
    25
100
AcDbText
 10
935.0
 20
918.872023
 30
0.0
 40
25.0
  1
480
 50
90.0
 41
0.7
  7
LCTX0-400-0-0pDIN-Schrift
 72
     1
 11
935.0
 21
943.872023
 31
0.0
100
AcDbText
  0
ENDBLK
  5
32B
330
329
100
AcDbEntity
  8
0
100
AcDbBlockEnd
  0
BLOCK
  5
344
330
343
100
AcDbEntity
  8
0
100
AcDbBlockBegin
  2
LCDIM7
 70
     0
 71
     0
 10
0.0
 20
0.0
 30
0.0
  3
LCDIM7
  1

  4
LCDIM7
  0
TEXT
  5
346
330
343
100
AcDbEntity
  8
LC-009-003-----0
 62
     7
370
    25
100
AcDbText
 10
520.59774
 20
1023.755177
 30
0.0
 40
25.0
  1
R10
 50
304.844971
 41
0.7
  7
LCTX0-400-0-0pDIN-Schrift
100
AcDbText
  0
LINE
  5
347
330
343
100
AcDbEntity
  8
LC-008-003-MTG-0
 62
     7
370
    25
100
AcDbLine
 10
526.808773
 20
988.580376
 30
0.0
 11
468.847834
 21
1071.835717
 31
0.0
  0
LINE
  5
348
330
343
100
AcDbEntity
  8
LC-009-003-----0
 62
     7
370
    25
100
AcDbLine
 10
485.687655
 20
1053.358152
 30
0.0
 11
468.847834
 21
1071.835717
 31
0.0
  0
LINE
  5
349
330
343
100
AcDbEntity
  8
LC-009-003-----0
 62
     7
370
    25
100
AcDbLine
 10
468.847834
 20
1071.835717
 30
0.0
 11
480.331507
 21
1049.629293
 31
0.0
  0
LINE
  5
34A
330
343
100
AcDbEntity
  8
LC-009-003-----0
 62
     7
370
    25
100
AcDbLine
 10
480.331507
 20
1049.629293
 30
0.0
 11
485.687655
 21
1053.358152
 31
0.0
  0
LINE
  5
34B
330
343
100
AcDbEntity
  8
LC-009-003-----0
 62
     7
370
    25
100
AcDbLine
 10
485.023128
 20
1052.827762
 30
0.0
 11
472.56166
 21
1066.501161
 31
0.0
  0
LINE
  5
34C
330
343
100
AcDbEntity
  8
LC-009-003-----0
 62
     7
370
    25
100
AcDbLine
 10
472.56166
 20
1066.501161
 30
0.0
 11
481.059578
 21
1050.068407
 31
0.0
  0
LINE
  5
34D
330
343
100
AcDbEntity
  8
LC-009-003-----0
 62
     7
370
    25
100
AcDbLine
 10
484.358601
 20
1052.297373
 30
0.0
 11
476.275487
 21
1061.166604
 31
0.0
  0
LINE
  5
34E
330
343
100
AcDbEntity
  8
LC-009-003-----0
 62
     7
370
    25
100
AcDbLine
 10
476.275487
 20
1061.166604
 30
0.0
 11
481.78765
 21
1050.507521
 31
0.0
  0
LINE
  5
34F
330
343
100
AcDbEntity
  8
LC-009-003-----0
 62
     7
370
    25
100
AcDbLine
 10
483.694074
 20
1051.766983
 30
0.0
 11
479.989314
 21
1055.832048
 31
0.0
  0
LINE
  5
350
330
343
100
AcDbEntity
  8
LC-009-003-----0
 62
     7
370
    25
100
AcDbLine
 10
479.989314
 20
1055.832048
 30
0.0
 11
482.515722
 21
1050.946634
 31
0.0
  0
ENDBLK
  5
345
330
343
100
AcDbEntity
  8
0
100
AcDbBlockEnd
  0
BLOCK
  5
354
330
353
100
AcDbEntity
  8
0
100
AcDbBlockBegin
  2
LCDIM8
 70
     0
 71
     0
 10
0.0
 20
0.0
 30
0.0
  3
LCDIM8
  1

  4
LCDIM8
  0
LINE
  5
356
330
353
100
AcDbEntity
  8
LC-007-003-MTH-0
 62
     7
370
    25
100
AcDbLine
 10
1260.638117
 20
840.295357
 30
0.0
 11
1260.638117
 21
735.0
 31
0.0
  0
LINE
  5
357
330
353
100
AcDbEntity
  8
LC-007-003-MTH-0
 62
     7
370
    25
100
AcDbLine
 10
1683.638117
 20
840.295357
 30
0.0
 11
1683.638117
 21
735.0
 31
0.0
  0
LINE
  5
358
330
353
100
AcDbEntity
  8
LC-008-003-MTG-0
 62
     7
370
    25
100
AcDbLine
 10
1260.638117
 20
750.0
 30
0.0
 11
1683.638117
 21
750.0
 31
0.0
  0
LINE
  5
359
330
353
100
AcDbEntity
  8
LC-009-003-----0
 62
     7
370
    25
100
AcDbLine
 10
1285.424239
 20
753.263155
 30
0.0
 11
1260.638117
 21
750.0
 31
0.0
  0
LINE
  5
35A
330
353
100
AcDbEntity
  8
LC-009-003-----0
 62
     7
370
    25
100
AcDbLine
 10
1260.638117
 20
750.0
 30
0.0
 11
1285.424239
 21
746.736845
 31
0.0
  0
LINE
  5
35B
330
353
100
AcDbEntity
  8
LC-009-003-----0
 62
     7
370
    25
100
AcDbLine
 10
1285.424239
 20
746.736845
 30
0.0
 11
1285.424239
 21
753.263155
 31
0.0
  0
LINE
  5
35C
330
353
100
AcDbEntity
  8
LC-009-003-----0
 62
     7
370
    25
100
AcDbLine
 10
1285.479847
 20
752.414735
 30
0.0
 11
1267.138117
 21
750.0
 31
0.0
  0
LINE
  5
35D
330
353
100
AcDbEntity
  8
LC-009-003-----0
 62
     7
370
    25
100
AcDbLine
 10
1267.138117
 20
750.0
 30
0.0
 11
1285.479847
 21
747.585265
 31
0.0
  0
LINE
  5
35E
330
353
100
AcDbEntity
  8
LC-009-003-----0
 62
     7
370
    25
100
AcDbLine
 10
1285.535456
 20
751.566314
 30
0.0
 11
1273.638117
 21
750.0
 31
0.0
  0
LINE
  5
35F
330
353
100
AcDbEntity
  8
LC-009-003-----0
 62
     7
370
    25
100
AcDbLine
 10
1273.638117
 20
750.0
 30
0.0
 11
1285.535456
 21
748.433686
 31
0.0
  0
LINE
  5
360
330
353
100
AcDbEntity
  8
LC-009-003-----0
 62
     7
370
    25
100
AcDbLine
 10
1285.591064
 20
750.717894
 30
0.0
 11
1280.138117
 21
750.0
 31
0.0
  0
LINE
  5
361
330
353
100
AcDbEntity
  8
LC-009-003-----0
 62
     7
370
    25
100
AcDbLine
 10
1280.138117
 20
750.0
 30
0.0
 11
1285.591064
 21
749.282106
 31
0.0
  0
LINE
  5
362
330
353
100
AcDbEntity
  8
LC-009-003-----0
 62
     7
370
    25
100
AcDbLine
 10
1658.851995
 20
746.736845
 30
0.0
 11
1683.638117
 21
750.0
 31
0.0
  0
LINE
  5
363
330
353
100
AcDbEntity
  8
LC-009-003-----0
 62
     7
370
    25
100
AcDbLine
 10
1683.638117
 20
750.0
 30
0.0
 11
1658.851995
 21
753.263155
 31
0.0
  0
LINE
  5
364
330
353
100
AcDbEntity
  8
LC-009-003-----0
 62
     7
370
    25
100
AcDbLine
 10
1658.851995
 20
753.263155
 30
0.0
 11
1658.851995
 21
746.736845
 31
0.0
  0
LINE
  5
365
330
353
100
AcDbEntity
  8
LC-009-003-----0
 62
     7
370
    25
100
AcDbLine
 10
1658.796387
 20
747.585265
 30
0.0
 11
1677.138117
 21
750.0
 31
0.0
  0
LINE
  5
366
330
353
100
AcDbEntity
  8
LC-009-003-----0
 62
     7
370
    25
100
AcDbLine
 10
1677.138117
 20
750.0
 30
0.0
 11
1658.796387
 21
752.414735
 31
0.0
  0
LINE
  5
367
330
353
100
AcDbEntity
  8
LC-009-003-----0
 62
     7
370
    25
100
AcDbLine
 10
1658.740778
 20
748.433686
 30
0.0
 11
1670.638117
 21
750.0
 31
0.0
  0
LINE
  5
368
330
353
100
AcDbEntity
  8
LC-009-003-----0
 62
     7
370
    25
100
AcDbLine
 10
1670.638117
 20
750.0
 30
0.0
 11
1658.740778
 21
751.566314
 31
0.0
  0
LINE
  5
369
330
353
100
AcDbEntity
  8
LC-009-003-----0
 62
     7
370
    25
100
AcDbLine
 10
1658.68517
 20
749.282106
 30
0.0
 11
1664.138117
 21
750.0
 31
0.0
  0
LINE
  5
36A
330
353
100
AcDbEntity
  8
LC-009-003-----0
 62
     7
370
    25
100
AcDbLine
 10
1664.138117
 20
750.0
 30
0.0
 11
1658.68517
 21
750.717894
 31
0.0
  0
TEXT
  5
36B
330
353
100
AcDbEntity
  8
LC-009-003-----0
 62
     7
370
    25
100
AcDbText
 10
1442.476715
 20
765.0
 30
0.0
 40
25.0
  1
846
 41
0.7
  7
LCTX0-400-0-0pDIN-Schrift
 72
     1
 11
1467.476715
 21
765.0
 31
0.0
100
AcDbText
  0
ENDBLK
  5
355
330
353
100
AcDbEntity
  8
0
100
AcDbBlockEnd
  0
BLOCK
  5
36E
330
36D
100
AcDbEntity
  8
0
100
AcDbBlockBegin
  2
LCDIM9
 70
     0
 71
     0
 10
0.0
 20
0.0
 30
0.0
  3
LCDIM9
  1

  4
LCDIM9
  0
LINE
  5
370
330
36D
100
AcDbEntity
  8
LC-007-003-MTH-0
 62
     7
370
    25
100
AcDbLine
 10
1678.638117
 20
835.295357
 30
0.0
 11
1765.0
 21
835.295357
 31
0.0
  0
LINE
  5
371
330
36D
100
AcDbEntity
  8
LC-007-003-MTH-0
 62
     7
370
    25
100
AcDbLine
 10
1678.638117
 20
1078.295357
 30
0.0
 11
1765.0
 21
1078.295357
 31
0.0
  0
LINE
  5
372
330
36D
100
AcDbEntity
  8
LC-008-003-MTG-0
 62
     7
370
    25
100
AcDbLine
 10
1750.0
 20
835.295357
 30
0.0
 11
1750.0
 21
1078.295357
 31
0.0
  0
LINE
  5
373
330
36D
100
AcDbEntity
  8
LC-009-003-----0
 62
     7
370
    25
100
AcDbLine
 10
1746.736845
 20
860.081478
 30
0.0
 11
1750.0
 21
835.295357
 31
0.0
  0
LINE
  5
374
330
36D
100
AcDbEntity
  8
LC-009-003-----0
 62
     7
370
    25
100
AcDbLine
 10
1750.0
 20
835.295357
 30
0.0
 11
1753.263155
 21
860.081478
 31
0.0
  0
LINE
  5
375
330
36D
100
AcDbEntity
  8
LC-009-003-----0
 62
     7
370
    25
100
AcDbLine
 10
1753.263155
 20
860.081478
 30
0.0
 11
1746.736845
 21
860.081478
 31
0.0
  0
LINE
  5
376
330
36D
100
AcDbEntity
  8
LC-009-003-----0
 62
     7
370
    25
100
AcDbLine
 10
1747.585265
 20
860.137087
 30
0.0
 11
1750.0
 21
841.795357
 31
0.0
  0
LINE
  5
377
330
36D
100
AcDbEntity
  8
LC-009-003-----0
 62
     7
370
    25
100
AcDbLine
 10
1750.0
 20
841.795357
 30
0.0
 11
1752.414735
 21
860.137087
 31
0.0
  0
LINE
  5
378
330
36D
100
AcDbEntity
  8
LC-009-003-----0
 62
     7
370
    25
100
AcDbLine
 10
1748.433686
 20
860.192695
 30
0.0
 11
1750.0
 21
848.295357
 31
0.0
  0
LINE
  5
379
330
36D
100
AcDbEntity
  8
LC-009-003-----0
 62
     7
370
    25
100
AcDbLine
 10
1750.0
 20
848.295357
 30
0.0
 11
1751.566314
 21
860.192695
 31
0.0
  0
LINE
  5
37A
330
36D
100
AcDbEntity
  8
LC-009-003-----0
 62
     7
370
    25
100
AcDbLine
 10
1749.282106
 20
860.248304
 30
0.0
 11
1750.0
 21
854.795357
 31
0.0
  0
LINE
  5
37B
330
36D
100
AcDbEntity
  8
LC-009-003-----0
 62
     7
370
    25
100
AcDbLine
 10
1750.0
 20
854.795357
 30
0.0
 11
1750.717894
 21
860.248304
 31
0.0
  0
LINE
  5
37C
330
36D
100
AcDbEntity
  8
LC-009-003-----0
 62
     7
370
    25
100
AcDbLine
 10
1753.263155
 20
1053.509235
 30
0.0
 11
1750.0
 21
1078.295357
 31
0.0
  0
LINE
  5
37D
330
36D
100
AcDbEntity
  8
LC-009-003-----0
 62
     7
370
    25
100
AcDbLine
 10
1750.0
 20
1078.295357
 30
0.0
 11
1746.736845
 21
1053.509235
 31
0.0
  0
LINE
  5
37E
330
36D
100
AcDbEntity
  8
LC-009-003-----0
 62
     7
370
    25
100
AcDbLine
 10
1746.736845
 20
1053.509235
 30
0.0
 11
1753.263155
 21
1053.509235
 31
0.0
  0
LINE
  5
37F
330
36D
100
AcDbEntity
  8
LC-009-003-----0
 62
     7
370
    25
100
AcDbLine
 10
1752.414735
 20
1053.453626
 30
0.0
 11
1750.0
 21
1071.795356
 31
0.0
  0
LINE
  5
380
330
36D
100
AcDbEntity
  8
LC-009-003-----0
 62
     7
370
    25
100
AcDbLine
 10
1750.0
 20
1071.795356
 30
0.0
 11
1747.585265
 21
1053.453626
 31
0.0
  0
LINE
  5
381
330
36D
100
AcDbEntity
  8
LC-009-003-----0
 62
     7
370
    25
100
AcDbLine
 10
1751.566314
 20
1053.398018
 30
0.0
 11
1750.0
 21
1065.295356
 31
0.0
  0
LINE
  5
382
330
36D
100
AcDbEntity
  8
LC-009-003-----0
 62
     7
370
    25
100
AcDbLine
 10
1750.0
 20
1065.295356
 30
0.0
 11
1748.433686
 21
1053.398018
 31
0.0
  0
LINE
  5
383
330
36D
100
AcDbEntity
  8
LC-009-003-----0
 62
     7
370
    25
100
AcDbLine
 10
1750.717894
 20
1053.342409
 30
0.0
 11
1750.0
 21
1058.795356
 31
0.0
  0
LINE
  5
384
330
36D
100
AcDbEntity
  8
LC-009-003-----0
 62
     7
370
    25
100
AcDbLine
 10
1750.0
 20
1058.795356
 30
0.0
 11
1749.282106
 21
1053.342409
 31
0.0
  0
TEXT
  5
385
330
36D
100
AcDbEntity
  8
LC-009-003-----0
 62
     7
370
    25
100
AcDbText
 10
1735.0
 20
921.712102
 30
0.0
 40
25.0
  1
486
 50
90.0
 41
0.7
  7
LCTX0-400-0-0pDIN-Schrift
 72
     1
 11
1735.0
 21
946.712102
 31
0.0
100
AcDbText
  0
ENDBLK
  5
36F
330
36D
100
AcDbEntity
  8
0
100
AcDbBlockEnd
  0
BLOCK
  5
388
330
387
100
AcDbEntity
  8
0
100
AcDbBlockBegin
  2
LCDIM10
 70
     0
 71
     0
 10
0.0
 20
0.0
 30
0.0
  3
LCDIM10
  1

  4
LCDIM10
  0
TEXT
  5
38A
330
387
100
AcDbEntity
  8
LC-009-003-----0
 62
     7
370
    25
100
AcDbText
 10
1316.972497
 20
1026.619177
 30
0.0
 40
25.0
  1
R10
 50
305.235504
 41
0.7
  7
LCTX0-400-0-0pDIN-Schrift
100
AcDbText
  0
LINE
  5
38B
330
387
100
AcDbEntity
  8
LC-008-003-MTG-0
 62
     7
370
    25
100
AcDbLine
 10
1323.423138
 20
991.487528
 30
0.0
 11
1262.753425
 21
1077.379295
 31
0.0
  0
LINE
  5
38C
330
387
100
AcDbEntity
  8
LC-009-003-----0
 62
     7
370
    25
100
AcDbLine
 10
1279.718797
 20
1059.016938
 30
0.0
 11
1262.753425
 21
1077.379295
 31
0.0
  0
LINE
  5
38D
330
387
100
AcDbEntity
  8
LC-009-003-----0
 62
     7
370
    25
100
AcDbLine
 10
1262.753425
 20
1077.379295
 30
0.0
 11
1274.388188
 21
1055.251659
 31
0.0
  0
LINE
  5
38E
330
387
100
AcDbEntity
  8
LC-009-003-----0
 62
     7
370
    25
100
AcDbLine
 10
1274.388188
 20
1055.251659
 30
0.0
 11
1279.718797
 21
1059.016938
 31
0.0
  0
LINE
  5
38F
330
387
100
AcDbEntity
  8
LC-009-003-----0
 62
     7
370
    25
100
AcDbLine
 10
1279.057901
 20
1058.482031
 30
0.0
 11
1266.503525
 21
1072.070175
 31
0.0
  0
LINE
  5
390
330
387
100
AcDbEntity
  8
LC-009-003-----0
 62
     7
370
    25
100
AcDbLine
 10
1266.503525
 20
1072.070175
 30
0.0
 11
1275.11325
 21
1055.695725
 31
0.0
  0
LINE
  5
391
330
387
100
AcDbEntity
  8
LC-009-003-----0
 62
     7
370
    25
100
AcDbLine
 10
1278.397004
 20
1057.947125
 30
0.0
 11
1270.253625
 21
1066.761056
 31
0.0
  0
LINE
  5
392
330
387
100
AcDbEntity
  8
LC-009-003-----0
 62
     7
370
    25
100
AcDbLine
 10
1270.253625
 20
1066.761056
 30
0.0
 11
1275.838312
 21
1056.139791
 31
0.0
  0
LINE
  5
393
330
387
100
AcDbEntity
  8
LC-009-003-----0
 62
     7
370
    25
100
AcDbLine
 10
1277.736108
 20
1057.412218
 30
0.0
 11
1274.003726
 21
1061.451937
 31
0.0
  0
LINE
  5
394
330
387
100
AcDbEntity
  8
LC-009-003-----0
 62
     7
370
    25
100
AcDbLine
 10
1274.003726
 20
1061.451937
 30
0.0
 11
1276.563374
 21
1056.583857
 31
0.0
  0
ENDBLK
  5
389
330
387
100
AcDbEntity
  8
0
100
AcDbBlockEnd
  0
BLOCK
  5
39B
330
39A
100
AcDbEntity
  8
0
100
AcDbBlockBegin
  2
LCDIM11
 70
     0
 71
     0
 10
0.0
 20
0.0
 30
0.0
  3
LCDIM11
  1

  4
LCDIM11
  0
LINE
  5
39D
330
39A
100
AcDbEntity
  8
LC-007-003-MTH-0
 62
     7
370
    25
100
AcDbLine
 10
661.704624
 20
1110.371216
 30
0.0
 11
661.704624
 21
1085.0
 31
0.0
  0
LINE
  5
39E
330
39A
100
AcDbEntity
  8
LC-007-003-MTH-0
 62
     7
370
    25
100
AcDbLine
 10
886.704624
 20
1110.371216
 30
0.0
 11
886.704624
 21
1085.0
 31
0.0
  0
LINE
  5
39F
330
39A
100
AcDbEntity
  8
LC-008-003-MTG-0
 62
     7
370
    25
100
AcDbLine
 10
661.704624
 20
1100.0
 30
0.0
 11
886.704624
 21
1100.0
 31
0.0
  0
LINE
  5
3A0
330
39A
100
AcDbEntity
  8
LC-009-003-----0
 62
     7
370
    25
100
AcDbLine
 10
686.490746
 20
1103.263155
 30
0.0
 11
661.704624
 21
1100.0
 31
0.0
  0
LINE
  5
3A1
330
39A
100
AcDbEntity
  8
LC-009-003-----0
 62
     7
370
    25
100
AcDbLine
 10
661.704624
 20
1100.0
 30
0.0
 11
686.490746
 21
1096.736845
 31
0.0
  0
LINE
  5
3A2
330
39A
100
AcDbEntity
  8
LC-009-003-----0
 62
     7
370
    25
100
AcDbLine
 10
686.490746
 20
1096.736845
 30
0.0
 11
686.490746
 21
1103.263155
 31
0.0
  0
LINE
  5
3A3
330
39A
100
AcDbEntity
  8
LC-009-003-----0
 62
     7
370
    25
100
AcDbLine
 10
686.546354
 20
1102.414735
 30
0.0
 11
668.204624
 21
1100.0
 31
0.0
  0
LINE
  5
3A4
330
39A
100
AcDbEntity
  8
LC-009-003-----0
 62
     7
370
    25
100
AcDbLine
 10
668.204624
 20
1100.0
 30
0.0
 11
686.546354
 21
1097.585265
 31
0.0
  0
LINE
  5
3A5
330
39A
100
AcDbEntity
  8
LC-009-003-----0
 62
     7
370
    25
100
AcDbLine
 10
686.601962
 20
1101.566314
 30
0.0
 11
674.704624
 21
1100.0
 31
0.0
  0
LINE
  5
3A6
330
39A
100
AcDbEntity
  8
LC-009-003-----0
 62
     7
370
    25
100
AcDbLine
 10
674.704624
 20
1100.0
 30
0.0
 11
686.601962
 21
1098.433686
 31
0.0
  0
LINE
  5
3A7
330
39A
100
AcDbEntity
  8
LC-009-003-----0
 62
     7
370
    25
100
AcDbLine
 10
686.657571
 20
1100.717894
 30
0.0
 11
681.204624
 21
1100.0
 31
0.0
  0
LINE
  5
3A8
330
39A
100
AcDbEntity
  8
LC-009-003-----0
 62
     7
370
    25
100
AcDbLine
 10
681.204624
 20
1100.0
 30
0.0
 11
686.657571
 21
1099.282106
 31
0.0
  0
LINE
  5
3A9
330
39A
100
AcDbEntity
  8
LC-009-003-----0
 62
     7
370
    25
100
AcDbLine
 10
861.918502
 20
1096.736845
 30
0.0
 11
886.704624
 21
1100.0
 31
0.0
  0
LINE
  5
3AA
330
39A
100
AcDbEntity
  8
LC-009-003-----0
 62
     7
370
    25
100
AcDbLine
 10
886.704624
 20
1100.0
 30
0.0
 11
861.918502
 21
1103.263155
 31
0.0
  0
LINE
  5
3AB
330
39A
100
AcDbEntity
  8
LC-009-003-----0
 62
     7
370
    25
100
AcDbLine
 10
861.918502
 20
1103.263155
 30
0.0
 11
861.918502
 21
1096.736845
 31
0.0
  0
LINE
  5
3AC
330
39A
100
AcDbEntity
  8
LC-009-003-----0
 62
     7
370
    25
100
AcDbLine
 10
861.862893
 20
1097.585265
 30
0.0
 11
880.204624
 21
1100.0
 31
0.0
  0
LINE
  5
3AD
330
39A
100
AcDbEntity
  8
LC-009-003-----0
 62
     7
370
    25
100
AcDbLine
 10
880.204624
 20
1100.0
 30
0.0
 11
861.862893
 21
1102.414735
 31
0.0
  0
LINE
  5
3AE
330
39A
100
AcDbEntity
  8
LC-009-003-----0
 62
     7
370
    25
100
AcDbLine
 10
861.807285
 20
1098.433686
 30
0.0
 11
873.704624
 21
1100.0
 31
0.0
  0
LINE
  5
3AF
330
39A
100
AcDbEntity
  8
LC-009-003-----0
 62
     7
370
    25
100
AcDbLine
 10
873.704624
 20
1100.0
 30
0.0
 11
861.807285
 21
1101.566314
 31
0.0
  0
LINE
  5
3B0
330
39A
100
AcDbEntity
  8
LC-009-003-----0
 62
     7
370
    25
100
AcDbLine
 10
861.751677
 20
1099.282106
 30
0.0
 11
867.204623
 21
1100.0
 31
0.0
  0
LINE
  5
3B1
330
39A
100
AcDbEntity
  8
LC-009-003-----0
 62
     7
370
    25
100
AcDbLine
 10
867.204623
 20
1100.0
 30
0.0
 11
861.751677
 21
1100.717894
 31
0.0
  0
TEXT
  5
3B2
330
39A
100
AcDbEntity
  8
LC-009-003-----0
 62
     7
370
    25
100
AcDbText
 10
756.097696
 20
1115.0
 30
0.0
 40
25.0
  1
450
 41
0.7
  7
LCTX0-400-0-0pDIN-Schrift
 72
     1
 11
781.097696
 21
1115.0
 31
0.0
100
AcDbText
  0
ENDBLK
  5
39C
330
39A
100
AcDbEntity
  8
0
100
AcDbBlockEnd
  0
BLOCK
  5
3F8
330
3F7
100
AcDbEntity
  8
0
100
AcDbBlockBegin
  2
LCDIM12
 70
     0
 71
     0
 10
0.0
 20
0.0
 30
0.0
  3
LCDIM12
  1

  4
LCDIM12
  0
LINE
  5
3FA
330
3F7
100
AcDbEntity
  8
LC-007-003-MTH-0
 62
     7
370
    25
100
AcDbLine
 10
1781.551637
 20
1636.308135
 30
0.0
 11
1865.0
 21
1636.308135
 31
0.0
  0
LINE
  5
3FB
330
3F7
100
AcDbEntity
  8
LC-007-003-MTH-0
 62
     7
370
    25
100
AcDbLine
 10
1781.551637
 20
2082.131865
 30
0.0
 11
1865.0
 21
2082.131865
 31
0.0
  0
LINE
  5
3FC
330
3F7
100
AcDbEntity
  8
LC-008-003-MTG-0
 62
     7
370
    25
100
AcDbLine
 10
1850.0
 20
1636.308135
 30
0.0
 11
1850.0
 21
2082.131865
 31
0.0
  0
LINE
  5
3FD
330
3F7
100
AcDbEntity
  8
LC-009-003-----0
 62
     7
370
    25
100
AcDbLine
 10
1846.736845
 20
1661.094257
 30
0.0
 11
1850.0
 21
1636.308135
 31
0.0
  0
LINE
  5
3FE
330
3F7
100
AcDbEntity
  8
LC-009-003-----0
 62
     7
370
    25
100
AcDbLine
 10
1850.0
 20
1636.308135
 30
0.0
 11
1853.263155
 21
1661.094257
 31
0.0
  0
LINE
  5
3FF
330
3F7
100
AcDbEntity
  8
LC-009-003-----0
 62
     7
370
    25
100
AcDbLine
 10
1853.263155
 20
1661.094257
 30
0.0
 11
1846.736845
 21
1661.094257
 31
0.0
  0
LINE
  5
400
330
3F7
100
AcDbEntity
  8
LC-009-003-----0
 62
     7
370
    25
100
AcDbLine
 10
1847.585265
 20
1661.149866
 30
0.0
 11
1850.0
 21
1642.808135
 31
0.0
  0
LINE
  5
401
330
3F7
100
AcDbEntity
  8
LC-009-003-----0
 62
     7
370
    25
100
AcDbLine
 10
1850.0
 20
1642.808135
 30
0.0
 11
1852.414735
 21
1661.149866
 31
0.0
  0
LINE
  5
402
330
3F7
100
AcDbEntity
  8
LC-009-003-----0
 62
     7
370
    25
100
AcDbLine
 10
1848.433686
 20
1661.205474
 30
0.0
 11
1850.0
 21
1649.308136
 31
0.0
  0
LINE
  5
403
330
3F7
100
AcDbEntity
  8
LC-009-003-----0
 62
     7
370
    25
100
AcDbLine
 10
1850.0
 20
1649.308136
 30
0.0
 11
1851.566314
 21
1661.205474
 31
0.0
  0
LINE
  5
404
330
3F7
100
AcDbEntity
  8
LC-009-003-----0
 62
     7
370
    25
100
AcDbLine
 10
1849.282106
 20
1661.261082
 30
0.0
 11
1850.0
 21
1655.808136
 31
0.0
  0
LINE
  5
405
330
3F7
100
AcDbEntity
  8
LC-009-003-----0
 62
     7
370
    25
100
AcDbLine
 10
1850.0
 20
1655.808136
 30
0.0
 11
1850.717894
 21
1661.261082
 31
0.0
  0
LINE
  5
406
330
3F7
100
AcDbEntity
  8
LC-009-003-----0
 62
     7
370
    25
100
AcDbLine
 10
1853.263155
 20
2057.345743
 30
0.0
 11
1850.0
 21
2082.131865
 31
0.0
  0
LINE
  5
407
330
3F7
100
AcDbEntity
  8
LC-009-003-----0
 62
     7
370
    25
100
AcDbLine
 10
1850.0
 20
2082.131865
 30
0.0
 11
1846.736845
 21
2057.345743
 31
0.0
  0
LINE
  5
408
330
3F7
100
AcDbEntity
  8
LC-009-003-----0
 62
     7
370
    25
100
AcDbLine
 10
1846.736845
 20
2057.345743
 30
0.0
 11
1853.263155
 21
2057.345743
 31
0.0
  0
LINE
  5
409
330
3F7
100
AcDbEntity
  8
LC-009-003-----0
 62
     7
370
    25
100
AcDbLine
 10
1852.414735
 20
2057.290134
 30
0.0
 11
1850.0
 21
2075.631865
 31
0.0
  0
LINE
  5
40A
330
3F7
100
AcDbEntity
  8
LC-009-003-----0
 62
     7
370
    25
100
AcDbLine
 10
1850.0
 20
2075.631865
 30
0.0
 11
1847.585265
 21
2057.290134
 31
0.0
  0
LINE
  5
40B
330
3F7
100
AcDbEntity
  8
LC-009-003-----0
 62
     7
370
    25
100
AcDbLine
 10
1851.566314
 20
2057.234526
 30
0.0
 11
1850.0
 21
2069.131864
 31
0.0
  0
LINE
  5
40C
330
3F7
100
AcDbEntity
  8
LC-009-003-----0
 62
     7
370
    25
100
AcDbLine
 10
1850.0
 20
2069.131864
 30
0.0
 11
1848.433686
 21
2057.234526
 31
0.0
  0
LINE
  5
40D
330
3F7
100
AcDbEntity
  8
LC-009-003-----0
 62
     7
370
    25
100
AcDbLine
 10
1850.717894
 20
2057.178918
 30
0.0
 11
1850.0
 21
2062.631864
 31
0.0
  0
LINE
  5
40E
330
3F7
100
AcDbEntity
  8
LC-009-003-----0
 62
     7
370
    25
100
AcDbLine
 10
1850.0
 20
2062.631864
 30
0.0
 11
1849.282106
 21
2057.178918
 31
0.0
  0
TEXT
  5
40F
330
3F7
100
AcDbEntity
  8
LC-009-003-----0
 62
     7
370
    25
100
AcDbText
 10
1835.0
 20
1831.011862
 30
0.0
 40
25.0
  1
446
 50
90.0
 41
0.7
  7
LCTX0-400-0-0pDIN-Schrift
 72
     1
 11
1835.0
 21
1856.011862
 31
0.0
100
AcDbText
  0
ENDBLK
  5
3F9
330
3F7
100
AcDbEntity
  8
0
100
AcDbBlockEnd
  0
BLOCK
  5
412
330
411
100
AcDbEntity
  8
0
100
AcDbBlockBegin
  2
LCDIM13
 70
     0
 71
     0
 10
0.0
 20
0.0
 30
0.0
  3
LCDIM13
  1

  4
LCDIM13
  0
LINE
  5
414
330
411
100
AcDbEntity
  8
LC-007-003-MTH-0
 62
     7
370
    25
100
AcDbLine
 10
818.288619
 20
2088.72
 30
0.0
 11
818.288619
 21
2165.0
 31
0.0
  0
LINE
  5
415
330
411
100
AcDbEntity
  8
LC-007-003-MTH-0
 62
     7
370
    25
100
AcDbLine
 10
1268.288619
 20
2091.22
 30
0.0
 11
1268.288619
 21
2165.0
 31
0.0
  0
LINE
  5
416
330
411
100
AcDbEntity
  8
LC-008-003-MTG-0
 62
     7
370
    25
100
AcDbLine
 10
818.288619
 20
2150.0
 30
0.0
 11
1268.288619
 21
2150.0
 31
0.0
  0
LINE
  5
417
330
411
100
AcDbEntity
  8
LC-009-003-----0
 62
     7
370
    25
100
AcDbLine
 10
843.074741
 20
2153.263155
 30
0.0
 11
818.288619
 21
2150.0
 31
0.0
  0
LINE
  5
418
330
411
100
AcDbEntity
  8
LC-009-003-----0
 62
     7
370
    25
100
AcDbLine
 10
818.288619
 20
2150.0
 30
0.0
 11
843.074741
 21
2146.736845
 31
0.0
  0
LINE
  5
419
330
411
100
AcDbEntity
  8
LC-009-003-----0
 62
     7
370
    25
100
AcDbLine
 10
843.074741
 20
2146.736845
 30
0.0
 11
843.074741
 21
2153.263155
 31
0.0
  0
LINE
  5
41A
330
411
100
AcDbEntity
  8
LC-009-003-----0
 62
     7
370
    25
100
AcDbLine
 10
843.130349
 20
2152.414735
 30
0.0
 11
824.788619
 21
2150.0
 31
0.0
  0
LINE
  5
41B
330
411
100
AcDbEntity
  8
LC-009-003-----0
 62
     7
370
    25
100
AcDbLine
 10
824.788619
 20
2150.0
 30
0.0
 11
843.130349
 21
2147.585265
 31
0.0
  0
LINE
  5
41C
330
411
100
AcDbEntity
  8
LC-009-003-----0
 62
     7
370
    25
100
AcDbLine
 10
843.185958
 20
2151.566314
 30
0.0
 11
831.288619
 21
2150.0
 31
0.0
  0
LINE
  5
41D
330
411
100
AcDbEntity
  8
LC-009-003-----0
 62
     7
370
    25
100
AcDbLine
 10
831.288619
 20
2150.0
 30
0.0
 11
843.185958
 21
2148.433686
 31
0.0
  0
LINE
  5
41E
330
411
100
AcDbEntity
  8
LC-009-003-----0
 62
     7
370
    25
100
AcDbLine
 10
843.241566
 20
2150.717894
 30
0.0
 11
837.788619
 21
2150.0
 31
0.0
  0
LINE
  5
41F
330
411
100
AcDbEntity
  8
LC-009-003-----0
 62
     7
370
    25
100
AcDbLine
 10
837.788619
 20
2150.0
 30
0.0
 11
843.241566
 21
2149.282106
 31
0.0
  0
LINE
  5
420
330
411
100
AcDbEntity
  8
LC-009-003-----0
 62
     7
370
    25
100
AcDbLine
 10
1243.502497
 20
2146.736845
 30
0.0
 11
1268.288619
 21
2150.0
 31
0.0
  0
LINE
  5
421
330
411
100
AcDbEntity
  8
LC-009-003-----0
 62
     7
370
    25
100
AcDbLine
 10
1268.288619
 20
2150.0
 30
0.0
 11
1243.502497
 21
2153.263155
 31
0.0
  0
LINE
  5
422
330
411
100
AcDbEntity
  8
LC-009-003-----0
 62
     7
370
    25
100
AcDbLine
 10
1243.502497
 20
2153.263155
 30
0.0
 11
1243.502497
 21
2146.736845
 31
0.0
  0
LINE
  5
423
330
411
100
AcDbEntity
  8
LC-009-003-----0
 62
     7
370
    25
100
AcDbLine
 10
1243.446889
 20
2147.585265
 30
0.0
 11
1261.788619
 21
2150.0
 31
0.0
  0
LINE
  5
424
330
411
100
AcDbEntity
  8
LC-009-003-----0
 62
     7
370
    25
100
AcDbLine
 10
1261.788619
 20
2150.0
 30
0.0
 11
1243.446889
 21
2152.414735
 31
0.0
  0
LINE
  5
425
330
411
100
AcDbEntity
  8
LC-009-003-----0
 62
     7
370
    25
100
AcDbLine
 10
1243.39128
 20
2148.433686
 30
0.0
 11
1255.288619
 21
2150.0
 31
0.0
  0
LINE
  5
426
330
411
100
AcDbEntity
  8
LC-009-003-----0
 62
     7
370
    25
100
AcDbLine
 10
1255.288619
 20
2150.0
 30
0.0
 11
1243.39128
 21
2151.566314
 31
0.0
  0
LINE
  5
427
330
411
100
AcDbEntity
  8
LC-009-003-----0
 62
     7
370
    25
100
AcDbLine
 10
1243.335672
 20
2149.282106
 30
0.0
 11
1248.788619
 21
2150.0
 31
0.0
  0
LINE
  5
428
330
411
100
AcDbEntity
  8
LC-009-003-----0
 62
     7
370
    25
100
AcDbLine
 10
1248.788619
 20
2150.0
 30
0.0
 11
1243.335672
 21
2150.717894
 31
0.0
  0
TEXT
  5
429
330
411
100
AcDbEntity
  8
LC-009-003-----0
 62
     7
370
    25
100
AcDbText
 10
994.292063
 20
2165.0
 30
0.0
 40
25.0
  1
450
 41
0.7
  7
LCTX0-400-0-0pDIN-Schrift
 72
     1
 11
1019.292063
 21
2165.0
 31
0.0
100
AcDbText
  0
ENDBLK
  5
413
330
411
100
AcDbEntity
  8
0
100
AcDbBlockEnd
  0
BLOCK
  5
42C
330
42B
100
AcDbEntity
  8
0
100
AcDbBlockBegin
  2
LCDIM14
 70
     0
 71
     0
 10
0.0
 20
0.0
 30
0.0
  3
LCDIM14
  1

  4
LCDIM14
  0
LINE
  5
42E
330
42B
100
AcDbEntity
  8
LC-007-003-MTH-0
 62
     7
370
    25
100
AcDbLine
 10
800.788619
 20
2071.22
 30
0.0
 11
735.0
 21
2071.22
 31
0.0
  0
LINE
  5
42F
330
42B
100
AcDbEntity
  8
LC-007-003-MTH-0
 62
     7
370
    25
100
AcDbLine
 10
818.288619
 20
2109.22
 30
0.0
 11
735.0
 21
2109.22
 31
0.0
  0
LINE
  5
430
330
42B
100
AcDbEntity
  8
LC-009-003-----0
 62
     7
370
    25
100
AcDbLine
 10
753.263155
 20
2046.433878
 30
0.0
 11
750.0
 21
2071.22
 31
0.0
  0
LINE
  5
431
330
42B
100
AcDbEntity
  8
LC-009-003-----0
 62
     7
370
    25
100
AcDbLine
 10
750.0
 20
2071.22
 30
0.0
 11
746.736845
 21
2046.433878
 31
0.0
  0
LINE
  5
432
330
42B
100
AcDbEntity
  8
LC-009-003-----0
 62
     7
370
    25
100
AcDbLine
 10
746.736845
 20
2046.433878
 30
0.0
 11
753.263155
 21
2046.433878
 31
0.0
  0
LINE
  5
433
330
42B
100
AcDbEntity
  8
LC-009-003-----0
 62
     7
370
    25
100
AcDbLine
 10
752.414735
 20
2046.37827
 30
0.0
 11
750.0
 21
2064.72
 31
0.0
  0
LINE
  5
434
330
42B
100
AcDbEntity
  8
LC-009-003-----0
 62
     7
370
    25
100
AcDbLine
 10
750.0
 20
2064.72
 30
0.0
 11
747.585265
 21
2046.37827
 31
0.0
  0
LINE
  5
435
330
42B
100
AcDbEntity
  8
LC-009-003-----0
 62
     7
370
    25
100
AcDbLine
 10
751.566314
 20
2046.322661
 30
0.0
 11
750.0
 21
2058.22
 31
0.0
  0
LINE
  5
436
330
42B
100
AcDbEntity
  8
LC-009-003-----0
 62
     7
370
    25
100
AcDbLine
 10
750.0
 20
2058.22
 30
0.0
 11
748.433686
 21
2046.322661
 31
0.0
  0
LINE
  5
437
330
42B
100
AcDbEntity
  8
LC-009-003-----0
 62
     7
370
    25
100
AcDbLine
 10
750.717894
 20
2046.267053
 30
0.0
 11
750.0
 21
2051.72
 31
0.0
  0
LINE
  5
438
330
42B
100
AcDbEntity
  8
LC-009-003-----0
 62
     7
370
    25
100
AcDbLine
 10
750.0
 20
2051.72
 30
0.0
 11
749.282106
 21
2046.267053
 31
0.0
  0
LINE
  5
439
330
42B
100
AcDbEntity
  8
LC-009-003-----0
 62
     7
370
    25
100
AcDbLine
 10
746.736845
 20
2134.006122
 30
0.0
 11
750.0
 21
2109.22
 31
0.0
  0
LINE
  5
43A
330
42B
100
AcDbEntity
  8
LC-009-003-----0
 62
     7
370
    25
100
AcDbLine
 10
750.0
 20
2109.22
 30
0.0
 11
753.263155
 21
2134.006122
 31
0.0
  0
LINE
  5
43B
330
42B
100
AcDbEntity
  8
LC-009-003-----0
 62
     7
370
    25
100
AcDbLine
 10
753.263155
 20
2134.006122
 30
0.0
 11
746.736845
 21
2134.006122
 31
0.0
  0
LINE
  5
43C
330
42B
100
AcDbEntity
  8
LC-009-003-----0
 62
     7
370
    25
100
AcDbLine
 10
747.585265
 20
2134.06173
 30
0.0
 11
750.0
 21
2115.72
 31
0.0
  0
LINE
  5
43D
330
42B
100
AcDbEntity
  8
LC-009-003-----0
 62
     7
370
    25
100
AcDbLine
 10
750.0
 20
2115.72
 30
0.0
 11
752.414735
 21
2134.06173
 31
0.0
  0
LINE
  5
43E
330
42B
100
AcDbEntity
  8
LC-009-003-----0
 62
     7
370
    25
100
AcDbLine
 10
748.433686
 20
2134.117339
 30
0.0
 11
750.0
 21
2122.22
 31
0.0
  0
LINE
  5
43F
330
42B
100
AcDbEntity
  8
LC-009-003-----0
 62
     7
370
    25
100
AcDbLine
 10
750.0
 20
2122.22
 30
0.0
 11
751.566314
 21
2134.117339
 31
0.0
  0
LINE
  5
440
330
42B
100
AcDbEntity
  8
LC-009-003-----0
 62
     7
370
    25
100
AcDbLine
 10
749.282106
 20
2134.172947
 30
0.0
 11
750.0
 21
2128.72
 31
0.0
  0
LINE
  5
441
330
42B
100
AcDbEntity
  8
LC-009-003-----0
 62
     7
370
    25
100
AcDbLine
 10
750.0
 20
2128.72
 30
0.0
 11
750.717894
 21
2134.172947
 31
0.0
  0
LINE
  5
442
330
42B
100
AcDbEntity
  8
LC-008-003-MTG-0
 62
     7
370
    25
100
AcDbLine
 10
750.0
 20
2036.219999
 30
0.0
 11
750.0
 21
2180.685551
 31
0.0
  0
TEXT
  5
443
330
42B
100
AcDbEntity
  8
LC-009-003-----0
 62
     7
370
    25
100
AcDbText
 10
735.0
 20
2163.792758
 30
0.0
 40
25.0
  1
38
 50
90.0
 41
0.7
  7
LCTX0-400-0-0pDIN-Schrift
100
AcDbText
  0
ENDBLK
  5
42D
330
42B
100
AcDbEntity
  8
0
100
AcDbBlockEnd
  0
BLOCK
  5
471
330
470
100
AcDbEntity
  8
0
100
AcDbBlockBegin
  2
LCDIM15
 70
     0
 71
     0
 10
0.0
 20
0.0
 30
0.0
  3
LCDIM15
  1

  4
LCDIM15
  0
LINE
  5
473
330
470
100
AcDbEntity
  8
LC-007-003-MTH-0
 62
     7
370
    25
100
AcDbLine
 10
1474.159208
 20
1914.22
 30
0.0
 11
1474.159208
 21
1535.0
 31
0.0
  0
LINE
  5
474
330
470
100
AcDbEntity
  8
LC-007-003-MTH-0
 62
     7
370
    25
100
AcDbLine
 10
1778.450455
 20
1609.219612
 30
0.0
 11
1778.450455
 21
1535.0
 31
0.0
  0
LINE
  5
475
330
470
100
AcDbEntity
  8
LC-008-003-MTG-0
 62
     7
370
    25
100
AcDbLine
 10
1474.159208
 20
1550.0
 30
0.0
 11
1778.450455
 21
1550.0
 31
0.0
  0
LINE
  5
476
330
470
100
AcDbEntity
  8
LC-009-003-----0
 62
     7
370
    25
100
AcDbLine
 10
1498.94533
 20
1553.263155
 30
0.0
 11
1474.159208
 21
1550.0
 31
0.0
  0
LINE
  5
477
330
470
100
AcDbEntity
  8
LC-009-003-----0
 62
     7
370
    25
100
AcDbLine
 10
1474.159208
 20
1550.0
 30
0.0
 11
1498.94533
 21
1546.736845
 31
0.0
  0
LINE
  5
478
330
470
100
AcDbEntity
  8
LC-009-003-----0
 62
     7
370
    25
100
AcDbLine
 10
1498.94533
 20
1546.736845
 30
0.0
 11
1498.94533
 21
1553.263155
 31
0.0
  0
LINE
  5
479
330
470
100
AcDbEntity
  8
LC-009-003-----0
 62
     7
370
    25
100
AcDbLine
 10
1499.000938
 20
1552.414735
 30
0.0
 11
1480.659208
 21
1550.0
 31
0.0
  0
LINE
  5
47A
330
470
100
AcDbEntity
  8
LC-009-003-----0
 62
     7
370
    25
100
AcDbLine
 10
1480.659208
 20
1550.0
 30
0.0
 11
1499.000938
 21
1547.585265
 31
0.0
  0
LINE
  5
47B
330
470
100
AcDbEntity
  8
LC-009-003-----0
 62
     7
370
    25
100
AcDbLine
 10
1499.056546
 20
1551.566314
 30
0.0
 11
1487.159208
 21
1550.0
 31
0.0
  0
LINE
  5
47C
330
470
100
AcDbEntity
  8
LC-009-003-----0
 62
     7
370
    25
100
AcDbLine
 10
1487.159208
 20
1550.0
 30
0.0
 11
1499.056546
 21
1548.433686
 31
0.0
  0
LINE
  5
47D
330
470
100
AcDbEntity
  8
LC-009-003-----0
 62
     7
370
    25
100
AcDbLine
 10
1499.112155
 20
1550.717894
 30
0.0
 11
1493.659208
 21
1550.0
 31
0.0
  0
LINE
  5
47E
330
470
100
AcDbEntity
  8
LC-009-003-----0
 62
     7
370
    25
100
AcDbLine
 10
1493.659208
 20
1550.0
 30
0.0
 11
1499.112155
 21
1549.282106
 31
0.0
  0
LINE
  5
47F
330
470
100
AcDbEntity
  8
LC-009-003-----0
 62
     7
370
    25
100
AcDbLine
 10
1753.664333
 20
1546.736845
 30
0.0
 11
1778.450455
 21
1550.0
 31
0.0
  0
LINE
  5
480
330
470
100
AcDbEntity
  8
LC-009-003-----0
 62
     7
370
    25
100
AcDbLine
 10
1778.450455
 20
1550.0
 30
0.0
 11
1753.664333
 21
1553.263155
 31
0.0
  0
LINE
  5
481
330
470
100
AcDbEntity
  8
LC-009-003-----0
 62
     7
370
    25
100
AcDbLine
 10
1753.664333
 20
1553.263155
 30
0.0
 11
1753.664333
 21
1546.736845
 31
0.0
  0
LINE
  5
482
330
470
100
AcDbEntity
  8
LC-009-003-----0
 62
     7
370
    25
100
AcDbLine
 10
1753.608724
 20
1547.585265
 30
0.0
 11
1771.950454
 21
1550.0
 31
0.0
  0
LINE
  5
483
330
470
100
AcDbEntity
  8
LC-009-003-----0
 62
     7
370
    25
100
AcDbLine
 10
1771.950454
 20
1550.0
 30
0.0
 11
1753.608724
 21
1552.414735
 31
0.0
  0
LINE
  5
484
330
470
100
AcDbEntity
  8
LC-009-003-----0
 62
     7
370
    25
100
AcDbLine
 10
1753.553116
 20
1548.433686
 30
0.0
 11
1765.450454
 21
1550.0
 31
0.0
  0
LINE
  5
485
330
470
100
AcDbEntity
  8
LC-009-003-----0
 62
     7
370
    25
100
AcDbLine
 10
1765.450454
 20
1550.0
 30
0.0
 11
1753.553116
 21
1551.566314
 31
0.0
  0
LINE
  5
486
330
470
100
AcDbEntity
  8
LC-009-003-----0
 62
     7
370
    25
100
AcDbLine
 10
1753.497507
 20
1549.282106
 30
0.0
 11
1758.950454
 21
1550.0
 31
0.0
  0
LINE
  5
487
330
470
100
AcDbEntity
  8
LC-009-003-----0
 62
     7
370
    25
100
AcDbLine
 10
1758.950454
 20
1550.0
 30
0.0
 11
1753.497507
 21
1550.717894
 31
0.0
  0
TEXT
  5
488
330
470
100
AcDbEntity
  8
LC-009-003-----0
 62
     7
370
    25
100
AcDbText
 10
1588.810798
 20
1565.0
 30
0.0
 40
25.0
  1
304
 41
0.7
  7
LCTX0-400-0-0pDIN-Schrift
 72
     1
 11
1614.227465
 21
1565.0
 31
0.0
100
AcDbText
  0
ENDBLK
  5
472
330
470
100
AcDbEntity
  8
0
100
AcDbBlockEnd
  0
BLOCK
  5
49C
330
49B
100
AcDbEntity
  8
0
100
AcDbBlockBegin
  2
POLY2
 70
     0
 71
     0
 10
0.0
 20
0.0
 30
0.0
  3
POLY2
  1

  4
POLY2
  0
LINE
  5
49E
330
49B
100
AcDbEntity
  8
LC-002-002-----0
 62
     7
370
    25
100
AcDbLine
 10
1574.925389
 20
2098.121039
 30
0.0
 11
1574.925389
 21
2098.121039
 31
0.0
  0
LINE
  5
49F
330
49B
100
AcDbEntity
  8
LC-002-002-----0
 62
     7
370
    25
100
AcDbLine
 10
1574.925389
 20
2098.121039
 30
0.0
 11
1574.925427
 21
2097.976055
 31
0.0
  0
LINE
  5
4A0
330
49B
100
AcDbEntity
  8
LC-002-002-----0
 62
     7
370
    25
100
AcDbLine
 10
1574.925427
 20
2097.976055
 30
0.0
 11
1574.925427
 21
2097.976055
 31
0.0
  0
LINE
  5
4A1
330
49B
100
AcDbEntity
  8
LC-002-002-----0
 62
     7
370
    25
100
AcDbLine
 10
1574.925427
 20
2097.976055
 30
0.0
 11
1574.925867
 21
2097.551414
 31
0.0
  0
LINE
  5
4A2
330
49B
100
AcDbEntity
  8
LC-002-002-----0
 62
     7
370
    25
100
AcDbLine
 10
1574.925867
 20
2097.551414
 30
0.0
 11
1574.925867
 21
2097.551414
 31
0.0
  0
LINE
  5
4A3
330
49B
100
AcDbEntity
  8
LC-002-002-----0
 62
     7
370
    25
100
AcDbLine
 10
1574.925867
 20
2097.551414
 30
0.0
 11
1574.925438
 21
2096.847067
 31
0.0
  0
LINE
  5
4A4
330
49B
100
AcDbEntity
  8
LC-002-002-----0
 62
     7
370
    25
100
AcDbLine
 10
1574.925438
 20
2096.847067
 30
0.0
 11
1574.925438
 21
2096.847067
 31
0.0
  0
LINE
  5
4A5
330
49B
100
AcDbEntity
  8
LC-002-002-----0
 62
     7
370
    25
100
AcDbLine
 10
1574.925438
 20
2096.847067
 30
0.0
 11
1574.925299
 21
2095.848657
 31
0.0
  0
LINE
  5
4A6
330
49B
100
AcDbEntity
  8
LC-002-002-----0
 62
     7
370
    25
100
AcDbLine
 10
1574.925299
 20
2095.848657
 30
0.0
 11
1574.925299
 21
2095.848657
 31
0.0
  0
LINE
  5
4A7
330
49B
100
AcDbEntity
  8
LC-002-002-----0
 62
     7
370
    25
100
AcDbLine
 10
1574.925299
 20
2095.848657
 30
0.0
 11
1574.925342
 21
2094.503561
 31
0.0
  0
LINE
  5
4A8
330
49B
100
AcDbEntity
  8
LC-002-002-----0
 62
     7
370
    25
100
AcDbLine
 10
1574.925342
 20
2094.503561
 30
0.0
 11
1574.925342
 21
2094.503561
 31
0.0
  0
LINE
  5
4A9
330
49B
100
AcDbEntity
  8
LC-002-002-----0
 62
     7
370
    25
100
AcDbLine
 10
1574.925342
 20
2094.503561
 30
0.0
 11
1574.925359
 21
2092.811708
 31
0.0
  0
LINE
  5
4AA
330
49B
100
AcDbEntity
  8
LC-002-002-----0
 62
     7
370
    25
100
AcDbLine
 10
1574.925359
 20
2092.811708
 30
0.0
 11
1574.925359
 21
2092.811708
 31
0.0
  0
LINE
  5
4AB
330
49B
100
AcDbEntity
  8
LC-002-002-----0
 62
     7
370
    25
100
AcDbLine
 10
1574.925359
 20
2092.811708
 30
0.0
 11
1574.925663
 21
2090.808403
 31
0.0
  0
LINE
  5
4AC
330
49B
100
AcDbEntity
  8
LC-002-002-----0
 62
     7
370
    25
100
AcDbLine
 10
1574.925663
 20
2090.808403
 30
0.0
 11
1574.925663
 21
2090.808403
 31
0.0
  0
LINE
  5
4AD
330
49B
100
AcDbEntity
  8
LC-002-002-----0
 62
     7
370
    25
100
AcDbLine
 10
1574.925663
 20
2090.808403
 30
0.0
 11
1574.925511
 21
2088.549965
 31
0.0
  0
LINE
  5
4AE
330
49B
100
AcDbEntity
  8
LC-002-002-----0
 62
     7
370
    25
100
AcDbLine
 10
1574.925511
 20
2088.549965
 30
0.0
 11
1574.925511
 21
2088.549965
 31
0.0
  0
LINE
  5
4AF
330
49B
100
AcDbEntity
  8
LC-002-002-----0
 62
     7
370
    25
100
AcDbLine
 10
1574.925511
 20
2088.549965
 30
0.0
 11
1574.925476
 21
2086.127035
 31
0.0
  0
LINE
  5
4B0
330
49B
100
AcDbEntity
  8
LC-002-002-----0
 62
     7
370
    25
100
AcDbLine
 10
1574.925476
 20
2086.127035
 30
0.0
 11
1574.925476
 21
2086.127035
 31
0.0
  0
LINE
  5
4B1
330
49B
100
AcDbEntity
  8
LC-002-002-----0
 62
     7
370
    25
100
AcDbLine
 10
1574.925476
 20
2086.127035
 30
0.0
 11
1574.925478
 21
2083.644841
 31
0.0
  0
LINE
  5
4B2
330
49B
100
AcDbEntity
  8
LC-002-002-----0
 62
     7
370
    25
100
AcDbLine
 10
1574.925478
 20
2083.644841
 30
0.0
 11
1574.925478
 21
2083.644841
 31
0.0
  0
LINE
  5
4B3
330
49B
100
AcDbEntity
  8
LC-002-002-----0
 62
     7
370
    25
100
AcDbLine
 10
1574.925478
 20
2083.644841
 30
0.0
 11
1574.925528
 21
2081.232498
 31
0.0
  0
LINE
  5
4B4
330
49B
100
AcDbEntity
  8
LC-002-002-----0
 62
     7
370
    25
100
AcDbLine
 10
1574.925528
 20
2081.232498
 30
0.0
 11
1574.925528
 21
2081.232498
 31
0.0
  0
LINE
  5
4B5
330
49B
100
AcDbEntity
  8
LC-002-002-----0
 62
     7
370
    25
100
AcDbLine
 10
1574.925528
 20
2081.232498
 30
0.0
 11
1574.925664
 21
2078.993429
 31
0.0
  0
LINE
  5
4B6
330
49B
100
AcDbEntity
  8
LC-002-002-----0
 62
     7
370
    25
100
AcDbLine
 10
1574.925664
 20
2078.993429
 30
0.0
 11
1574.925664
 21
2078.993429
 31
0.0
  0
LINE
  5
4B7
330
49B
100
AcDbEntity
  8
LC-002-002-----0
 62
     7
370
    25
100
AcDbLine
 10
1574.925664
 20
2078.993429
 30
0.0
 11
1574.925365
 21
2077.011585
 31
0.0
  0
LINE
  5
4B8
330
49B
100
AcDbEntity
  8
LC-002-002-----0
 62
     7
370
    25
100
AcDbLine
 10
1574.925365
 20
2077.011585
 30
0.0
 11
1574.925365
 21
2077.011585
 31
0.0
  0
LINE
  5
4B9
330
49B
100
AcDbEntity
  8
LC-002-002-----0
 62
     7
370
    25
100
AcDbLine
 10
1574.925365
 20
2077.011585
 30
0.0
 11
1574.925352
 21
2075.337294
 31
0.0
  0
LINE
  5
4BA
330
49B
100
AcDbEntity
  8
LC-002-002-----0
 62
     7
370
    25
100
AcDbLine
 10
1574.925352
 20
2075.337294
 30
0.0
 11
1574.925352
 21
2075.337294
 31
0.0
  0
LINE
  5
4BB
330
49B
100
AcDbEntity
  8
LC-002-002-----0
 62
     7
370
    25
100
AcDbLine
 10
1574.925352
 20
2075.337294
 30
0.0
 11
1574.925297
 21
2074.002142
 31
0.0
  0
LINE
  5
4BC
330
49B
100
AcDbEntity
  8
LC-002-002-----0
 62
     7
370
    25
100
AcDbLine
 10
1574.925297
 20
2074.002142
 30
0.0
 11
1574.925297
 21
2074.002142
 31
0.0
  0
LINE
  5
4BD
330
49B
100
AcDbEntity
  8
LC-002-002-----0
 62
     7
370
    25
100
AcDbLine
 10
1574.925297
 20
2074.002142
 30
0.0
 11
1574.925428
 21
2073.006207
 31
0.0
  0
LINE
  5
4BE
330
49B
100
AcDbEntity
  8
LC-002-002-----0
 62
     7
370
    25
100
AcDbLine
 10
1574.925428
 20
2073.006207
 30
0.0
 11
1574.925428
 21
2073.006207
 31
0.0
  0
LINE
  5
4BF
330
49B
100
AcDbEntity
  8
LC-002-002-----0
 62
     7
370
    25
100
AcDbLine
 10
1574.925428
 20
2073.006207
 30
0.0
 11
1574.925836
 21
2072.300112
 31
0.0
  0
LINE
  5
4C0
330
49B
100
AcDbEntity
  8
LC-002-002-----0
 62
     7
370
    25
100
AcDbLine
 10
1574.925836
 20
2072.300112
 30
0.0
 11
1574.925836
 21
2072.300112
 31
0.0
  0
LINE
  5
4C1
330
49B
100
AcDbEntity
  8
LC-002-002-----0
 62
     7
370
    25
100
AcDbLine
 10
1574.925836
 20
2072.300112
 30
0.0
 11
1574.925397
 21
2071.872463
 31
0.0
  0
LINE
  5
4C2
330
49B
100
AcDbEntity
  8
LC-002-002-----0
 62
     7
370
    25
100
AcDbLine
 10
1574.925397
 20
2071.872463
 30
0.0
 11
1574.925397
 21
2071.872463
 31
0.0
  0
LINE
  5
4C3
330
49B
100
AcDbEntity
  8
LC-002-002-----0
 62
     7
370
    25
100
AcDbLine
 10
1574.925397
 20
2071.872463
 30
0.0
 11
1574.925358
 21
2071.725958
 31
0.0
  0
ENDBLK
  5
49D
330
49B
100
AcDbEntity
  8
0
100
AcDbBlockEnd
  0
BLOCK
  5
4F8
330
4F7
100
AcDbEntity
  8
0
100
AcDbBlockBegin
  2
*X220
 70
     1
 71
     0
 10
0.0
 20
0.0
 30
0.0
  3
*X220
  1

  4
*X2
  0
LINE
  5
4FA
330
4F7
100
AcDbEntity
  8
LC-011-005-----0
 62
     7
370
    25
100
AcDbLine
 10
1239.288619
 20
2483.796554
 30
0.0
 11
1258.288619
 21
2502.796554
 31
0.0
  0
LINE
  5
4FB
330
4F7
100
AcDbEntity
  8
LC-011-005-----0
 62
     7
370
    25
100
AcDbLine
 10
1239.288619
 20
2512.080825
 30
0.0
 11
1258.288619
 21
2531.080825
 31
0.0
  0
LINE
  5
4FC
330
4F7
100
AcDbEntity
  8
LC-011-005-----0
 62
     7
370
    25
100
AcDbLine
 10
1239.288619
 20
2540.365096
 30
0.0
 11
1258.288619
 21
2559.365096
 31
0.0
  0
LINE
  5
4FD
330
4F7
100
AcDbEntity
  8
LC-011-005-----0
 62
     7
370
    25
100
AcDbLine
 10
758.288619
 20
2483.629165
 30
0.0
 11
777.288619
 21
2502.629165
 31
0.0
  0
LINE
  5
4FE
330
4F7
100
AcDbEntity
  8
LC-011-005-----0
 62
     7
370
    25
100
AcDbLine
 10
758.288619
 20
2511.913436
 30
0.0
 11
777.288619
 21
2530.913436
 31
0.0
  0
LINE
  5
4FF
330
4F7
100
AcDbEntity
  8
LC-011-005-----0
 62
     7
370
    25
100
AcDbLine
 10
758.288619
 20
2540.197708
 30
0.0
 11
777.288619
 21
2559.197708
 31
0.0
  0
ENDBLK
  5
4F9
330
4F7
100
AcDbEntity
  8
0
100
AcDbBlockEnd
  0
BLOCK
  5
502
330
501
100
AcDbEntity
  8
0
100
AcDbBlockBegin
  2
LCDIM16
 70
     0
 71
     0
 10
0.0
 20
0.0
 30
0.0
  3
LCDIM16
  1

  4
LCDIM16
  0
LINE
  5
504
330
501
100
AcDbEntity
  8
LC-007-003-MTH-0
 62
     7
370
    25
100
AcDbLine
 10
758.288619
 20
2474.910267
 30
0.0
 11
758.288619
 21
2266.720956
 31
0.0
  0
LINE
  5
505
330
501
100
AcDbEntity
  8
LC-007-003-MTH-0
 62
     7
370
    25
100
AcDbLine
 10
1258.288619
 20
2479.824463
 30
0.0
 11
1258.288619
 21
2266.720956
 31
0.0
  0
LINE
  5
506
330
501
100
AcDbEntity
  8
LC-008-003-MTG-0
 62
     7
370
    25
100
AcDbLine
 10
758.288619
 20
2281.720956
 30
0.0
 11
1258.288619
 21
2281.720956
 31
0.0
  0
LINE
  5
507
330
501
100
AcDbEntity
  8
LC-009-003-----0
 62
     7
370
    25
100
AcDbLine
 10
783.074741
 20
2284.984111
 30
0.0
 11
758.288619
 21
2281.720956
 31
0.0
  0
LINE
  5
508
330
501
100
AcDbEntity
  8
LC-009-003-----0
 62
     7
370
    25
100
AcDbLine
 10
758.288619
 20
2281.720956
 30
0.0
 11
783.074741
 21
2278.457801
 31
0.0
  0
LINE
  5
509
330
501
100
AcDbEntity
  8
LC-009-003-----0
 62
     7
370
    25
100
AcDbLine
 10
783.074741
 20
2278.457801
 30
0.0
 11
783.074741
 21
2284.984111
 31
0.0
  0
LINE
  5
50A
330
501
100
AcDbEntity
  8
LC-009-003-----0
 62
     7
370
    25
100
AcDbLine
 10
783.130349
 20
2284.135691
 30
0.0
 11
764.788619
 21
2281.720956
 31
0.0
  0
LINE
  5
50B
330
501
100
AcDbEntity
  8
LC-009-003-----0
 62
     7
370
    25
100
AcDbLine
 10
764.788619
 20
2281.720956
 30
0.0
 11
783.130349
 21
2279.306222
 31
0.0
  0
LINE
  5
50C
330
501
100
AcDbEntity
  8
LC-009-003-----0
 62
     7
370
    25
100
AcDbLine
 10
783.185958
 20
2283.287271
 30
0.0
 11
771.288619
 21
2281.720956
 31
0.0
  0
LINE
  5
50D
330
501
100
AcDbEntity
  8
LC-009-003-----0
 62
     7
370
    25
100
AcDbLine
 10
771.288619
 20
2281.720956
 30
0.0
 11
783.185958
 21
2280.154642
 31
0.0
  0
LINE
  5
50E
330
501
100
AcDbEntity
  8
LC-009-003-----0
 62
     7
370
    25
100
AcDbLine
 10
783.241566
 20
2282.43885
 30
0.0
 11
777.788619
 21
2281.720956
 31
0.0
  0
LINE
  5
50F
330
501
100
AcDbEntity
  8
LC-009-003-----0
 62
     7
370
    25
100
AcDbLine
 10
777.788619
 20
2281.720956
 30
0.0
 11
783.241566
 21
2281.003062
 31
0.0
  0
LINE
  5
510
330
501
100
AcDbEntity
  8
LC-009-003-----0
 62
     7
370
    25
100
AcDbLine
 10
1233.502497
 20
2278.457801
 30
0.0
 11
1258.288619
 21
2281.720956
 31
0.0
  0
LINE
  5
511
330
501
100
AcDbEntity
  8
LC-009-003-----0
 62
     7
370
    25
100
AcDbLine
 10
1258.288619
 20
2281.720956
 30
0.0
 11
1233.502497
 21
2284.984111
 31
0.0
  0
LINE
  5
512
330
501
100
AcDbEntity
  8
LC-009-003-----0
 62
     7
370
    25
100
AcDbLine
 10
1233.502497
 20
2284.984111
 30
0.0
 11
1233.502497
 21
2278.457801
 31
0.0
  0
LINE
  5
513
330
501
100
AcDbEntity
  8
LC-009-003-----0
 62
     7
370
    25
100
AcDbLine
 10
1233.446889
 20
2279.306222
 30
0.0
 11
1251.788619
 21
2281.720956
 31
0.0
  0
LINE
  5
514
330
501
100
AcDbEntity
  8
LC-009-003-----0
 62
     7
370
    25
100
AcDbLine
 10
1251.788619
 20
2281.720956
 30
0.0
 11
1233.446889
 21
2284.135691
 31
0.0
  0
LINE
  5
515
330
501
100
AcDbEntity
  8
LC-009-003-----0
 62
     7
370
    25
100
AcDbLine
 10
1233.39128
 20
2280.154642
 30
0.0
 11
1245.288619
 21
2281.720956
 31
0.0
  0
LINE
  5
516
330
501
100
AcDbEntity
  8
LC-009-003-----0
 62
     7
370
    25
100
AcDbLine
 10
1245.288619
 20
2281.720956
 30
0.0
 11
1233.39128
 21
2283.287271
 31
0.0
  0
LINE
  5
517
330
501
100
AcDbEntity
  8
LC-009-003-----0
 62
     7
370
    25
100
AcDbLine
 10
1233.335672
 20
2281.003062
 30
0.0
 11
1238.788619
 21
2281.720956
 31
0.0
  0
LINE
  5
518
330
501
100
AcDbEntity
  8
LC-009-003-----0
 62
     7
370
    25
100
AcDbLine
 10
1238.788619
 20
2281.720956
 30
0.0
 11
1233.335672
 21
2282.43885
 31
0.0
  0
TEXT
  5
519
330
501
100
AcDbEntity
  8
LC-009-003-----0
 62
     7
370
    25
100
AcDbText
 10
987.970777
 20
2296.720957
 30
0.0
 40
25.0
  1
500
 41
0.7
  7
LCTX0-400-0-0pDIN-Schrift
 72
     1
 11
1012.970777
 21
2296.720957
 31
0.0
100
AcDbText
  0
ENDBLK
  5
503
330
501
100
AcDbEntity
  8
0
100
AcDbBlockEnd
  0
ENDSEC
  0
SECTION
  2
ENTITIES
  0
INSERT
  5
104
330
1F
100
AcDbEntity
  8
LC-003-230-ZVN-0
 62
     7
370
   211
100
AcDbBlockReference
  2
SYM1
 10
0.0
 20
0.0
 30
0.0
  0
ARC
  5
106
102
{ACAD_REACTORS
330
51B
102
}
330
1F
100
AcDbEntity
  8
LC-004-002-RND-0
 62
     7
370
    50
100
AcDbCircle
 10
426.288619
 20
1627.22
 30
0.0
 40
18.0
100
AcDbArc
 50
180.0
 51
270.0
  0
LINE
  5
107
102
{ACAD_REACTORS
330
51B
102
}
330
1F
100
AcDbEntity
  8
LC-002-002-----0
 62
     7
370
    50
100
AcDbLine
 10
426.288619
 20
1609.22
 30
0.0
 11
1250.288619
 21
1609.22
 31
0.0
  0
ARC
  5
108
102
{ACAD_REACTORS
330
51B
102
}
330
1F
100
AcDbEntity
  8
LC-004-002-RND-0
 62
     7
370
    50
100
AcDbCircle
 10
1250.288619
 20
1627.22
 30
0.0
 40
18.0
100
AcDbArc
 50
270.0
 51
0.0
  0
LINE
  5
109
102
{ACAD_REACTORS
330
51B
102
}
330
1F
100
AcDbEntity
  8
LC-002-002-----0
 62
     7
370
    50
100
AcDbLine
 10
408.288619
 20
2091.22
 30
0.0
 11
408.288619
 21
1627.22
 31
0.0
  0
ARC
  5
10A
102
{ACAD_REACTORS
330
51B
102
}
330
1F
100
AcDbEntity
  8
LC-004-002-RND-0
 62
     7
370
    50
100
AcDbCircle
 10
1250.288619
 20
2091.22
 30
0.0
 40
18.0
100
AcDbArc
 50
0.0
 51
90.0
  0
LINE
  5
10B
102
{ACAD_REACTORS
330
51B
102
}
330
1F
100
AcDbEntity
  8
LC-002-002-----0
 62
     7
370
    50
100
AcDbLine
 10
1250.288619
 20
2109.22
 30
0.0
 11
426.288619
 21
2109.22
 31
0.0
  0
LINE
  5
10E
330
1F
100
AcDbEntity
  8
LC-005-006-MLN-0
 62
     7
370
    25
100
AcDbLine
 10
797.788619
 20
2071.22
 30
0.0
 11
838.788619
 21
2071.22
 31
0.0
  0
LINE
  5
10F
330
1F
100
AcDbEntity
  8
LC-005-006-MLN-0
 62
     7
370
    25
100
AcDbLine
 10
818.288619
 20
2050.72
 30
0.0
 11
818.288619
 21
2112.22
 31
0.0
  0
LINE
  5
110
102
{ACAD_REACTORS
330
51B
102
}
330
1F
100
AcDbEntity
  8
LC-002-002-----0
 62
     7
370
    50
100
AcDbLine
 10
1268.288619
 20
1627.22
 30
0.0
 11
1268.288619
 21
2091.22
 31
0.0
  0
ARC
  5
111
102
{ACAD_REACTORS
330
51B
102
}
330
1F
100
AcDbEntity
  8
LC-004-002-RND-0
 62
     7
370
    50
100
AcDbCircle
 10
1223.973306
 20
1650.514072
 30
0.0
 40
17.99999999999999
100
AcDbArc
 50
262.805859
 51
0.0
  0
LINE
  5
112
102
{ACAD_REACTORS
330
51B
102
}
330
1F
100
AcDbEntity
  8
LC-002-002-----0
 62
     7
370
    25
100
AcDbLine
 10
1226.955984
 20
2066.049188
 30
0.0
 11
1226.955984
 21
1652.390812
 31
0.0
  0
LINE
  5
113
102
{ACAD_REACTORS
330
51B
102
}
330
1F
100
AcDbEntity
  8
LC-002-002-----0
 62
     7
370
    25
100
AcDbLine
 10
876.354968
 20
1999.217962
 30
0.0
 11
1176.909042
 21
2037.375075
 31
0.0
  0
LINE
  5
114
102
{ACAD_REACTORS
330
51B
102
}
330
1F
100
AcDbEntity
  8
LC-002-002-----0
 62
     7
370
    25
100
AcDbLine
 10
481.849171
 20
1951.216972
 30
0.0
 11
812.603932
 21
1951.216972
 31
0.0
  0
LINE
  5
115
330
1F
100
AcDbEntity
  8
LC-005-006-MLN-0
 62
     7
370
    25
100
AcDbLine
 10
1573.466229
 20
1859.22
 30
0.0
 11
1593.450455
 21
1859.22
 31
0.0
  0
CIRCLE
  5
116
102
{ACAD_REACTORS
330
525
102
}
330
1F
100
AcDbEntity
  8
LC-002-002-----0
 62
     7
370
    50
100
AcDbCircle
 10
918.288619
 20
2577.990196
 30
0.0
 40
15.5
  0
CIRCLE
  5
118
102
{ACAD_REACTORS
330
51B
102
}
330
1F
100
AcDbEntity
  8
LC-005-006-MLN-0
  6
DASHDOT
 62
     7
370
    25
100
AcDbCircle
 10
818.288619
 20
2071.22
 30
0.0
 40
17.5
  0
LINE
  5
119
330
1F
100
AcDbEntity
  8
LC-005-006-MLN-0
 62
     7
370
    25
100
AcDbLine
 10
1750.384953
 20
2088.518801
 30
0.0
 11
1751.743884
 21
2075.589438
 31
0.0
  0
ARC
  5
11A
102
{ACAD_REACTORS
330
51B
102
}
330
1F
100
AcDbEntity
  8
LC-004-002-RND-0
 62
     7
370
    25
100
AcDbCircle
 10
832.603932
 20
2011.646325
 30
0.0
 40
19.9999999999999
100
AcDbArc
 50
97.194141
 51
180.0
  0
ARC
  5
11B
102
{ACAD_REACTORS
330
520
102
}
330
1F
100
AcDbEntity
  8
LC-004-002-RND-0
 62
     7
370
    50
100
AcDbCircle
 10
1611.161891
 20
2048.909754
 30
0.0
 40
12.99999999999985
100
AcDbArc
 50
96.738304
 51
176.670864
  0
ARC
  5
11C
102
{ACAD_REACTORS
330
51B
102
}
330
1F
100
AcDbEntity
  8
LC-004-002-RND-0
 62
     7
370
    25
100
AcDbCircle
 10
841.507132
 20
2015.810568
 30
0.0
 40
14.99999999999993
100
AcDbArc
 50
97.194141
 51
180.0
  0
ARC
  5
11D
102
{ACAD_REACTORS
330
520
102
}
330
1F
100
AcDbEntity
  8
LC-004-002-RND-0
 62
     7
370
    50
100
AcDbCircle
 10
1609.144646
 20
2048.671415
 30
0.0
 40
19.99999999999981
100
AcDbArc
 50
96.738304
 51
176.670864
  0
LINE
  5
11E
330
1F
100
AcDbEntity
  8
LC-002-002-----0
 62
     7
370
    50
100
AcDbLine
 10
1735.304328
 20
2083.716397
 30
0.0
 11
1736.036088
 21
2076.754165
 31
0.0
  0
LINE
  5
11F
330
1F
100
AcDbEntity
  8
LC-002-002-----0
 62
     7
370
    50
100
AcDbLine
 10
1766.092749
 20
2087.354074
 30
0.0
 11
1766.824509
 21
2080.391843
 31
0.0
  0
LINE
  5
120
102
{ACAD_REACTORS
330
51B
102
}
330
1F
100
AcDbEntity
  8
LC-002-002-----0
 62
     7
370
    25
100
AcDbLine
 10
481.849171
 20
1943.223028
 30
0.0
 11
812.603932
 21
1943.223028
 31
0.0
  0
ARC
  5
121
102
{ACAD_REACTORS
330
51B
102
}
330
1F
100
AcDbEntity
  8
LC-004-002-RND-0
 62
     7
370
    25
100
AcDbCircle
 10
811.603932
 20
1942.223028
 30
0.0
 40
1.0
100
AcDbArc
 50
0.0
 51
90.0
  0
ARC
  5
122
102
{ACAD_REACTORS
330
51B
102
}
330
1F
100
AcDbEntity
  8
LC-004-002-RND-0
 62
     7
370
    25
100
AcDbCircle
 10
811.603932
 20
1952.216972
 30
0.0
 40
1.0
100
AcDbArc
 50
270.0
 51
0.0
  0
ARC
  5
123
102
{ACAD_REACTORS
330
51B
102
}
330
1F
100
AcDbEntity
  8
LC-004-002-RND-0
 62
     7
370
    25
100
AcDbCircle
 10
447.592983
 20
2019.824379
 30
0.0
 40
10.00000000000002
100
AcDbArc
 50
90.000003
 51
180.0
  0
ARC
  5
124
102
{ACAD_REACTORS
330
51B
102
}
330
1F
100
AcDbEntity
  8
LC-004-002-RND-0
 62
     7
370
    25
100
AcDbCircle
 10
447.592981
 20
1698.615614
 30
0.0
 40
10.0
100
AcDbArc
 50
180.0
 51
270.0
  0
ARC
  5
125
102
{ACAD_REACTORS
330
51B
102
}
330
1F
100
AcDbEntity
  8
LC-002-002-----0
 62
     7
370
    25
100
AcDbCircle
 10
481.849171
 20
1947.22
 30
0.0
 40
3.996971516100075
100
AcDbArc
 50
90.0
 51
270.0
  0
ARC
  5
126
102
{ACAD_REACTORS
330
51B
102
}
330
1F
100
AcDbEntity
  8
LC-002-002-----0
 62
     7
370
    25
100
AcDbCircle
 10
812.603932
 20
1947.22
 30
0.0
 40
3.996971516100075
100
AcDbArc
 50
270.0
 51
90.0
  0
LINE
  5
127
102
{ACAD_REACTORS
330
51B
102
}
330
1F
100
AcDbEntity
  8
LC-002-002-----0
 62
     7
370
    25
100
AcDbLine
 10
826.507132
 20
1702.629432
 30
0.0
 11
826.507132
 21
2015.810568
 31
0.0
  0
ARC
  5
128
102
{ACAD_REACTORS
330
51B
102
}
330
1F
100
AcDbEntity
  8
LC-004-002-RND-0
 62
     7
370
    50
100
AcDbCircle
 10
444.288619
 20
1698.535313
 30
0.0
 40
16.0
100
AcDbArc
 50
180.0
 51
270.0
  0
ARC
  5
129
102
{ACAD_REACTORS
330
51B
102
}
330
1F
100
AcDbEntity
  8
LC-004-002-RND-0
 62
     7
370
    50
100
AcDbCircle
 10
816.498853
 20
1522.535313
 30
0.0
 40
159.9999999999999
100
AcDbArc
 50
82.805859
 51
90.0
  0
ARC
  5
12A
102
{ACAD_REACTORS
330
51B
102
}
330
1F
100
AcDbEntity
  8
LC-004-002-RND-0
 62
     7
370
    50
100
AcDbCircle
 10
816.498853
 20
2195.904687
 30
0.0
 40
160.0
100
AcDbArc
 50
270.0
 51
277.194141
  0
ARC
  5
12B
102
{ACAD_REACTORS
330
51B
102
}
330
1F
100
AcDbEntity
  8
LC-004-002-RND-0
 62
     7
370
    50
100
AcDbCircle
 10
1223.973306
 20
2067.925928
 30
0.0
 40
18.0
100
AcDbArc
 50
0.0
 51
97.194141
  0
LINE
  5
12C
102
{ACAD_REACTORS
330
51B
102
}
330
1F
100
AcDbEntity
  8
LC-002-002-----0
 62
     7
370
    25
100
AcDbLine
 10
864.118198
 20
1985.329441
 30
0.0
 11
864.118198
 21
1733.110611
 31
0.0
  0
LINE
  5
12D
102
{ACAD_REACTORS
330
51B
102
}
330
1F
100
AcDbEntity
  8
LC-002-002-----0
 62
     7
370
    25
100
AcDbLine
 10
1190.420381
 20
2025.470628
 30
0.0
 11
1190.420381
 21
1692.969339
 31
0.0
  0
LINE
  5
12E
102
{ACAD_REACTORS
330
51B
102
}
330
1F
100
AcDbEntity
  8
LC-002-002-----0
 62
     7
370
    25
100
AcDbLine
 10
876.354964
 20
1719.22209
 30
0.0
 11
1176.909038
 21
1681.064893
 31
0.0
  0
ARC
  5
12F
102
{ACAD_REACTORS
330
51B
102
}
330
1F
100
AcDbEntity
  8
LC-004-002-RND-0
 62
     7
370
    25
100
AcDbCircle
 10
878.118198
 20
1985.329441
 30
0.0
 40
14.00000000000001
100
AcDbArc
 50
97.23533
 51
180.0
  0
ARC
  5
130
102
{ACAD_REACTORS
330
51B
102
}
330
1F
100
AcDbEntity
  8
LC-004-002-RND-0
 62
     7
370
    25
100
AcDbCircle
 10
878.118198
 20
1733.110611
 30
0.0
 40
14.0
100
AcDbArc
 50
180.0
 51
262.764654
  0
ARC
  5
131
102
{ACAD_REACTORS
330
51B
102
}
330
1F
100
AcDbEntity
  8
LC-004-002-RND-0
 62
     7
370
    25
100
AcDbCircle
 10
1178.420381
 20
1692.969339
 30
0.0
 40
12.0000000000001
100
AcDbArc
 50
262.764654
 51
0.0
  0
ARC
  5
132
102
{ACAD_REACTORS
330
51B
102
}
330
1F
100
AcDbEntity
  8
LC-004-002-RND-0
 62
     7
370
    25
100
AcDbCircle
 10
1178.420381
 20
2025.470628
 30
0.0
 40
12.0
100
AcDbArc
 50
0.0
 51
97.23533
  0
LINE
  5
133
102
{ACAD_REACTORS
330
51B
102
}
330
1F
100
AcDbEntity
  8
LC-002-002-----0
 62
     7
370
    25
100
AcDbLine
 10
1213.453203
 20
1640.485282
 30
0.0
 11
1205.159118
 21
1641.532207
 31
0.0
  0
ARC
  5
134
102
{ACAD_REACTORS
330
51B
102
}
330
1F
100
AcDbEntity
  8
LC-004-002-RND-0
 62
     7
370
    25
100
AcDbCircle
 10
1214.955984
 20
1652.390812
 30
0.0
 40
12.00000000000007
100
AcDbArc
 50
262.805859
 51
0.0
  0
CIRCLE
  5
135
102
{ACAD_REACTORS
330
51B
102
}
330
1F
100
AcDbEntity
  8
LC-002-002-----0
 62
     7
370
    50
100
AcDbCircle
 10
934.788619
 20
1859.22
 30
0.0
 40
45.0
  0
CIRCLE
  5
136
102
{ACAD_REACTORS
330
51B
102
}
330
1F
100
AcDbEntity
  8
LC-002-002-----0
 62
     7
370
    50
100
AcDbCircle
 10
934.788619
 20
1859.22
 30
0.0
 40
57.5
  0
LINE
  5
137
102
{ACAD_REACTORS
330
51B
102
}
330
1F
100
AcDbEntity
  8
LC-002-002-----0
 62
     7
370
    25
100
AcDbLine
 10
812.603932
 20
1766.412047
 30
0.0
 11
812.603932
 21
1706.793675
 31
0.0
  0
LINE
  5
138
102
{ACAD_REACTORS
330
51B
102
}
330
1F
100
AcDbEntity
  8
LC-002-002-----0
 62
     7
370
    25
100
AcDbLine
 10
447.592981
 20
1688.615614
 30
0.0
 11
812.603932
 21
1688.615614
 31
0.0
  0
LINE
  5
139
102
{ACAD_REACTORS
330
51B
102
}
330
1F
100
AcDbEntity
  8
LC-002-002-----0
 62
     7
370
    25
100
AcDbLine
 10
447.592982
 20
2029.824379
 30
0.0
 11
812.603932
 21
2029.824401
 31
0.0
  0
LINE
  5
13A
102
{ACAD_REACTORS
330
51B
102
}
330
1F
100
AcDbEntity
  8
LC-002-002-----0
 62
     7
370
    25
100
AcDbLine
 10
812.603932
 20
2011.646325
 30
0.0
 11
812.603932
 21
1952.216972
 31
0.0
  0
LINE
  5
13B
102
{ACAD_REACTORS
330
51B
102
}
330
1F
100
AcDbEntity
  8
LC-002-002-----0
 62
     7
370
    25
100
AcDbLine
 10
812.603932
 20
1942.223028
 30
0.0
 11
812.603932
 21
1864.027953
 31
0.0
  0
LINE
  5
13C
102
{ACAD_REACTORS
330
51B
102
}
330
1F
100
AcDbEntity
  8
LC-002-002-----0
 62
     7
370
    25
100
AcDbLine
 10
812.603932
 20
1854.412047
 30
0.0
 11
812.603932
 21
1776.027953
 31
0.0
  0
LINE
  5
13D
102
{ACAD_REACTORS
330
51B
102
}
330
1F
100
AcDbEntity
  8
LC-002-002-----0
 62
     7
370
    25
100
AcDbLine
 10
437.592983
 20
2019.824379
 30
0.0
 11
437.592981
 21
1698.615614
 31
0.0
  0
LINE
  5
13E
102
{ACAD_REACTORS
330
51B
102
}
330
1F
100
AcDbEntity
  8
LC-002-002-----0
 62
     7
370
    50
100
AcDbLine
 10
836.535939
 20
2037.164285
 30
0.0
 11
1221.719134
 21
2085.784223
 31
0.0
  0
LINE
  5
13F
102
{ACAD_REACTORS
330
51B
102
}
330
1F
100
AcDbEntity
  8
LC-002-002-----0
 62
     7
370
    50
100
AcDbLine
 10
444.288619
 20
2035.904687
 30
0.0
 11
816.498853
 21
2035.904687
 31
0.0
  0
LINE
  5
140
102
{ACAD_REACTORS
330
51B
102
}
330
1F
100
AcDbEntity
  8
LC-002-002-----0
 62
     7
370
    50
100
AcDbLine
 10
428.288619
 20
1698.535313
 30
0.0
 11
428.288619
 21
2019.904687
 31
0.0
  0
LINE
  5
141
102
{ACAD_REACTORS
330
51B
102
}
330
1F
100
AcDbEntity
  8
LC-002-002-----0
 62
     7
370
    50
100
AcDbLine
 10
816.498853
 20
1682.535313
 30
0.0
 11
444.288619
 21
1682.535313
 31
0.0
  0
LINE
  5
142
102
{ACAD_REACTORS
330
51B
102
}
330
1F
100
AcDbEntity
  8
LC-002-002-----0
 62
     7
370
    50
100
AcDbLine
 10
1221.719134
 20
1632.655777
 30
0.0
 11
836.535939
 21
1681.275715
 31
0.0
  0
LINE
  5
143
102
{ACAD_REACTORS
330
51B
102
}
330
1F
100
AcDbEntity
  8
LC-002-002-----0
 62
     7
370
    50
100
AcDbLine
 10
1241.973306
 20
2067.925928
 30
0.0
 11
1241.973306
 21
1650.514072
 31
0.0
  0
LINE
  5
144
102
{ACAD_REACTORS
330
525
102
}
330
1F
100
AcDbEntity
  8
LC-002-002-----0
 62
     7
370
    50
100
AcDbLine
 10
934.788619
 20
2612.990196
 30
0.0
 11
1241.973306
 21
2612.990196
 31
0.0
  0
ARC
  5
145
102
{ACAD_REACTORS
330
525
102
}
330
1F
100
AcDbEntity
  8
LC-004-002-RND-0
 62
     7
370
    50
100
AcDbCircle
 10
1242.951826
 20
2594.990196
 30
0.0
 40
2.0
100
AcDbArc
 50
90.0
 51
174.0
  0
ARC
  5
146
102
{ACAD_REACTORS
330
525
102
}
330
1F
100
AcDbEntity
  8
LC-004-002-RND-0
 62
     7
370
    50
100
AcDbCircle
 10
1265.997017
 20
2608.922535
 30
0.0
 40
2.000000000000028
100
AcDbArc
 50
5.5
 51
53.0
  0
ARC
  5
147
102
{ACAD_REACTORS
330
525
102
}
330
1F
100
AcDbEntity
  8
LC-004-002-RND-0
 62
     7
370
    50
100
AcDbCircle
 10
410.580221
 20
2608.922535
 30
0.0
 40
2.000000000000175
100
AcDbArc
 50
127.0
 51
174.5
  0
ARC
  5
148
102
{ACAD_REACTORS
330
525
102
}
330
1F
100
AcDbEntity
  8
LC-004-002-RND-0
 62
     7
370
    50
100
AcDbCircle
 10
857.684131
 20
2432.859484
 30
0.0
 40
13.99999999999994
100
AcDbArc
 50
186.0
 51
267.5
  0
ARC
  5
149
102
{ACAD_REACTORS
330
525
102
}
330
1F
100
AcDbEntity
  8
LC-004-002-RND-0
 62
     7
370
    50
100
AcDbCircle
 10
856.885366
 20
2430.892453
 30
0.0
 40
20.99999999999999
100
AcDbArc
 50
186.0
 51
267.5
  0
ARC
  5
14A
102
{ACAD_REACTORS
330
525
102
}
330
1F
100
AcDbEntity
  8
LC-004-002-RND-0
 62
     7
370
    50
100
AcDbCircle
 10
1197.425501
 20
2438.958098
 30
0.0
 40
20.99999999999982
100
AcDbArc
 50
272.5
 51
354.0
  0
ARC
  5
14B
102
{ACAD_REACTORS
330
525
102
}
330
1F
100
AcDbEntity
  8
LC-004-002-RND-0
 62
     7
370
    50
100
AcDbCircle
 10
1196.626736
 20
2440.925128
 30
0.0
 40
13.99999999999995
100
AcDbArc
 50
272.5
 51
354.0
  0
LINE
  5
14C
102
{ACAD_REACTORS
330
525
102
}
330
1F
100
AcDbEntity
  8
LC-002-002-----0
 62
     7
370
    50
100
AcDbLine
 10
815.84064
 20
2601.02104
 30
0.0
 11
483.344605
 21
2607.233829
 31
0.0
  0
ARC
  5
14D
102
{ACAD_REACTORS
330
525
102
}
330
1F
100
AcDbEntity
  8
LC-004-002-RND-0
 62
     7
370
    50
100
AcDbCircle
 10
483.400651
 20
2610.233305
 30
0.0
 40
3.000000000000014
100
AcDbArc
 50
252.509303
 51
268.929536
  0
LINE
  5
14E
102
{ACAD_REACTORS
330
525
102
}
330
1F
100
AcDbEntity
  8
LC-002-002-----0
 62
     7
370
    50
100
AcDbLine
 10
477.852199
 20
2608.836309
 30
0.0
 11
482.498998
 21
2607.372008
 31
0.0
  0
LINE
  5
14F
102
{ACAD_REACTORS
330
525
102
}
330
1F
100
AcDbEntity
  8
LC-002-002-----0
 62
     7
370
    50
100
AcDbLine
 10
808.856887
 20
2592.157799
 30
0.0
 11
482.537711
 21
2598.247319
 31
0.0
  0
ARC
  5
150
102
{ACAD_REACTORS
330
525
102
}
330
1F
100
AcDbEntity
  8
LC-004-002-RND-0
 62
     7
370
    50
100
AcDbCircle
 10
475.252104
 20
2591.882305
 30
0.0
 40
7.999999999999875
100
AcDbArc
 50
71.039556
 51
88.92
  0
ARC
  5
151
102
{ACAD_REACTORS
330
51B
102
}
330
1F
100
AcDbEntity
  8
LC-004-002-RND-0
 62
     7
370
    50
100
AcDbCircle
 10
444.288619
 20
2019.904687
 30
0.0
 40
16.0
100
AcDbArc
 50
90.0
 51
180.0
  0
ARC
  5
152
102
{ACAD_REACTORS
330
525
102
}
330
1F
100
AcDbEntity
  8
LC-004-002-RND-0
 62
     7
370
    50
100
AcDbCircle
 10
482.686975
 20
2606.245927
 30
0.0
 40
7.999999999999986
100
AcDbArc
 50
251.039556
 51
268.930914
  0
ARC
  5
153
102
{ACAD_REACTORS
330
51B
102
}
330
1F
100
AcDbEntity
  8
LC-004-002-RND-0
 62
     7
370
    50
100
AcDbCircle
 10
426.288619
 20
2091.22
 30
0.0
 40
18.0
100
AcDbArc
 50
90.0
 51
180.0
  0
LINE
  5
154
102
{ACAD_REACTORS
330
525
102
}
330
1F
100
AcDbEntity
  8
LC-005-006-MLN-0
 62
     7
370
    25
100
AcDbLine
 10
934.788619
 20
2420.990196
 30
0.0
 11
934.788619
 21
2400.935327
 31
0.0
  0
LINE
  5
155
102
{ACAD_REACTORS
330
525
102
}
330
1F
100
AcDbEntity
  8
LC-002-002-----0
 62
     7
370
    25
100
AcDbLine
 10
992.288619
 20
2417.990196
 30
0.0
 11
877.288619
 21
2417.990196
 31
0.0
  0
LINE
  5
156
102
{ACAD_REACTORS
330
525
102
}
330
1F
100
AcDbEntity
  8
LC-002-002-----0
 62
     7
370
    50
100
AcDbLine
 10
1226.955984
 20
2584.4004
 30
0.0
 11
1230.745878
 21
2585.679523
 31
0.0
  0
LINE
  5
157
102
{ACAD_REACTORS
330
525
102
}
330
1F
100
AcDbEntity
  8
LC-002-002-----0
 62
     7
370
    50
100
AcDbLine
 10
826.507149
 20
2584.4004
 30
0.0
 11
822.717255
 21
2585.679523
 31
0.0
  0
LINE
  5
158
102
{ACAD_REACTORS
330
525
102
}
330
1F
100
AcDbEntity
  8
LC-002-002-----0
 62
     7
370
    50
100
AcDbLine
 10
816.572177
 20
2600.866678
 30
0.0
 11
819.01022
 21
2599.847432
 31
0.0
  0
LINE
  5
159
102
{ACAD_REACTORS
330
525
102
}
330
1F
100
AcDbEntity
  8
LC-002-002-----0
 62
     7
370
    50
100
AcDbLine
 10
812.603932
 20
2602.52564
 30
0.0
 11
815.371162
 21
2601.368774
 31
0.0
  0
LINE
  5
15A
102
{ACAD_REACTORS
330
525
102
}
330
1F
100
AcDbEntity
  8
LC-002-002-----0
 62
     7
370
    50
100
AcDbLine
 10
816.269482
 20
2600.993223
 30
0.0
 11
816.380788
 21
2600.94669
 31
0.0
  0
LINE
  5
15B
102
{ACAD_REACTORS
330
525
102
}
330
1F
100
AcDbEntity
  8
LC-002-002-----0
 62
     7
370
    50
100
AcDbLine
 10
895.226062
 20
2412.935327
 30
0.0
 11
974.351176
 21
2412.935327
 31
0.0
  0
LINE
  5
15C
102
{ACAD_REACTORS
330
525
102
}
330
1F
100
AcDbEntity
  8
LC-002-002-----0
 62
     7
370
    50
100
AcDbLine
 10
843.760824
 20
2431.396085
 30
0.0
 11
827.85662
 21
2582.714478
 31
0.0
  0
LINE
  5
15D
102
{ACAD_REACTORS
330
525
102
}
330
1F
100
AcDbEntity
  8
LC-002-002-----0
 62
     7
370
    50
100
AcDbLine
 10
820.227844
 20
2598.211249
 30
0.0
 11
821.367784
 21
2587.365446
 31
0.0
  0
LINE
  5
15E
102
{ACAD_REACTORS
330
525
102
}
330
1F
100
AcDbEntity
  8
LC-002-002-----0
 62
     7
370
    50
100
AcDbLine
 10
437.592982
 20
2609.595267
 30
0.0
 11
477.852199
 21
2608.836309
 31
0.0
  0
LINE
  5
15F
102
{ACAD_REACTORS
330
525
102
}
330
1F
100
AcDbEntity
  8
LC-002-002-----0
 62
     7
370
    50
100
AcDbLine
 10
811.851425
 20
2602.539826
 30
0.0
 11
477.852186
 21
2608.836309
 31
0.0
  0
LINE
  5
160
102
{ACAD_REACTORS
330
525
102
}
330
1F
100
AcDbEntity
  8
LC-002-002-----0
 62
     7
370
    50
100
AcDbLine
 10
1234.347199
 20
2608.790361
 30
0.0
 11
1232.095349
 21
2587.365446
 31
0.0
  0
LINE
  5
161
102
{ACAD_REACTORS
330
525
102
}
330
1F
100
AcDbEntity
  8
LC-002-002-----0
 62
     7
370
    50
100
AcDbLine
 10
1225.606513
 20
2582.714478
 30
0.0
 11
1210.550042
 21
2439.46173
 31
0.0
  0
LINE
  5
162
102
{ACAD_REACTORS
330
525
102
}
330
1F
100
AcDbEntity
  8
LC-002-002-----0
 62
     7
370
    50
100
AcDbLine
 10
1235.593461
 20
2610.438258
 30
0.0
 11
1241.973306
 21
2612.990196
 31
0.0
  0
LINE
  5
163
102
{ACAD_REACTORS
330
525
102
}
330
1F
100
AcDbEntity
  8
LC-002-002-----0
 62
     7
370
    50
100
AcDbLine
 10
428.288619
 20
2612.990196
 30
0.0
 11
436.20237
 21
2609.872886
 31
0.0
  0
LINE
  5
164
102
{ACAD_REACTORS
330
525
102
}
330
1F
100
AcDbEntity
  8
LC-002-002-----0
 62
     7
370
    50
100
AcDbLine
 10
412.65491
 20
2612.990196
 30
0.0
 11
428.288619
 21
2612.990196
 31
0.0
  0
LINE
  5
165
102
{ACAD_REACTORS
330
525
102
}
330
1F
100
AcDbEntity
  8
LC-002-002-----0
 62
     7
370
    50
100
AcDbLine
 10
1241.973306
 20
2612.990196
 30
0.0
 11
1263.922328
 21
2612.990196
 31
0.0
  0
LINE
  5
166
102
{ACAD_REACTORS
330
525
102
}
330
1F
100
AcDbEntity
  8
LC-002-002-----0
 62
     7
370
    50
100
AcDbLine
 10
428.288619
 20
2612.990196
 30
0.0
 11
934.788619
 21
2612.990196
 31
0.0
  0
LINE
  5
167
102
{ACAD_REACTORS
330
525
102
}
330
1F
100
AcDbEntity
  8
LC-002-002-----0
 62
     7
370
    50
100
AcDbLine
 10
408.589429
 20
2609.114226
 30
0.0
 11
408.288619
 21
2605.990196
 31
0.0
  0
LINE
  5
168
102
{ACAD_REACTORS
330
525
102
}
330
1F
100
AcDbEntity
  8
LC-002-002-----0
 62
     7
370
    50
100
AcDbLine
 10
412.65491
 20
2612.990196
 30
0.0
 11
409.376591
 21
2610.519806
 31
0.0
  0
LINE
  5
169
102
{ACAD_REACTORS
330
525
102
}
330
1F
100
AcDbEntity
  8
LC-002-002-----0
 62
     7
370
    50
100
AcDbLine
 10
1267.987809
 20
2609.114226
 30
0.0
 11
1268.288619
 21
2605.990196
 31
0.0
  0
LINE
  5
16A
102
{ACAD_REACTORS
330
525
102
}
330
1F
100
AcDbEntity
  8
LC-002-002-----0
 62
     7
370
    50
100
AcDbLine
 10
1263.922328
 20
2612.990196
 30
0.0
 11
1267.200647
 21
2610.519806
 31
0.0
  0
LINE
  5
16C
102
{ACAD_REACTORS
330
525
102
}
330
1F
100
AcDbEntity
  8
LC-006-100-D00-0
 62
     7
370
    13
100
AcDbLine
 10
482.3521
 20
2607.418294
 30
0.0
 11
482.449794
 21
2607.385921
 31
0.0
  0
LINE
  5
16D
102
{ACAD_REACTORS
330
525
102
}
330
1F
100
AcDbEntity
  8
LC-002-002-----0
 62
     7
370
    50
100
AcDbLine
 10
812.603932
 20
2602.52564
 30
0.0
 11
815.36125
 21
2601.372918
 31
0.0
  0
LINE
  5
16E
102
{ACAD_REACTORS
330
525
102
}
330
1F
100
AcDbEntity
  8
LC-002-002-----0
 62
     7
370
    50
100
AcDbLine
 10
816.444636
 20
2600.919998
 30
0.0
 11
816.31763
 21
2600.973094
 31
0.0
  0
LINE
  5
16F
102
{ACAD_REACTORS
330
525
102
}
330
1F
100
AcDbEntity
  8
LC-002-002-----0
 62
     7
370
    50
100
AcDbLine
 10
815.36125
 20
2601.372918
 30
0.0
 11
812.603932
 21
2602.52564
 31
0.0
  0
LINE
  5
170
102
{ACAD_REACTORS
330
525
102
}
330
1F
100
AcDbEntity
  8
LC-002-002-----0
 62
     7
370
    50
100
AcDbLine
 10
812.603932
 20
2602.52564
 30
0.0
 11
815.361247
 21
2601.372919
 31
0.0
  0
LINE
  5
171
102
{ACAD_REACTORS
330
525
102
}
330
1F
100
AcDbEntity
  8
LC-002-002-----0
 62
     7
370
    50
100
AcDbLine
 10
815.36134
 20
2601.37288
 30
0.0
 11
815.371162
 21
2601.368774
 31
0.0
  0
LINE
  5
172
102
{ACAD_REACTORS
330
525
102
}
330
1F
100
AcDbEntity
  8
LC-002-002-----0
 62
     7
370
    50
100
AcDbLine
 10
812.603932
 20
2602.52564
 30
0.0
 11
811.851425
 21
2602.539826
 31
0.0
  0
LINE
  5
173
102
{ACAD_REACTORS
330
525
102
}
330
1F
100
AcDbEntity
  8
LC-002-002-----0
 62
     7
370
    50
100
AcDbLine
 10
815.371162
 20
2601.368774
 30
0.0
 11
815.443267
 21
2601.33863
 31
0.0
  0
LINE
  5
174
102
{ACAD_REACTORS
330
525
102
}
330
1F
100
AcDbEntity
  8
LC-002-002-----0
 62
     7
370
    50
100
AcDbLine
 10
815.443267
 20
2601.33863
 30
0.0
 11
815.803683
 21
2601.187955
 31
0.0
  0
LINE
  5
175
102
{ACAD_REACTORS
330
525
102
}
330
1F
100
AcDbEntity
  8
LC-002-002-----0
 62
     7
370
    50
100
AcDbLine
 10
815.36125
 20
2601.372918
 30
0.0
 11
815.36125
 21
2601.372918
 31
0.0
  0
ARC
  5
176
102
{ACAD_REACTORS
330
525
102
}
330
1F
100
AcDbEntity
  8
LC-002-002-----0
 62
     7
370
    50
100
AcDbCircle
 10
418.843536
 20
2601.990196
 30
0.0
 40
1.999999999999894
100
AcDbArc
 50
4.999997
 51
43.836616
  0
LINE
  5
177
102
{ACAD_REACTORS
330
525
102
}
330
1F
100
AcDbEntity
  8
LC-002-002-----0
 62
     7
370
    50
100
AcDbLine
 10
422.663128
 20
2596.990196
 30
0.0
 11
422.878344
 21
2596.990196
 31
0.0
  0
LINE
  5
178
102
{ACAD_REACTORS
330
525
102
}
330
1F
100
AcDbEntity
  8
LC-002-002-----0
 62
     7
370
    50
100
AcDbLine
 10
422.878344
 20
2596.990196
 30
0.0
 11
423.625359
 21
2596.990196
 31
0.0
  0
LINE
  5
179
102
{ACAD_REACTORS
330
525
102
}
330
1F
100
AcDbEntity
  8
LC-002-002-----0
 62
     7
370
    50
100
AcDbLine
 10
423.625359
 20
2596.990196
 30
0.0
 11
423.878419
 21
2596.990196
 31
0.0
  0
LINE
  5
17A
102
{ACAD_REACTORS
330
525
102
}
330
1F
100
AcDbEntity
  8
LC-002-002-----0
 62
     7
370
    50
100
AcDbLine
 10
423.878419
 20
2596.990196
 30
0.0
 11
423.982747
 21
2596.990196
 31
0.0
  0
LINE
  5
17B
102
{ACAD_REACTORS
330
525
102
}
330
1F
100
AcDbEntity
  8
LC-002-002-----0
 62
     7
370
    50
100
AcDbLine
 10
422.663116
 20
2596.990196
 30
0.0
 11
422.663116
 21
2596.990196
 31
0.0
  0
ARC
  5
17C
102
{ACAD_REACTORS
330
525
102
}
330
1F
100
AcDbEntity
  8
LC-002-002-----0
 62
     7
370
    50
100
AcDbCircle
 10
422.663116
 20
2598.490196
 30
0.0
 40
1.499999999999971
100
AcDbArc
 50
185.0
 51
270.0
  0
LINE
  5
17D
102
{ACAD_REACTORS
330
525
102
}
330
1F
100
AcDbEntity
  8
LC-002-002-----0
 62
     7
370
    50
100
AcDbLine
 10
422.663116
 20
2596.990196
 30
0.0
 11
422.690825
 21
2596.990196
 31
0.0
  0
LINE
  5
17E
102
{ACAD_REACTORS
330
525
102
}
330
1F
100
AcDbEntity
  8
LC-002-002-----0
 62
     7
370
    50
100
AcDbLine
 10
423.982747
 20
2596.990196
 30
0.0
 11
423.982747
 21
2596.990196
 31
0.0
  0
LINE
  5
17F
102
{ACAD_REACTORS
330
525
102
}
330
1F
100
AcDbEntity
  8
LC-002-002-----0
 62
     7
370
    50
100
AcDbLine
 10
423.597656
 20
2596.990196
 30
0.0
 11
423.982747
 21
2596.990196
 31
0.0
  0
LINE
  5
180
102
{ACAD_REACTORS
330
525
102
}
330
1F
100
AcDbEntity
  8
LC-002-002-----0
 62
     7
370
    50
100
AcDbLine
 10
422.827586
 20
2596.990196
 30
0.0
 11
423.597656
 21
2596.990196
 31
0.0
  0
LINE
  5
181
102
{ACAD_REACTORS
330
525
102
}
330
1F
100
AcDbEntity
  8
LC-002-002-----0
 62
     7
370
    50
100
AcDbLine
 10
422.675796
 20
2596.990196
 30
0.0
 11
422.827586
 21
2596.990196
 31
0.0
  0
LINE
  5
182
102
{ACAD_REACTORS
330
525
102
}
330
1F
100
AcDbEntity
  8
LC-002-002-----0
 62
     7
370
    50
100
AcDbLine
 10
420.835925
 20
2602.164507
 30
0.0
 11
420.837489
 21
2602.146638
 31
0.0
  0
LINE
  5
183
102
{ACAD_REACTORS
330
525
102
}
330
1F
100
AcDbEntity
  8
LC-002-002-----0
 62
     7
370
    50
100
AcDbLine
 10
420.837489
 20
2602.146638
 30
0.0
 11
421.168824
 21
2598.359462
 31
0.0
  0
LINE
  5
184
102
{ACAD_REACTORS
330
525
102
}
330
1F
100
AcDbEntity
  8
LC-002-002-----0
 62
     7
370
    50
100
AcDbLine
 10
1256.288619
 20
2603.57556
 30
0.0
 11
1256.288619
 21
2603.372857
 31
0.0
  0
ARC
  5
185
102
{ACAD_REACTORS
330
525
102
}
330
1F
100
AcDbEntity
  8
LC-002-002-----0
 62
     7
370
    50
100
AcDbCircle
 10
1257.733702
 20
2601.990196
 30
0.0
 40
2.000000000000367
100
AcDbArc
 50
136.158053
 51
175.000003
  0
LINE
  5
186
102
{ACAD_REACTORS
330
525
102
}
330
1F
100
AcDbEntity
  8
LC-002-002-----0
 62
     7
370
    50
100
AcDbLine
 10
873.323273
 20
2403.935327
 30
0.0
 11
996.253965
 21
2403.935327
 31
0.0
  0
LINE
  5
187
102
{ACAD_REACTORS
330
525
102
}
330
1F
100
AcDbEntity
  8
LC-002-002-----0
 62
     7
370
    50
100
AcDbLine
 10
813.243459
 20
2588.129053
 30
0.0
 11
813.566712
 21
2585.053504
 31
0.0
  0
LINE
  5
188
102
{ACAD_REACTORS
330
525
102
}
330
1F
100
AcDbEntity
  8
LC-002-002-----0
 62
     7
370
    50
100
AcDbLine
 10
1232.71022
 20
2573.767563
 30
0.0
 11
1218.310461
 21
2436.763
 31
0.0
  0
LINE
  5
189
102
{ACAD_REACTORS
330
525
102
}
330
1F
100
AcDbEntity
  8
LC-002-002-----0
 62
     7
370
    50
100
AcDbLine
 10
836.000406
 20
2428.697355
 30
0.0
 11
820.752913
 21
2573.767563
 31
0.0
  0
LINE
  5
18A
102
{ACAD_REACTORS
330
525
102
}
330
1F
100
AcDbEntity
  8
LC-002-002-----0
 62
     7
370
    50
100
AcDbLine
 10
1253.914122
 20
2596.990196
 30
0.0
 11
1253.914122
 21
2596.990196
 31
0.0
  0
ARC
  5
18B
102
{ACAD_REACTORS
330
525
102
}
330
1F
100
AcDbEntity
  8
LC-002-002-----0
 62
     7
370
    50
100
AcDbCircle
 10
1253.914122
 20
2598.490196
 30
0.0
 40
1.5
100
AcDbArc
 50
270.0
 51
355.0
  0
LINE
  5
18C
102
{ACAD_REACTORS
330
525
102
}
330
1F
100
AcDbEntity
  8
LC-002-002-----0
 62
     7
370
    50
100
AcDbLine
 10
1252.594491
 20
2596.990196
 30
0.0
 11
1252.594491
 21
2596.990196
 31
0.0
  0
LINE
  5
18D
102
{ACAD_REACTORS
330
525
102
}
330
1F
100
AcDbEntity
  8
LC-002-002-----0
 62
     7
370
    50
100
AcDbLine
 10
1252.979582
 20
2596.990196
 30
0.0
 11
1253.914122
 21
2596.990196
 31
0.0
  0
LINE
  5
18E
102
{ACAD_REACTORS
330
525
102
}
330
1F
100
AcDbEntity
  8
LC-002-002-----0
 62
     7
370
    50
100
AcDbLine
 10
1252.594491
 20
2596.990196
 30
0.0
 11
1252.979582
 21
2596.990196
 31
0.0
  0
LINE
  5
18F
102
{ACAD_REACTORS
330
525
102
}
330
1F
100
AcDbEntity
  8
LC-002-002-----0
 62
     7
370
    50
100
AcDbLine
 10
1255.741313
 20
2602.164507
 30
0.0
 11
1255.739749
 21
2602.146639
 31
0.0
  0
LINE
  5
190
102
{ACAD_REACTORS
330
525
102
}
330
1F
100
AcDbEntity
  8
LC-002-002-----0
 62
     7
370
    50
100
AcDbLine
 10
1255.739749
 20
2602.146639
 30
0.0
 11
1255.408414
 21
2598.359462
 31
0.0
  0
LINE
  5
191
102
{ACAD_REACTORS
330
525
102
}
330
1F
100
AcDbEntity
  8
LC-002-002-----0
 62
     7
370
    50
100
AcDbLine
 10
444.654205
 20
2600.460551
 30
0.0
 11
475.402892
 21
2599.880884
 31
0.0
  0
LINE
  5
192
102
{ACAD_REACTORS
330
525
102
}
330
1F
100
AcDbEntity
  8
LC-002-002-----0
 62
     7
370
    50
100
AcDbLine
 10
1255.364935
 20
2605.490196
 30
0.0
 11
1256.078683
 21
2605.490196
 31
0.0
  0
LINE
  5
193
102
{ACAD_REACTORS
330
525
102
}
330
1F
100
AcDbEntity
  8
LC-002-002-----0
 62
     7
370
    50
100
AcDbLine
 10
1256.288619
 20
2605.484683
 30
0.0
 11
1256.288619
 21
2605.416832
 31
0.0
  0
LINE
  5
194
102
{ACAD_REACTORS
330
525
102
}
330
1F
100
AcDbEntity
  8
LC-002-002-----0
 62
     7
370
    50
100
AcDbLine
 10
1242.089427
 20
2596.990196
 30
0.0
 11
1251.414122
 21
2596.990196
 31
0.0
  0
LINE
  5
195
102
{ACAD_REACTORS
330
525
102
}
330
1F
100
AcDbEntity
  8
LC-002-002-----0
 62
     7
370
    50
100
AcDbLine
 10
1252.908414
 20
2598.359462
 30
0.0
 11
1253.372546
 21
2603.664507
 31
0.0
  0
LINE
  5
196
102
{ACAD_REACTORS
330
525
102
}
330
1F
100
AcDbEntity
  8
LC-002-002-----0
 62
     7
370
    50
100
AcDbLine
 10
1252.594491
 20
2596.990196
 30
0.0
 11
1252.951889
 21
2596.990196
 31
0.0
  0
LINE
  5
197
102
{ACAD_REACTORS
330
525
102
}
330
1F
100
AcDbEntity
  8
LC-002-002-----0
 62
     7
370
    50
100
AcDbLine
 10
1252.951889
 20
2596.990196
 30
0.0
 11
1253.91411
 21
2596.990196
 31
0.0
  0
LINE
  5
198
102
{ACAD_REACTORS
330
525
102
}
330
1F
100
AcDbEntity
  8
LC-002-002-----0
 62
     7
370
    50
100
AcDbLine
 10
1251.414122
 20
2596.990196
 30
0.0
 11
1252.594491
 21
2596.990196
 31
0.0
  0
LINE
  5
199
102
{ACAD_REACTORS
330
525
102
}
330
1F
100
AcDbEntity
  8
LC-002-002-----0
 62
     7
370
    50
100
AcDbLine
 10
1238.87162
 20
2583.508355
 30
0.0
 11
1240.100383
 21
2595.199253
 31
0.0
  0
ARC
  5
19A
102
{ACAD_REACTORS
330
525
102
}
330
1F
100
AcDbEntity
  8
LC-002-002-----0
 62
     7
370
    50
100
AcDbCircle
 10
1229.951202
 20
2586.098789
 30
0.0
 40
9.999999999999716
100
AcDbArc
 50
301.026996
 51
354.0
  0
LINE
  5
19B
102
{ACAD_REACTORS
330
525
102
}
330
1F
100
AcDbEntity
  8
LC-002-002-----0
 62
     7
370
    50
100
AcDbLine
 10
1240.962782
 20
2595.199253
 30
0.0
 11
1239.896421
 21
2585.053504
 31
0.0
  0
ARC
  5
19C
102
{ACAD_REACTORS
330
525
102
}
330
1F
100
AcDbEntity
  8
LC-002-002-----0
 62
     7
370
    50
100
AcDbCircle
 10
873.323273
 20
2405.935327
 30
0.0
 40
1.999999999999936
100
AcDbArc
 50
261.666667
 51
270.0
  0
ARC
  5
19D
102
{ACAD_REACTORS
330
525
102
}
330
1F
100
AcDbEntity
  8
LC-002-002-----0
 62
     7
370
    50
100
AcDbCircle
 10
873.323273
 20
2405.935327
 30
0.0
 40
1.999999999999746
100
AcDbArc
 50
253.333333
 51
261.666667
  0
ARC
  5
19E
102
{ACAD_REACTORS
330
525
102
}
330
1F
100
AcDbEntity
  8
LC-002-002-----0
 62
     7
370
    50
100
AcDbCircle
 10
873.323273
 20
2405.935327
 30
0.0
 40
1.999999999999988
100
AcDbArc
 50
245.0
 51
253.333333
  0
ARC
  5
19F
102
{ACAD_REACTORS
330
525
102
}
330
1F
100
AcDbEntity
  8
LC-002-002-----0
 62
     7
370
    50
100
AcDbCircle
 10
873.323273
 20
2405.935327
 30
0.0
 40
2.000000000000143
100
AcDbArc
 50
236.666667
 51
245.0
  0
ARC
  5
1A0
102
{ACAD_REACTORS
330
525
102
}
330
1F
100
AcDbEntity
  8
LC-002-002-----0
 62
     7
370
    50
100
AcDbCircle
 10
873.323273
 20
2405.935327
 30
0.0
 40
2.000000000000057
100
AcDbArc
 50
228.333333
 51
236.666667
  0
ARC
  5
1A1
102
{ACAD_REACTORS
330
525
102
}
330
1F
100
AcDbEntity
  8
LC-002-002-----0
 62
     7
370
    50
100
AcDbCircle
 10
873.323273
 20
2405.935327
 30
0.0
 40
2.000000000000149
100
AcDbArc
 50
220.0
 51
228.333333
  0
ARC
  5
1A2
102
{ACAD_REACTORS
330
525
102
}
330
1F
100
AcDbEntity
  8
LC-002-002-----0
 62
     7
370
    50
100
AcDbCircle
 10
873.323273
 20
2405.935327
 30
0.0
 40
2.000000000000034
100
AcDbArc
 50
211.666667
 51
220.0
  0
ARC
  5
1A3
102
{ACAD_REACTORS
330
525
102
}
330
1F
100
AcDbEntity
  8
LC-002-002-----0
 62
     7
370
    50
100
AcDbCircle
 10
873.323273
 20
2405.935327
 30
0.0
 40
2.000000000000003
100
AcDbArc
 50
203.333333
 51
211.666667
  0
ARC
  5
1A4
102
{ACAD_REACTORS
330
525
102
}
330
1F
100
AcDbEntity
  8
LC-002-002-----0
 62
     7
370
    50
100
AcDbCircle
 10
873.323273
 20
2405.935327
 30
0.0
 40
1.999999999999892
100
AcDbArc
 50
195.0
 51
203.333333
  0
LINE
  5
1A5
102
{ACAD_REACTORS
330
525
102
}
330
1F
100
AcDbEntity
  8
LC-002-002-----0
 62
     7
370
    50
100
AcDbLine
 10
1256.288619
 20
2604.463733
 30
0.0
 11
1256.288619
 21
2603.57556
 31
0.0
  0
LINE
  5
1A6
102
{ACAD_REACTORS
330
525
102
}
330
1F
100
AcDbEntity
  8
LC-002-002-----0
 62
     7
370
    50
100
AcDbLine
 10
1256.288619
 20
2605.416832
 30
0.0
 11
1256.288619
 21
2604.463733
 31
0.0
  0
LINE
  5
1A7
102
{ACAD_REACTORS
330
525
102
}
330
1F
100
AcDbEntity
  8
LC-002-002-----0
 62
     7
370
    50
100
AcDbLine
 10
420.498555
 20
2605.490196
 30
0.0
 11
421.212303
 21
2605.490196
 31
0.0
  0
LINE
  5
1A8
102
{ACAD_REACTORS
330
525
102
}
330
1F
100
AcDbEntity
  8
LC-002-002-----0
 62
     7
370
    50
100
AcDbLine
 10
420.288619
 20
2605.416835
 30
0.0
 11
420.288619
 21
2605.484683
 31
0.0
  0
LINE
  5
1A9
102
{ACAD_REACTORS
330
525
102
}
330
1F
100
AcDbEntity
  8
LC-002-002-----0
 62
     7
370
    50
100
AcDbLine
 10
425.163116
 20
2596.990196
 30
0.0
 11
438.514478
 21
2596.990196
 31
0.0
  0
LINE
  5
1AA
102
{ACAD_REACTORS
330
525
102
}
330
1F
100
AcDbEntity
  8
LC-002-002-----0
 62
     7
370
    50
100
AcDbLine
 10
423.668824
 20
2598.359462
 30
0.0
 11
423.204692
 21
2603.664507
 31
0.0
  0
LINE
  5
1AB
102
{ACAD_REACTORS
330
525
102
}
330
1F
100
AcDbEntity
  8
LC-002-002-----0
 62
     7
370
    50
100
AcDbLine
 10
423.982747
 20
2596.990196
 30
0.0
 11
425.163116
 21
2596.990196
 31
0.0
  0
LINE
  5
1AC
102
{ACAD_REACTORS
330
525
102
}
330
1F
100
AcDbEntity
  8
LC-002-002-----0
 62
     7
370
    50
100
AcDbLine
 10
420.288619
 20
2604.463737
 30
0.0
 11
420.288619
 21
2605.416835
 31
0.0
  0
LINE
  5
1AD
102
{ACAD_REACTORS
330
525
102
}
330
1F
100
AcDbEntity
  8
LC-002-002-----0
 62
     7
370
    50
100
AcDbLine
 10
420.288619
 20
2603.575562
 30
0.0
 11
420.288619
 21
2604.463737
 31
0.0
  0
LINE
  5
1AE
102
{ACAD_REACTORS
330
525
102
}
330
1F
100
AcDbEntity
  8
LC-002-002-----0
 62
     7
370
    50
100
AcDbLine
 10
420.288619
 20
2603.372856
 30
0.0
 11
420.288619
 21
2603.575562
 31
0.0
  0
LINE
  5
1AF
102
{ACAD_REACTORS
330
525
102
}
330
1F
100
AcDbEntity
  8
LC-002-002-----0
 62
     7
370
    50
100
AcDbLine
 10
998.185817
 20
2405.417689
 30
0.0
 11
998.273011
 21
2405.743104
 31
0.0
  0
LINE
  5
1B0
102
{ACAD_REACTORS
330
525
102
}
330
1F
100
AcDbEntity
  8
LC-002-002-----0
 62
     7
370
    50
100
AcDbLine
 10
815.803683
 20
2601.187955
 30
0.0
 11
815.917293
 21
2601.140459
 31
0.0
  0
LINE
  5
1B1
102
{ACAD_REACTORS
330
525
102
}
330
1F
100
AcDbEntity
  8
LC-002-002-----0
 62
     7
370
    50
100
AcDbLine
 10
815.917293
 20
2601.140459
 30
0.0
 11
816.050546
 21
2601.084751
 31
0.0
  0
LINE
  5
1B2
102
{ACAD_REACTORS
330
525
102
}
330
1F
100
AcDbEntity
  8
LC-002-002-----0
 62
     7
370
    50
100
AcDbLine
 10
816.050546
 20
2601.084751
 30
0.0
 11
816.269482
 21
2600.993223
 31
0.0
  0
LINE
  5
1B3
102
{ACAD_REACTORS
330
525
102
}
330
1F
100
AcDbEntity
  8
LC-002-002-----0
 62
     7
370
    50
100
AcDbLine
 10
815.803685
 20
2601.187954
 30
0.0
 11
815.361247
 21
2601.372919
 31
0.0
  0
LINE
  5
1B4
102
{ACAD_REACTORS
330
525
102
}
330
1F
100
AcDbEntity
  8
LC-002-002-----0
 62
     7
370
    50
100
AcDbLine
 10
816.269482
 20
2600.993223
 30
0.0
 11
816.350753
 21
2600.959247
 31
0.0
  0
LINE
  5
1B5
102
{ACAD_REACTORS
330
525
102
}
330
1F
100
AcDbEntity
  8
LC-002-002-----0
 62
     7
370
    50
100
AcDbLine
 10
816.409394
 20
2600.934731
 30
0.0
 11
816.269467
 21
2600.993229
 31
0.0
  0
LINE
  5
1B6
102
{ACAD_REACTORS
330
525
102
}
330
1F
100
AcDbEntity
  8
LC-006-100-D00-0
 62
     7
370
    13
100
AcDbLine
 10
483.351909
 20
2607.233693
 30
0.0
 11
483.35194
 21
2607.233692
 31
0.0
  0
LINE
  5
1B7
102
{ACAD_REACTORS
330
525
102
}
330
1F
100
AcDbEntity
  8
LC-006-100-D00-0
 62
     7
370
    13
100
AcDbLine
 10
482.351984
 20
2607.418323
 30
0.0
 11
482.351943
 21
2607.418348
 31
0.0
  0
LINE
  5
1B8
102
{ACAD_REACTORS
330
525
102
}
330
1F
100
AcDbEntity
  8
LC-006-100-D00-0
 62
     7
370
    13
100
AcDbLine
 10
482.351984
 20
2607.418323
 30
0.0
 11
482.351984
 21
2607.418323
 31
0.0
  0
LINE
  5
1B9
102
{ACAD_REACTORS
330
525
102
}
330
1F
100
AcDbEntity
  8
LC-006-100-D00-0
 62
     7
370
    13
100
AcDbLine
 10
1211.270582
 20
2446.317208
 30
0.0
 11
1211.270582
 21
2446.317208
 31
0.0
  0
ARC
  5
1BA
102
{ACAD_REACTORS
330
525
102
}
330
1F
100
AcDbEntity
  8
LC-002-002-----0
 62
     7
370
    50
100
AcDbCircle
 10
1236.336242
 20
2608.581304
 30
0.0
 40
2.000000000000004
100
AcDbArc
 50
111.801409
 51
174.0
  0
ARC
  5
1BB
102
{ACAD_REACTORS
330
525
102
}
330
1F
100
AcDbEntity
  8
LC-002-002-----0
 62
     7
370
    50
100
AcDbCircle
 10
1230.106305
 20
2587.574503
 30
0.0
 40
1.999999999999835
100
AcDbArc
 50
288.65
 51
354.0
  0
ARC
  5
1BC
102
{ACAD_REACTORS
330
525
102
}
330
1F
100
AcDbEntity
  8
LC-002-002-----0
 62
     7
370
    50
100
AcDbCircle
 10
1227.595557
 20
2582.505421
 30
0.0
 40
2.000000000000266
100
AcDbArc
 50
108.65
 51
174.0
  0
LINE
  5
1BD
102
{ACAD_REACTORS
330
525
102
}
330
1F
100
AcDbEntity
  8
LC-002-002-----0
 62
     7
370
    50
100
AcDbLine
 10
993.339989
 20
2418.0361
 30
0.0
 11
1197.237407
 21
2426.938453
 31
0.0
  0
ARC
  5
1BE
102
{ACAD_REACTORS
330
525
102
}
330
1F
100
AcDbEntity
  8
LC-002-002-----0
 62
     7
370
    50
100
AcDbCircle
 10
993.392332
 20
2416.837242
 30
0.0
 40
1.200000000000168
100
AcDbArc
 50
92.5
 51
175.0
  0
ARC
  5
1BF
102
{ACAD_REACTORS
330
525
102
}
330
1F
100
AcDbEntity
  8
LC-002-002-----0
 62
     7
370
    50
100
AcDbCircle
 10
895.226062
 20
2417.935327
 30
0.0
 40
4.999999999999664
100
AcDbArc
 50
260.0
 51
270.0
  0
LINE
  5
1C0
102
{ACAD_REACTORS
330
525
102
}
330
1F
100
AcDbEntity
  8
LC-002-002-----0
 62
     7
370
    50
100
AcDbLine
 10
894.357821
 20
2413.011288
 30
0.0
 11
878.219266
 21
2415.856951
 31
0.0
  0
LINE
  5
1C1
102
{ACAD_REACTORS
330
525
102
}
330
1F
100
AcDbEntity
  8
LC-002-002-----0
 62
     7
370
    50
100
AcDbLine
 10
877.396719
 20
2416.754603
 30
0.0
 11
877.380339
 21
2416.941829
 31
0.0
  0
ARC
  5
1C2
102
{ACAD_REACTORS
330
525
102
}
330
1F
100
AcDbEntity
  8
LC-002-002-----0
 62
     7
370
    50
100
AcDbCircle
 10
876.184906
 20
2416.837242
 30
0.0
 40
1.199999999999939
100
AcDbArc
 50
5.0
 51
87.5
  0
LINE
  5
1C3
102
{ACAD_REACTORS
330
525
102
}
330
1F
100
AcDbEntity
  8
LC-002-002-----0
 62
     7
370
    50
100
AcDbLine
 10
876.237249
 20
2418.0361
 30
0.0
 11
857.073459
 21
2418.872809
 31
0.0
  0
ARC
  5
1C4
102
{ACAD_REACTORS
330
525
102
}
330
1F
100
AcDbEntity
  8
LC-002-002-----0
 62
     7
370
    50
100
AcDbCircle
 10
825.867577
 20
2582.505421
 30
0.0
 40
2.000000000000043
100
AcDbArc
 50
6.0
 51
71.35
  0
ARC
  5
1C5
102
{ACAD_REACTORS
330
525
102
}
330
1F
100
AcDbEntity
  8
LC-002-002-----0
 62
     7
370
    50
100
AcDbCircle
 10
823.356828
 20
2587.574503
 30
0.0
 40
1.999999999999889
100
AcDbArc
 50
186.0
 51
251.35
  0
ARC
  5
1C6
102
{ACAD_REACTORS
330
525
102
}
330
1F
100
AcDbEntity
  8
LC-002-002-----0
 62
     7
370
    50
100
AcDbCircle
 10
818.2388
 20
2598.002192
 30
0.0
 40
2.000000000000043
100
AcDbArc
 50
6.0
 51
67.312184
  0
ARC
  5
1C7
102
{ACAD_REACTORS
330
525
102
}
330
1F
100
AcDbEntity
  8
LC-002-002-----0
 62
     7
370
    50
100
AcDbCircle
 10
815.800757
 20
2599.021438
 30
0.0
 40
1.999999999999776
100
AcDbArc
 50
67.312184
 51
88.857352
  0
ARC
  5
1C8
102
{ACAD_REACTORS
330
525
102
}
330
1F
100
AcDbEntity
  8
LC-002-002-----0
 62
     7
370
    50
100
AcDbCircle
 10
437.668375
 20
2613.594557
 30
0.0
 40
3.999999999999818
100
AcDbArc
 50
248.5
 51
268.92
  0
ARC
  5
1C9
102
{ACAD_REACTORS
330
525
102
}
330
1F
100
AcDbEntity
  8
LC-002-002-----0
 62
     7
370
    50
100
AcDbCircle
 10
420.498555
 20
2601.490196
 30
0.0
 40
4.0
100
AcDbArc
 50
90.0
 51
93.008498
  0
ARC
  5
1CA
102
{ACAD_REACTORS
330
525
102
}
330
1F
100
AcDbEntity
  8
LC-002-002-----0
 62
     7
370
    50
100
AcDbCircle
 10
421.212303
 20
2603.490196
 30
0.0
 40
2.00000000000002
100
AcDbArc
 50
5.0
 51
90.0
  0
ARC
  5
1CB
102
{ACAD_REACTORS
330
525
102
}
330
1F
100
AcDbEntity
  8
LC-002-002-----0
 62
     7
370
    50
100
AcDbCircle
 10
425.163116
 20
2598.490196
 30
0.0
 40
1.499999999999967
100
AcDbArc
 50
185.0
 51
270.0
  0
ARC
  5
1CC
102
{ACAD_REACTORS
330
525
102
}
330
1F
100
AcDbEntity
  8
LC-002-002-----0
 62
     7
370
    50
100
AcDbCircle
 10
438.514478
 20
2598.990196
 30
0.0
 40
2.0
100
AcDbArc
 50
270.0
 51
329.727841
  0
ARC
  5
1CD
102
{ACAD_REACTORS
330
525
102
}
330
1F
100
AcDbEntity
  8
LC-002-002-----0
 62
     7
370
    50
100
AcDbCircle
 10
444.559963
 20
2595.46144
 30
0.0
 40
4.99999999999976
100
AcDbArc
 50
88.92
 51
149.727841
  0
ARC
  5
1CE
102
{ACAD_REACTORS
330
525
102
}
330
1F
100
AcDbEntity
  8
LC-002-002-----0
 62
     7
370
    50
100
AcDbCircle
 10
808.768111
 20
2587.658675
 30
0.0
 40
4.499999999999912
100
AcDbArc
 50
6.0
 51
88.869594
  0
ARC
  5
1CF
102
{ACAD_REACTORS
330
525
102
}
330
1F
100
AcDbEntity
  8
LC-002-002-----0
 62
     7
370
    50
100
AcDbCircle
 10
823.511931
 20
2586.098789
 30
0.0
 40
9.999999999999959
100
AcDbArc
 50
186.0
 51
238.973004
  0
ARC
  5
1D0
102
{ACAD_REACTORS
330
525
102
}
330
1F
100
AcDbEntity
  8
LC-002-002-----0
 62
     7
370
    50
100
AcDbCircle
 10
815.780303
 20
2573.244921
 30
0.0
 40
5.00000000000006
100
AcDbArc
 50
6.0
 51
58.973004
  0
LINE
  5
1D1
102
{ACAD_REACTORS
330
525
102
}
330
1F
100
AcDbEntity
  8
LC-002-002-----0
 62
     7
370
    50
100
AcDbLine
 10
866.692694
 20
2409.44425
 30
0.0
 11
855.969359
 21
2409.912441
 31
0.0
  0
ARC
  5
1D2
102
{ACAD_REACTORS
330
525
102
}
330
1F
100
AcDbEntity
  8
LC-002-002-----0
 62
     7
370
    50
100
AcDbCircle
 10
866.474598
 20
2404.449008
 30
0.0
 40
5.000000000000012
100
AcDbArc
 50
15.0
 51
87.5
  0
LINE
  5
1D3
102
{ACAD_REACTORS
330
525
102
}
330
1F
100
AcDbEntity
  8
LC-002-002-----0
 62
     7
370
    50
100
AcDbLine
 10
871.391421
 20
2405.417689
 30
0.0
 11
871.304227
 21
2405.743104
 31
0.0
  0
ARC
  5
1D4
102
{ACAD_REACTORS
330
525
102
}
330
1F
100
AcDbEntity
  8
LC-002-002-----0
 62
     7
370
    50
100
AcDbCircle
 10
873.323273
 20
2405.935327
 30
0.0
 40
1.999999999999997
100
AcDbArc
 50
261.666667
 51
270.0
  0
ARC
  5
1D5
102
{ACAD_REACTORS
330
525
102
}
330
1F
100
AcDbEntity
  8
LC-002-002-----0
 62
     7
370
    50
100
AcDbCircle
 10
873.323273
 20
2405.935327
 30
0.0
 40
1.999999999999746
100
AcDbArc
 50
253.333333
 51
261.666667
  0
ARC
  5
1D6
102
{ACAD_REACTORS
330
525
102
}
330
1F
100
AcDbEntity
  8
LC-002-002-----0
 62
     7
370
    50
100
AcDbCircle
 10
873.323273
 20
2405.935327
 30
0.0
 40
2.000000000000096
100
AcDbArc
 50
245.0
 51
253.333333
  0
ARC
  5
1D7
102
{ACAD_REACTORS
330
525
102
}
330
1F
100
AcDbEntity
  8
LC-002-002-----0
 62
     7
370
    50
100
AcDbCircle
 10
873.323273
 20
2405.935327
 30
0.0
 40
2.000000000000143
100
AcDbArc
 50
236.666667
 51
245.0
  0
ARC
  5
1D8
102
{ACAD_REACTORS
330
525
102
}
330
1F
100
AcDbEntity
  8
LC-002-002-----0
 62
     7
370
    50
100
AcDbCircle
 10
873.323273
 20
2405.935327
 30
0.0
 40
2.000000000000057
100
AcDbArc
 50
228.333333
 51
236.666667
  0
ARC
  5
1D9
102
{ACAD_REACTORS
330
525
102
}
330
1F
100
AcDbEntity
  8
LC-002-002-----0
 62
     7
370
    50
100
AcDbCircle
 10
873.323273
 20
2405.935327
 30
0.0
 40
2.000000000000149
100
AcDbArc
 50
220.0
 51
228.333333
  0
ARC
  5
1DA
102
{ACAD_REACTORS
330
525
102
}
330
1F
100
AcDbEntity
  8
LC-002-002-----0
 62
     7
370
    50
100
AcDbCircle
 10
873.323273
 20
2405.935327
 30
0.0
 40
2.000000000000034
100
AcDbArc
 50
211.666667
 51
220.0
  0
ARC
  5
1DB
102
{ACAD_REACTORS
330
525
102
}
330
1F
100
AcDbEntity
  8
LC-002-002-----0
 62
     7
370
    50
100
AcDbCircle
 10
873.323273
 20
2405.935327
 30
0.0
 40
2.000000000000003
100
AcDbArc
 50
203.333333
 51
211.666667
  0
ARC
  5
1DC
102
{ACAD_REACTORS
330
525
102
}
330
1F
100
AcDbEntity
  8
LC-002-002-----0
 62
     7
370
    50
100
AcDbCircle
 10
873.323273
 20
2405.935327
 30
0.0
 40
2.000000000000052
100
AcDbArc
 50
195.0
 51
203.333333
  0
ARC
  5
1DD
102
{ACAD_REACTORS
330
525
102
}
330
1F
100
AcDbEntity
  8
LC-002-002-----0
 62
     7
370
    50
100
AcDbCircle
 10
996.253965
 20
2405.935327
 30
0.0
 40
2.0
100
AcDbArc
 50
270.0
 51
345.0
  0
LINE
  5
1DE
102
{ACAD_REACTORS
330
525
102
}
330
1F
100
AcDbEntity
  8
LC-002-002-----0
 62
     7
370
    50
100
AcDbLine
 10
998.185817
 20
2405.417689
 30
0.0
 11
998.273011
 21
2405.743104
 31
0.0
  0
ARC
  5
1DF
102
{ACAD_REACTORS
330
525
102
}
330
1F
100
AcDbEntity
  8
LC-002-002-----0
 62
     7
370
    50
100
AcDbCircle
 10
1003.102641
 20
2404.449008
 30
0.0
 40
5.000000000000243
100
AcDbArc
 50
92.5
 51
165.0
  0
LINE
  5
1E0
102
{ACAD_REACTORS
330
525
102
}
330
1F
100
AcDbEntity
  8
LC-002-002-----0
 62
     7
370
    50
100
AcDbLine
 10
1002.884544
 20
2409.44425
 30
0.0
 11
1198.341508
 21
2417.978085
 31
0.0
  0
ARC
  5
1E1
102
{ACAD_REACTORS
330
525
102
}
330
1F
100
AcDbEntity
  8
LC-002-002-----0
 62
     7
370
    50
100
AcDbCircle
 10
1237.68283
 20
2573.244921
 30
0.0
 40
4.999999999999977
100
AcDbArc
 50
121.370362
 51
174.0
  0
ARC
  5
1E2
102
{ACAD_REACTORS
330
525
102
}
330
1F
100
AcDbEntity
  8
LC-002-002-----0
 62
     7
370
    50
100
AcDbCircle
 10
1230.915445
 20
2584.344583
 30
0.0
 40
8.000000000000282
100
AcDbArc
 50
301.370362
 51
354.0
  0
ARC
  5
1E3
102
{ACAD_REACTORS
330
525
102
}
330
1F
100
AcDbEntity
  8
LC-002-002-----0
 62
     7
370
    50
100
AcDbCircle
 10
1242.089427
 20
2594.990196
 30
0.0
 40
2.0
100
AcDbArc
 50
90.0
 51
174.0
  0
ARC
  5
1E4
102
{ACAD_REACTORS
330
525
102
}
330
1F
100
AcDbEntity
  8
LC-002-002-----0
 62
     7
370
    50
100
AcDbCircle
 10
1251.414122
 20
2598.490196
 30
0.0
 40
1.5
100
AcDbArc
 50
270.0
 51
355.0
  0
ARC
  5
1E5
102
{ACAD_REACTORS
330
525
102
}
330
1F
100
AcDbEntity
  8
LC-002-002-----0
 62
     7
370
    50
100
AcDbCircle
 10
1255.364935
 20
2603.490196
 30
0.0
 40
2.0
100
AcDbArc
 50
90.0
 51
175.0
  0
ARC
  5
1E6
102
{ACAD_REACTORS
330
525
102
}
330
1F
100
AcDbEntity
  8
LC-002-002-----0
 62
     7
370
    50
100
AcDbCircle
 10
1256.078683
 20
2601.490196
 30
0.0
 40
3.999999999999914
100
AcDbArc
 50
86.991502
 51
90.0
  0
LINE
  5
1E7
102
{ACAD_REACTORS
330
525
102
}
330
1F
100
AcDbEntity
  8
LC-002-002-----0
 62
     7
370
    50
100
AcDbLine
 10
1256.288619
 20
2605.484683
 30
0.0
 11
1256.288619
 21
2605.990196
 31
0.0
  0
LINE
  5
1E8
102
{ACAD_REACTORS
330
525
102
}
330
1F
100
AcDbEntity
  8
LC-002-002-----0
 62
     7
370
    50
100
AcDbLine
 10
420.288619
 20
2605.484683
 30
0.0
 11
420.288619
 21
2605.990196
 31
0.0
  0
LINE
  5
1E9
102
{ACAD_REACTORS
330
525
102
}
330
1F
100
AcDbEntity
  8
LC-002-002-----0
 62
     7
370
    50
100
AcDbLine
 10
1256.288619
 20
2605.990196
 30
0.0
 11
1268.288619
 21
2605.990196
 31
0.0
  0
LINE
  5
1EA
102
{ACAD_REACTORS
330
525
102
}
330
1F
100
AcDbEntity
  8
LC-002-002-----0
 62
     7
370
    50
100
AcDbLine
 10
408.288619
 20
2605.990196
 30
0.0
 11
420.288619
 21
2605.990196
 31
0.0
  0
LINE
  5
1EB
102
{ACAD_REACTORS
330
525
102
}
330
1F
100
AcDbEntity
  8
LC-002-002-----0
 62
     7
370
    50
100
AcDbLine
 10
992.180519
 20
2416.754603
 30
0.0
 11
992.196899
 21
2416.941829
 31
0.0
  0
ARC
  5
1EC
102
{ACAD_REACTORS
330
525
102
}
330
1F
100
AcDbEntity
  8
LC-002-002-----0
 62
     7
370
    50
100
AcDbCircle
 10
991.184324
 20
2416.841759
 30
0.0
 40
0.9999999999998556
100
AcDbArc
 50
280.0
 51
355.0
  0
LINE
  5
1ED
102
{ACAD_REACTORS
330
525
102
}
330
1F
100
AcDbEntity
  8
LC-002-002-----0
 62
     7
370
    50
100
AcDbLine
 10
975.219417
 20
2413.011288
 30
0.0
 11
991.357972
 21
2415.856951
 31
0.0
  0
ARC
  5
1EE
102
{ACAD_REACTORS
330
525
102
}
330
1F
100
AcDbEntity
  8
LC-002-002-----0
 62
     7
370
    50
100
AcDbCircle
 10
974.351176
 20
2417.935327
 30
0.0
 40
5.0
100
AcDbArc
 50
270.0
 51
280.0
  0
ARC
  5
1EF
102
{ACAD_REACTORS
330
525
102
}
330
1F
100
AcDbEntity
  8
LC-002-002-----0
 62
     7
370
    50
100
AcDbCircle
 10
878.392914
 20
2416.841759
 30
0.0
 40
0.9999999999999674
100
AcDbArc
 50
185.0
 51
260.0
  0
LINE
  5
1F0
102
{ACAD_REACTORS
330
525
102
}
330
1F
100
AcDbEntity
  8
LC-002-002-----0
 62
     7
370
    50
100
AcDbLine
 10
480.087653
 20
2598.679982
 30
0.0
 11
477.851426
 21
2599.44825
 31
0.0
  0
LINE
  5
1F1
102
{ACAD_REACTORS
330
525
102
}
330
1F
100
AcDbEntity
  8
LC-002-002-----0
 62
     7
370
    50
100
AcDbLine
 10
1258.288619
 20
2567.990196
 30
0.0
 11
1239.288619
 21
2567.990196
 31
0.0
  0
LINE
  5
1F2
102
{ACAD_REACTORS
330
525
102
}
330
1F
100
AcDbEntity
  8
LC-002-002-----0
 62
     7
370
    50
100
AcDbLine
 10
777.288619
 20
2567.990196
 30
0.0
 11
777.288619
 21
2474.910267
 31
0.0
  0
LINE
  5
1F3
102
{ACAD_REACTORS
330
525
102
}
330
1F
100
AcDbEntity
  8
LC-002-002-----0
 62
     7
370
    50
100
AcDbLine
 10
1258.288619
 20
2479.824463
 30
0.0
 11
1258.288619
 21
2567.990196
 31
0.0
  0
LINE
  5
1F4
102
{ACAD_REACTORS
330
525
102
}
330
1F
100
AcDbEntity
  8
LC-002-002-----0
 62
     7
370
    50
100
AcDbLine
 10
758.288619
 20
2474.910267
 30
0.0
 11
758.288619
 21
2567.990196
 31
0.0
  0
LINE
  5
1F5
102
{ACAD_REACTORS
330
525
102
}
330
1F
100
AcDbEntity
  8
LC-002-002-----0
 62
     7
370
    50
100
AcDbLine
 10
1239.288619
 20
2567.990196
 30
0.0
 11
1239.288619
 21
2480.438737
 31
0.0
  0
LINE
  5
1F6
102
{ACAD_REACTORS
330
525
102
}
330
1F
100
AcDbEntity
  8
LC-002-002-----0
 62
     7
370
    50
100
AcDbLine
 10
758.288619
 20
2567.990196
 30
0.0
 11
777.288619
 21
2567.990196
 31
0.0
  0
INSERT
  5
213
102
{ACAD_REACTORS
330
525
102
}
330
1F
100
AcDbEntity
  8
LC-009-003-----0
 62
     7
370
    25
100
AcDbBlockReference
  2
LCDIM1
 10
0.0
 20
0.0
 30
0.0
  0
ARC
  5
214
102
{ACAD_REACTORS
330
51B
102
}
330
1F
100
AcDbEntity
  8
LC-004-002-RND-0
 62
     7
370
    25
100
AcDbCircle
 10
1214.955984
 20
2066.049188
 30
0.0
 40
12.00000000000023
100
AcDbArc
 50
0.0
 51
97.194141
  0
LINE
  5
215
102
{ACAD_REACTORS
330
51B
102
}
330
1F
100
AcDbEntity
  8
LC-002-002-----0
 62
     7
370
    25
100
AcDbLine
 10
1213.453203
 20
2077.954718
 30
0.0
 11
1205.159118
 21
2076.907793
 31
0.0
  0
LINE
  5
216
102
{ACAD_REACTORS
330
51B
102
}
330
1F
100
AcDbEntity
  8
LC-002-002-----0
 62
     7
370
    25
100
AcDbLine
 10
481.849171
 20
1863.216972
 30
0.0
 11
812.603932
 21
1863.216972
 31
0.0
  0
LINE
  5
217
102
{ACAD_REACTORS
330
51B
102
}
330
1F
100
AcDbEntity
  8
LC-002-002-----0
 62
     7
370
    25
100
AcDbLine
 10
481.849171
 20
1855.223028
 30
0.0
 11
812.603932
 21
1855.223028
 31
0.0
  0
ARC
  5
218
102
{ACAD_REACTORS
330
51B
102
}
330
1F
100
AcDbEntity
  8
LC-004-002-RND-0
 62
     7
370
    25
100
AcDbCircle
 10
811.603932
 20
1854.223028
 30
0.0
 40
1.0
100
AcDbArc
 50
0.0
 51
90.0
  0
ARC
  5
219
102
{ACAD_REACTORS
330
51B
102
}
330
1F
100
AcDbEntity
  8
LC-004-002-RND-0
 62
     7
370
    25
100
AcDbCircle
 10
811.603932
 20
1864.216972
 30
0.0
 40
1.0
100
AcDbArc
 50
270.0
 51
0.0
  0
ARC
  5
21A
102
{ACAD_REACTORS
330
51B
102
}
330
1F
100
AcDbEntity
  8
LC-002-002-----0
 62
     7
370
    25
100
AcDbCircle
 10
481.849171
 20
1859.22
 30
0.0
 40
3.996971516100075
100
AcDbArc
 50
90.0
 51
270.0
  0
ARC
  5
21B
102
{ACAD_REACTORS
330
51B
102
}
330
1F
100
AcDbEntity
  8
LC-002-002-----0
 62
     7
370
    25
100
AcDbCircle
 10
812.603932
 20
1859.22
 30
0.0
 40
3.996971516100075
100
AcDbArc
 50
270.0
 51
90.0
  0
LINE
  5
21C
102
{ACAD_REACTORS
330
51B
102
}
330
1F
100
AcDbEntity
  8
LC-002-002-----0
 62
     7
370
    25
100
AcDbLine
 10
481.849171
 20
1775.216972
 30
0.0
 11
812.603932
 21
1775.216972
 31
0.0
  0
LINE
  5
21D
102
{ACAD_REACTORS
330
51B
102
}
330
1F
100
AcDbEntity
  8
LC-002-002-----0
 62
     7
370
    25
100
AcDbLine
 10
481.849171
 20
1767.223028
 30
0.0
 11
812.603932
 21
1767.223028
 31
0.0
  0
ARC
  5
21E
102
{ACAD_REACTORS
330
51B
102
}
330
1F
100
AcDbEntity
  8
LC-004-002-RND-0
 62
     7
370
    25
100
AcDbCircle
 10
811.603932
 20
1766.223028
 30
0.0
 40
1.0
100
AcDbArc
 50
0.0
 51
90.0
  0
ARC
  5
21F
102
{ACAD_REACTORS
330
51B
102
}
330
1F
100
AcDbEntity
  8
LC-004-002-RND-0
 62
     7
370
    25
100
AcDbCircle
 10
811.603932
 20
1776.216972
 30
0.0
 40
1.0
100
AcDbArc
 50
270.0
 51
0.0
  0
ARC
  5
220
102
{ACAD_REACTORS
330
51B
102
}
330
1F
100
AcDbEntity
  8
LC-002-002-----0
 62
     7
370
    25
100
AcDbCircle
 10
481.849171
 20
1771.22
 30
0.0
 40
3.996971516100075
100
AcDbArc
 50
90.0
 51
270.0
  0
ARC
  5
221
102
{ACAD_REACTORS
330
51B
102
}
330
1F
100
AcDbEntity
  8
LC-002-002-----0
 62
     7
370
    25
100
AcDbCircle
 10
812.603932
 20
1771.22
 30
0.0
 40
3.996971516100075
100
AcDbArc
 50
270.0
 51
90.0
  0
ARC
  5
222
102
{ACAD_REACTORS
330
51B
102
}
330
1F
100
AcDbEntity
  8
LC-004-002-RND-0
 62
     7
370
    25
100
AcDbCircle
 10
832.603932
 20
1706.793675
 30
0.0
 40
19.99999999999989
100
AcDbArc
 50
180.0
 51
262.805859
  0
ARC
  5
223
102
{ACAD_REACTORS
330
51B
102
}
330
1F
100
AcDbEntity
  8
LC-004-002-RND-0
 62
     7
370
    25
100
AcDbCircle
 10
841.507132
 20
1702.629432
 30
0.0
 40
14.99999999999989
100
AcDbArc
 50
180.0
 51
262.805859
  0
CIRCLE
  5
224
102
{ACAD_REACTORS
330
51B
102
}
330
1F
100
AcDbEntity
  8
LC-005-006-MLN-0
  6
DASHDOT
 62
     7
370
    25
100
AcDbCircle
 10
818.288619
 20
1647.22
 30
0.0
 40
17.5
  0
INSERT
  5
23E
102
{ACAD_REACTORS
330
525
102
}
330
1F
100
AcDbEntity
  8
LC-009-003-----0
 62
     7
370
    25
100
AcDbBlockReference
  2
LCDIM2
 10
0.0
 20
0.0
 30
0.0
  0
INSERT
  5
258
102
{ACAD_REACTORS
330
51B
102
}
330
1F
100
AcDbEntity
  8
LC-009-003-----0
 62
     7
370
    25
100
AcDbBlockReference
  2
LCDIM3
 10
0.0
 20
0.0
 30
0.0
  0
INSERT
  5
272
102
{ACAD_REACTORS
330
51B
102
}
330
1F
100
AcDbEntity
  8
LC-009-003-----0
 62
     7
370
    25
100
AcDbBlockReference
  2
LCDIM4
 10
0.0
 20
0.0
 30
0.0
  0
TEXT
  5
274
330
1F
100
AcDbEntity
  8
LC-010-004-----0
 62
     7
370
    18
100
AcDbText
 10
1182.184172
 20
477.026367
 30
0.0
 40
17.5
  1
Art.Nr.: 
 41
0.8
  7
LCTX0-400-0-0pDIN-Schrift
100
AcDbText
  0
TEXT
  5
275
330
1F
100
AcDbEntity
  8
LC-010-004-----0
 62
     7
370
    25
100
AcDbText
 10
1266.273209
 20
473.276367
 30
0.0
 40
25.0
  1
580
 41
0.8
  7
LCTX0-400-0-0pDIN-Schrift
100
AcDbText
  0
TEXT
  5
276
330
1F
100
AcDbEntity
  8
LC-010-004-----0
 62
     7
370
    18
100
AcDbText
 10
1705.154015
 20
561.575101
 30
0.0
 40
17.5
  1
Material: 
 41
0.8
  7
LCTX0-400-0-0pDIN-Schrift
100
AcDbText
  0
TEXT
  5
277
330
1F
100
AcDbEntity
  8
LC-010-004-----0
 62
     7
370
    25
100
AcDbText
 10
1801.369036
 20
557.825101
 30
0.0
 40
25.0
  1
Cristalite
 41
0.8
  7
LCTX0-400-0-0pDIN-Schrift
100
AcDbText
  0
ARC
  5
278
102
{ACAD_REACTORS
330
51C
102
}
330
1F
100
AcDbEntity
  8
LC-004-002-RND-0
 62
     7
370
    25
100
AcDbCircle
 10
343.411849
 20
2568.990196
 30
0.0
 40
0.9999999999999647
100
AcDbArc
 50
165.282451
 51
270.0
  0
LINE
  5
279
102
{ACAD_REACTORS
330
51C
102
}
330
1F
100
AcDbEntity
  8
LC-002-002-----0
 62
     7
370
    50
100
AcDbLine
 10
1258.288619
 20
2605.990196
 30
0.0
 11
1330.638527
 21
2605.990196
 31
0.0
  0
LINE
  5
27A
102
{ACAD_REACTORS
330
51C
102
}
330
1F
100
AcDbEntity
  8
LC-002-002-----0
 62
     7
370
    50
100
AcDbLine
 10
1258.288619
 20
2605.990196
 30
0.0
 11
1258.288619
 21
2567.990196
 31
0.0
  0
LINE
  5
27B
102
{ACAD_REACTORS
330
51C
102
}
330
1F
100
AcDbEntity
  8
LC-002-002-----0
 62
     7
370
    50
100
AcDbLine
 10
1258.288619
 20
2567.990196
 30
0.0
 11
1334.461984
 21
2567.990196
 31
0.0
  0
LINE
  5
27C
102
{ACAD_REACTORS
330
51C
102
}
330
1F
100
AcDbEntity
  8
LC-002-002-----0
 62
     7
370
    25
100
AcDbLine
 10
1330.638527
 20
2605.990196
 30
0.0
 11
1335.026269
 21
2591.9854
 31
0.0
  0
LINE
  5
27D
102
{ACAD_REACTORS
330
51C
102
}
330
1F
100
AcDbEntity
  8
LC-002-002-----0
 62
     7
370
    25
100
AcDbLine
 10
1335.026269
 20
2591.9854
 30
0.0
 11
1331.223559
 21
2580.318952
 31
0.0
  0
LINE
  5
27E
102
{ACAD_REACTORS
330
51C
102
}
330
1F
100
AcDbEntity
  8
LC-002-002-----0
 62
     7
370
    25
100
AcDbLine
 10
1331.223559
 20
2580.318952
 30
0.0
 11
1334.461984
 21
2567.990196
 31
0.0
  0
LINE
  5
27F
102
{ACAD_REACTORS
330
51C
102
}
330
1F
100
AcDbEntity
  8
LC-002-002-----0
 62
     7
370
    50
100
AcDbLine
 10
418.288619
 20
2605.990196
 30
0.0
 11
345.938711
 21
2605.990196
 31
0.0
  0
LINE
  5
280
102
{ACAD_REACTORS
330
51C
102
}
330
1F
100
AcDbEntity
  8
LC-002-002-----0
 62
     7
370
    25
100
AcDbLine
 10
345.938711
 20
2605.990196
 30
0.0
 11
341.550969
 21
2591.9854
 31
0.0
  0
LINE
  5
281
102
{ACAD_REACTORS
330
51C
102
}
330
1F
100
AcDbEntity
  8
LC-002-002-----0
 62
     7
370
    25
100
AcDbLine
 10
341.550969
 20
2591.9854
 30
0.0
 11
345.353679
 21
2580.318952
 31
0.0
  0
LINE
  5
282
102
{ACAD_REACTORS
330
51C
102
}
330
1F
100
AcDbEntity
  8
LC-002-002-----0
 62
     7
370
    25
100
AcDbLine
 10
345.353679
 20
2580.318952
 30
0.0
 11
342.444659
 21
2569.24425
 31
0.0
  0
LINE
  5
283
102
{ACAD_REACTORS
330
51C
102
}
330
1F
100
AcDbEntity
  8
LC-002-002-----0
 62
     7
370
    50
100
AcDbLine
 10
418.288619
 20
2567.990196
 30
0.0
 11
343.411849
 21
2567.990196
 31
0.0
  0
LINE
  5
284
102
{ACAD_REACTORS
330
51C
102
}
330
1F
100
AcDbEntity
  8
LC-002-002-----0
 62
     7
370
    50
100
AcDbLine
 10
418.288619
 20
2605.990196
 30
0.0
 11
418.288619
 21
2567.990196
 31
0.0
  0
INSERT
  5
290
102
{ACAD_REACTORS
330
51C
102
}
330
1F
100
AcDbEntity
  8
LC-011-005-----0
 62
     7
370
    25
100
AcDbBlockReference
  2
*X16
 10
0.0
 20
0.0
 30
0.0
  0
LINE
  5
291
102
{ACAD_REACTORS
330
51E
102
}
330
1F
100
AcDbEntity
  8
LC-002-002-----0
 62
     7
370
    25
100
AcDbLine
 10
1501.864001
 20
1933.22
 30
0.0
 11
1501.864001
 21
1917.72
 31
0.0
  0
LINE
  5
292
102
{ACAD_REACTORS
330
51F
102
}
330
1F
100
AcDbEntity
  8
LC-002-002-----0
 62
     7
370
    25
100
AcDbLine
 10
1533.823548
 20
1821.72
 30
0.0
 11
1533.823548
 21
1896.72
 31
0.0
  0
LINE
  5
293
102
{ACAD_REACTORS
330
51D
102
}
330
1F
100
AcDbEntity
  8
LC-002-002-----0
 62
     7
370
    25
100
AcDbLine
 10
1451.644969
 20
2097.849179
 30
0.0
 11
1452.237093
 21
2098.986639
 31
0.0
  0
LINE
  5
294
102
{ACAD_REACTORS
330
51D
102
}
330
1F
100
AcDbEntity
  8
LC-002-002-----0
 62
     7
370
    25
100
AcDbLine
 10
1453.953969
 20
2097.849179
 30
0.0
 11
1454.546093
 21
2098.986639
 31
0.0
  0
LINE
  5
295
102
{ACAD_REACTORS
330
51D
102
}
330
1F
100
AcDbEntity
  8
LC-002-002-----0
 62
     7
370
    25
100
AcDbLine
 10
1456.262969
 20
2097.849179
 30
0.0
 11
1456.855093
 21
2098.986639
 31
0.0
  0
LINE
  5
296
102
{ACAD_REACTORS
330
51D
102
}
330
1F
100
AcDbEntity
  8
LC-002-002-----0
 62
     7
370
    25
100
AcDbLine
 10
1458.571969
 20
2097.849179
 30
0.0
 11
1459.164093
 21
2098.986639
 31
0.0
  0
LINE
  5
297
102
{ACAD_REACTORS
330
51D
102
}
330
1F
100
AcDbEntity
  8
LC-002-002-----0
 62
     7
370
    25
100
AcDbLine
 10
1452.799909
 20
2051.571292
 30
0.0
 11
1453.392033
 21
2052.708752
 31
0.0
  0
LINE
  5
298
102
{ACAD_REACTORS
330
51D
102
}
330
1F
100
AcDbEntity
  8
LC-002-002-----0
 62
     7
370
    25
100
AcDbLine
 10
1455.108909
 20
2051.571292
 30
0.0
 11
1455.701033
 21
2052.708752
 31
0.0
  0
LINE
  5
299
102
{ACAD_REACTORS
330
51D
102
}
330
1F
100
AcDbEntity
  8
LC-002-002-----0
 62
     7
370
    25
100
AcDbLine
 10
1457.417909
 20
2051.571292
 30
0.0
 11
1458.010033
 21
2052.708752
 31
0.0
  0
LINE
  5
29A
102
{ACAD_REACTORS
330
51D
102
}
330
1F
100
AcDbEntity
  8
LC-002-002-----0
 62
     7
370
    25
100
AcDbLine
 10
1459.726909
 20
2051.571292
 30
0.0
 11
1460.319033
 21
2052.708752
 31
0.0
  0
LINE
  5
29B
102
{ACAD_REACTORS
330
51D
102
}
330
1F
100
AcDbEntity
  8
LC-002-002-----0
 62
     7
370
    25
100
AcDbLine
 10
1481.864001
 20
2097.678966
 30
0.0
 11
1460.600001
 21
2097.678966
 31
0.0
  0
LINE
  5
29C
102
{ACAD_REACTORS
330
51D
102
}
330
1F
100
AcDbEntity
  8
LC-002-002-----0
 62
     7
370
    25
100
AcDbLine
 10
1451.364001
 20
2097.678966
 30
0.0
 11
1450.864001
 21
2097.678966
 31
0.0
  0
LINE
  5
29D
102
{ACAD_REACTORS
330
51D
102
}
330
1F
100
AcDbEntity
  8
LC-002-002-----0
 62
     7
370
    25
100
AcDbLine
 10
1450.864001
 20
2052.878966
 30
0.0
 11
1450.864001
 21
2097.678966
 31
0.0
  0
LINE
  5
29E
102
{ACAD_REACTORS
330
51D
102
}
330
1F
100
AcDbEntity
  8
LC-002-002-----0
 62
     7
370
    25
100
AcDbLine
 10
1481.864001
 20
2052.901449
 30
0.0
 11
1477.864001
 21
2052.901449
 31
0.0
  0
LINE
  5
29F
102
{ACAD_REACTORS
330
51D
102
}
330
1F
100
AcDbEntity
  8
LC-002-002-----0
 62
     7
370
    25
100
AcDbLine
 10
1477.864001
 20
2052.878966
 30
0.0
 11
1460.600001
 21
2052.878966
 31
0.0
  0
LINE
  5
2A0
102
{ACAD_REACTORS
330
51D
102
}
330
1F
100
AcDbEntity
  8
LC-002-002-----0
 62
     7
370
    25
100
AcDbLine
 10
1451.364001
 20
2052.878966
 30
0.0
 11
1450.864001
 21
2052.878966
 31
0.0
  0
LINE
  5
2A1
102
{ACAD_REACTORS
330
51E
102
}
330
1F
100
AcDbEntity
  8
LC-002-002-----0
 62
     7
370
    25
100
AcDbLine
 10
1479.464001
 20
1885.72
 30
0.0
 11
1479.464001
 21
1914.22
 31
0.0
  0
LINE
  5
2A2
102
{ACAD_REACTORS
330
51E
102
}
330
1F
100
AcDbEntity
  8
LC-002-002-----0
 62
     7
370
    25
100
AcDbLine
 10
1479.864001
 20
1859.22
 30
0.0
 11
1479.864001
 21
1885.32
 31
0.0
  0
LINE
  5
2A3
102
{ACAD_REACTORS
330
51D
102
}
330
1F
100
AcDbEntity
  8
LC-002-002-----0
 62
     7
370
    25
100
AcDbLine
 10
1481.889641
 20
2048.878966
 30
0.0
 11
1481.889641
 21
2052.926339
 31
0.0
  0
ARC
  5
2A4
102
{ACAD_REACTORS
330
51E
102
}
330
1F
100
AcDbEntity
  8
LC-004-002-RND-0
 62
     7
370
    25
100
AcDbCircle
 10
1501.864001
 20
1859.22
 30
0.0
 40
22.00000000000046
100
AcDbArc
 50
180.0
 51
270.0
  0
LINE
  5
2A5
102
{ACAD_REACTORS
330
51D
102
}
330
1F
100
AcDbEntity
  8
LC-002-002-----0
 62
     7
370
    25
100
AcDbLine
 10
1521.864001
 20
1933.22
 30
0.0
 11
1521.864001
 21
1999.044339
 31
0.0
  0
LINE
  5
2A6
102
{ACAD_REACTORS
330
51E
102
}
330
1F
100
AcDbEntity
  8
LC-002-002-----0
 62
     7
370
    25
100
AcDbLine
 10
1524.264001
 20
1887.673149
 30
0.0
 11
1524.264001
 21
1914.22
 31
0.0
  0
LINE
  5
2A7
102
{ACAD_REACTORS
330
51D
102
}
330
1F
100
AcDbEntity
  8
LC-002-002-----0
 62
     7
370
    25
100
AcDbLine
 10
1484.266129
 20
2095.276838
 30
0.0
 11
1481.864261
 21
2097.678705
 31
0.0
  0
LINE
  5
2A8
102
{ACAD_REACTORS
330
51D
102
}
330
1F
100
AcDbEntity
  8
LC-002-002-----0
 62
     7
370
    25
100
AcDbLine
 10
1459.726909
 20
2098.986639
 30
0.0
 11
1460.319033
 21
2097.849179
 31
0.0
  0
LINE
  5
2A9
102
{ACAD_REACTORS
330
51D
102
}
330
1F
100
AcDbEntity
  8
LC-002-002-----0
 62
     7
370
    25
100
AcDbLine
 10
1457.417909
 20
2098.986639
 30
0.0
 11
1458.010033
 21
2097.849179
 31
0.0
  0
LINE
  5
2AA
102
{ACAD_REACTORS
330
51D
102
}
330
1F
100
AcDbEntity
  8
LC-002-002-----0
 62
     7
370
    25
100
AcDbLine
 10
1455.108909
 20
2098.986639
 30
0.0
 11
1455.701033
 21
2097.849179
 31
0.0
  0
LINE
  5
2AB
102
{ACAD_REACTORS
330
51D
102
}
330
1F
100
AcDbEntity
  8
LC-002-002-----0
 62
     7
370
    25
100
AcDbLine
 10
1452.799909
 20
2098.986639
 30
0.0
 11
1453.392033
 21
2097.849179
 31
0.0
  0
LINE
  5
2AC
102
{ACAD_REACTORS
330
51D
102
}
330
1F
100
AcDbEntity
  8
LC-002-002-----0
 62
     7
370
    25
100
AcDbLine
 10
1458.571969
 20
2052.708752
 30
0.0
 11
1459.164093
 21
2051.571292
 31
0.0
  0
LINE
  5
2AD
102
{ACAD_REACTORS
330
51D
102
}
330
1F
100
AcDbEntity
  8
LC-002-002-----0
 62
     7
370
    25
100
AcDbLine
 10
1456.262969
 20
2052.708752
 30
0.0
 11
1456.855093
 21
2051.571292
 31
0.0
  0
LINE
  5
2AE
102
{ACAD_REACTORS
330
51D
102
}
330
1F
100
AcDbEntity
  8
LC-002-002-----0
 62
     7
370
    25
100
AcDbLine
 10
1453.953969
 20
2052.708752
 30
0.0
 11
1454.546093
 21
2051.571292
 31
0.0
  0
LINE
  5
2AF
102
{ACAD_REACTORS
330
51D
102
}
330
1F
100
AcDbEntity
  8
LC-002-002-----0
 62
     7
370
    25
100
AcDbLine
 10
1451.644969
 20
2052.708752
 30
0.0
 11
1452.237093
 21
2051.571292
 31
0.0
  0
LINE
  5
2B0
102
{ACAD_REACTORS
330
51E
102
}
330
1F
100
AcDbEntity
  8
LC-002-002-----0
 62
     7
370
    25
100
AcDbLine
 10
1524.264001
 20
1887.673149
 30
0.0
 11
1525.984031
 21
1887.987385
 31
0.0
  0
LINE
  5
2B1
102
{ACAD_REACTORS
330
51E
102
}
330
1F
100
AcDbEntity
  8
LC-002-002-----0
 62
     7
370
    25
100
AcDbLine
 10
1533.120304
 20
1894.718137
 30
0.0
 11
1533.823548
 21
1894.718137
 31
0.0
  0
LINE
  5
2B2
102
{ACAD_REACTORS
330
51E
102
}
330
1F
100
AcDbEntity
  8
LC-002-002-----0
 62
     7
370
    25
100
AcDbLine
 10
1501.864001
 20
1837.22
 30
0.0
 11
1515.555186
 21
1837.22
 31
0.0
  0
LINE
  5
2B3
102
{ACAD_REACTORS
330
51E
102
}
330
1F
100
AcDbEntity
  8
LC-002-002-----0
 62
     7
370
    25
100
AcDbLine
 10
1533.120304
 20
1823.721863
 30
0.0
 11
1533.823548
 21
1823.721863
 31
0.0
  0
LINE
  5
2B4
102
{ACAD_REACTORS
330
51E
102
}
330
1F
100
AcDbEntity
  8
LC-002-002-----0
 62
     7
370
    25
100
AcDbLine
 10
1523.365168
 20
1830.931061
 30
0.0
 11
1525.984031
 21
1830.452615
 31
0.0
  0
LINE
  5
2B5
102
{ACAD_REACTORS
330
51E
102
}
330
1F
100
AcDbEntity
  8
LC-002-002-----0
 62
     7
370
    25
100
AcDbLine
 10
1479.464028
 20
1885.719973
 30
0.0
 11
1479.864109
 21
1885.319892
 31
0.0
  0
ARC
  5
2B6
102
{ACAD_REACTORS
330
51D
102
}
330
1F
100
AcDbEntity
  8
LC-002-002-----0
 62
     7
370
    25
100
AcDbCircle
 10
1460.600001
 20
2052.561966
 30
0.0
 40
0.3170000000000073
100
AcDbArc
 50
90.0
 51
152.36046
  0
ARC
  5
2B7
102
{ACAD_REACTORS
330
51D
102
}
330
1F
100
AcDbEntity
  8
LC-002-002-----0
 62
     7
370
    25
100
AcDbCircle
 10
1460.600001
 20
2097.995966
 30
0.0
 40
0.3169999999996659
100
AcDbArc
 50
207.567177
 51
270.0
  0
ARC
  5
2B8
102
{ACAD_REACTORS
330
51D
102
}
330
1F
100
AcDbEntity
  8
LC-002-002-----0
 62
     7
370
    25
100
AcDbCircle
 10
1459.445501
 20
2051.717233
 30
0.0
 40
0.3169999999998364
100
AcDbArc
 50
207.317979
 51
332.682021
  0
ARC
  5
2B9
102
{ACAD_REACTORS
330
51D
102
}
330
1F
100
AcDbEntity
  8
LC-002-002-----0
 62
     7
370
    25
100
AcDbCircle
 10
1459.445501
 20
2098.840698
 30
0.0
 40
0.3169999999996896
100
AcDbArc
 50
27.394588
 51
152.605412
  0
ARC
  5
2BA
102
{ACAD_REACTORS
330
51D
102
}
330
1F
100
AcDbEntity
  8
LC-002-002-----0
 62
     7
370
    25
100
AcDbCircle
 10
1458.291001
 20
2097.995966
 30
0.0
 40
0.3169999999996481
100
AcDbArc
 50
207.567177
 51
332.432823
  0
ARC
  5
2BB
102
{ACAD_REACTORS
330
51D
102
}
330
1F
100
AcDbEntity
  8
LC-002-002-----0
 62
     7
370
    25
100
AcDbCircle
 10
1458.291001
 20
2052.561966
 30
0.0
 40
0.3169999999998636
100
AcDbArc
 50
27.63954
 51
152.36046
  0
ARC
  5
2BC
102
{ACAD_REACTORS
330
51D
102
}
330
1F
100
AcDbEntity
  8
LC-002-002-----0
 62
     7
370
    25
100
AcDbCircle
 10
1457.136501
 20
2051.717233
 30
0.0
 40
0.3169999999998498
100
AcDbArc
 50
207.317979
 51
332.682021
  0
ARC
  5
2BD
102
{ACAD_REACTORS
330
51D
102
}
330
1F
100
AcDbEntity
  8
LC-002-002-----0
 62
     7
370
    25
100
AcDbCircle
 10
1457.136501
 20
2098.840698
 30
0.0
 40
0.3170000000000786
100
AcDbArc
 50
27.394588
 51
152.605412
  0
ARC
  5
2BE
102
{ACAD_REACTORS
330
51D
102
}
330
1F
100
AcDbEntity
  8
LC-002-002-----0
 62
     7
370
    25
100
AcDbCircle
 10
1455.982001
 20
2097.995966
 30
0.0
 40
0.3170000000004543
100
AcDbArc
 50
207.567177
 51
332.432823
  0
ARC
  5
2BF
102
{ACAD_REACTORS
330
51D
102
}
330
1F
100
AcDbEntity
  8
LC-002-002-----0
 62
     7
370
    25
100
AcDbCircle
 10
1455.982001
 20
2052.561966
 30
0.0
 40
0.3169999999998827
100
AcDbArc
 50
27.63954
 51
152.36046
  0
ARC
  5
2C0
102
{ACAD_REACTORS
330
51D
102
}
330
1F
100
AcDbEntity
  8
LC-002-002-----0
 62
     7
370
    25
100
AcDbCircle
 10
1454.827501
 20
2051.717233
 30
0.0
 40
0.3169999999998498
100
AcDbArc
 50
207.317979
 51
332.682021
  0
ARC
  5
2C1
102
{ACAD_REACTORS
330
51D
102
}
330
1F
100
AcDbEntity
  8
LC-002-002-----0
 62
     7
370
    25
100
AcDbCircle
 10
1454.827501
 20
2098.840698
 30
0.0
 40
0.3169999999992859
100
AcDbArc
 50
27.394588
 51
152.605412
  0
ARC
  5
2C2
102
{ACAD_REACTORS
330
51D
102
}
330
1F
100
AcDbEntity
  8
LC-002-002-----0
 62
     7
370
    25
100
AcDbCircle
 10
1453.673001
 20
2097.995966
 30
0.0
 40
0.3169999999996303
100
AcDbArc
 50
207.567177
 51
332.432823
  0
ARC
  5
2C3
102
{ACAD_REACTORS
330
51D
102
}
330
1F
100
AcDbEntity
  8
LC-002-002-----0
 62
     7
370
    25
100
AcDbCircle
 10
1453.673001
 20
2052.561966
 30
0.0
 40
0.3169999999998636
100
AcDbArc
 50
27.63954
 51
152.36046
  0
ARC
  5
2C4
102
{ACAD_REACTORS
330
51D
102
}
330
1F
100
AcDbEntity
  8
LC-002-002-----0
 62
     7
370
    25
100
AcDbCircle
 10
1452.518501
 20
2051.717233
 30
0.0
 40
0.3169999999998364
100
AcDbArc
 50
207.317979
 51
332.682021
  0
ARC
  5
2C5
102
{ACAD_REACTORS
330
51D
102
}
330
1F
100
AcDbEntity
  8
LC-002-002-----0
 62
     7
370
    25
100
AcDbCircle
 10
1452.518501
 20
2098.840698
 30
0.0
 40
0.3169999999996896
100
AcDbArc
 50
27.394588
 51
152.605412
  0
ARC
  5
2C6
102
{ACAD_REACTORS
330
51D
102
}
330
1F
100
AcDbEntity
  8
LC-002-002-----0
 62
     7
370
    25
100
AcDbCircle
 10
1451.364001
 20
2052.561966
 30
0.0
 40
0.3170000000003047
100
AcDbArc
 50
27.63954
 51
90.0
  0
ARC
  5
2C7
102
{ACAD_REACTORS
330
51D
102
}
330
1F
100
AcDbEntity
  8
LC-002-002-----0
 62
     7
370
    25
100
AcDbCircle
 10
1451.364001
 20
2097.995966
 30
0.0
 40
0.3170000000000073
100
AcDbArc
 50
270.0
 51
332.432823
  0
ARC
  5
2C8
102
{ACAD_REACTORS
330
51D
102
}
330
1F
100
AcDbEntity
  8
LC-002-002-----0
 62
     7
370
    25
100
AcDbCircle
 10
1483.864001
 20
2057.278966
 30
0.0
 40
38.00000000000019
100
AcDbArc
 50
0.000006
 51
89.393653
  0
ARC
  5
2C9
102
{ACAD_REACTORS
330
51E
102
}
330
1F
100
AcDbEntity
  8
LC-002-002-----0
 62
     7
370
    25
100
AcDbCircle
 10
1524.533358
 20
1837.325225
 30
0.0
 40
6.499999999999427
100
AcDbArc
 50
199.07704
 51
259.645823
  0
ARC
  5
2CA
102
{ACAD_REACTORS
330
51E
102
}
330
1F
100
AcDbEntity
  8
LC-002-002-----0
 62
     7
370
    25
100
AcDbCircle
 10
1515.555186
 20
1834.22
 30
0.0
 40
3.000000000000147
100
AcDbArc
 50
19.055448
 51
90.0
  0
ARC
  5
2CB
102
{ACAD_REACTORS
330
51E
102
}
330
1F
100
AcDbEntity
  8
LC-002-002-----0
 62
     7
370
    25
100
AcDbCircle
 10
1533.120304
 20
1825.721863
 30
0.0
 40
2.000000000000076
100
AcDbArc
 50
244.152631
 51
270.0
  0
ARC
  5
2CC
102
{ACAD_REACTORS
330
51E
102
}
330
1F
100
AcDbEntity
  8
LC-002-002-----0
 62
     7
370
    25
100
AcDbCircle
 10
1533.120304
 20
1892.718137
 30
0.0
 40
1.999999999999545
100
AcDbArc
 50
90.0
 51
115.847369
  0
ARC
  5
2CD
102
{ACAD_REACTORS
330
51E
102
}
330
1F
100
AcDbEntity
  8
LC-002-002-----0
 62
     7
370
    25
100
AcDbCircle
 10
1534.864001
 20
1829.321796
 30
0.0
 40
6.0000000000001
100
AcDbArc
 50
196.283517
 51
244.155028
  0
ARC
  5
2CE
102
{ACAD_REACTORS
330
51E
102
}
330
1F
100
AcDbEntity
  8
LC-002-002-----0
 62
     7
370
    25
100
AcDbCircle
 10
1534.864001
 20
1889.118204
 30
0.0
 40
6.000000000000001
100
AcDbArc
 50
115.844972
 51
163.716483
  0
ARC
  5
2CF
102
{ACAD_REACTORS
330
51E
102
}
330
1F
100
AcDbEntity
  8
LC-002-002-----0
 62
     7
370
    25
100
AcDbCircle
 10
1525.265186
 20
1826.517737
 30
0.0
 40
3.999999999999933
100
AcDbArc
 50
16.281751
 51
79.647048
  0
ARC
  5
2D0
102
{ACAD_REACTORS
330
51E
102
}
330
1F
100
AcDbEntity
  8
LC-002-002-----0
 62
     7
370
    25
100
AcDbCircle
 10
1525.265186
 20
1891.922263
 30
0.0
 40
3.99999999999998
100
AcDbArc
 50
280.352952
 51
343.718249
  0
INSERT
  5
2D5
102
{ACAD_REACTORS
330
51D
102
}
330
1F
100
AcDbEntity
  8
LC-002-002-----0
 62
     7
370
    25
100
AcDbBlockReference
  2
POLY1
 10
0.0
 20
0.0
 30
0.0
  0
LINE
  5
2D6
102
{ACAD_REACTORS
330
51D
102
}
330
1F
100
AcDbEntity
  8
LC-002-002-----0
 62
     7
370
    25
100
AcDbLine
 10
1481.864001
 20
2048.878966
 30
0.0
 11
1481.864001
 21
2001.563212
 31
0.0
  0
LINE
  5
2D7
102
{ACAD_REACTORS
330
51E
102
}
330
1F
100
AcDbEntity
  8
LC-002-002-----0
 62
     7
370
    25
100
AcDbLine
 10
1474.159208
 20
1916.72
 30
0.0
 11
1474.159208
 21
1914.22
 31
0.0
  0
LINE
  5
2D8
102
{ACAD_REACTORS
330
51E
102
}
330
1F
100
AcDbEntity
  8
LC-002-002-----0
 62
     7
370
    25
100
AcDbLine
 10
1474.909208
 20
1917.72
 30
0.0
 11
1474.909208
 21
1917.47
 31
0.0
  0
LINE
  5
2D9
102
{ACAD_REACTORS
330
51E
102
}
330
1F
100
AcDbEntity
  8
LC-002-002-----0
 62
     7
370
    25
100
AcDbLine
 10
1476.064001
 20
1917.72
 30
0.0
 11
1476.064001
 21
1931.22
 31
0.0
  0
LINE
  5
2DA
102
{ACAD_REACTORS
330
51E
102
}
330
1F
100
AcDbEntity
  8
LC-002-002-----0
 62
     7
370
    25
100
AcDbLine
 10
1527.664001
 20
1917.72
 30
0.0
 11
1527.664001
 21
1931.22
 31
0.0
  0
LINE
  5
2DB
102
{ACAD_REACTORS
330
51E
102
}
330
1F
100
AcDbEntity
  8
LC-002-002-----0
 62
     7
370
    25
100
AcDbLine
 10
1528.818794
 20
1917.72
 30
0.0
 11
1528.818794
 21
1917.47
 31
0.0
  0
LINE
  5
2DC
102
{ACAD_REACTORS
330
51E
102
}
330
1F
100
AcDbEntity
  8
LC-002-002-----0
 62
     7
370
    25
100
AcDbLine
 10
1529.568794
 20
1916.72
 30
0.0
 11
1529.568794
 21
1914.22
 31
0.0
  0
LINE
  5
2DD
102
{ACAD_REACTORS
330
51E
102
}
330
1F
100
AcDbEntity
  8
LC-002-002-----0
 62
     7
370
    25
100
AcDbLine
 10
1474.909209
 20
1917.470001
 30
0.0
 11
1474.159209
 21
1916.720001
 31
0.0
  0
LINE
  5
2DE
102
{ACAD_REACTORS
330
51E
102
}
330
1F
100
AcDbEntity
  8
LC-002-002-----0
 62
     7
370
    25
100
AcDbLine
 10
1525.664001
 20
1933.22
 30
0.0
 11
1478.064001
 21
1933.22
 31
0.0
  0
LINE
  5
2DF
102
{ACAD_REACTORS
330
51E
102
}
330
1F
100
AcDbEntity
  8
LC-002-002-----0
 62
     7
370
    25
100
AcDbLine
 10
1528.818777
 20
1917.72
 30
0.0
 11
1527.664001
 21
1917.72
 31
0.0
  0
LINE
  5
2E0
102
{ACAD_REACTORS
330
51E
102
}
330
1F
100
AcDbEntity
  8
LC-002-002-----0
 62
     7
370
    25
100
AcDbLine
 10
1529.568794
 20
1914.22
 30
0.0
 11
1474.159208
 21
1914.22
 31
0.0
  0
LINE
  5
2E1
102
{ACAD_REACTORS
330
51E
102
}
330
1F
100
AcDbEntity
  8
LC-002-002-----0
 62
     7
370
    25
100
AcDbLine
 10
1528.818793
 20
1917.470001
 30
0.0
 11
1529.568793
 21
1916.720001
 31
0.0
  0
ARC
  5
2E2
102
{ACAD_REACTORS
330
51E
102
}
330
1F
100
AcDbEntity
  8
LC-002-002-----0
 62
     7
370
    25
100
AcDbCircle
 10
1525.664001
 20
1931.22
 30
0.0
 40
2.00000000000091
100
AcDbArc
 50
0.0
 51
90.0
  0
ARC
  5
2E3
102
{ACAD_REACTORS
330
51E
102
}
330
1F
100
AcDbEntity
  8
LC-002-002-----0
 62
     7
370
    25
100
AcDbCircle
 10
1478.064001
 20
1931.22
 30
0.0
 40
1.999999999999545
100
AcDbArc
 50
90.0
 51
180.0
  0
LINE
  5
2E4
102
{ACAD_REACTORS
330
51F
102
}
330
1F
100
AcDbEntity
  8
LC-002-002-----0
 62
     7
370
    25
100
AcDbLine
 10
1576.466229
 20
1914.22
 30
0.0
 11
1576.466229
 21
1804.22
 31
0.0
  0
LINE
  5
2E5
102
{ACAD_REACTORS
330
51F
102
}
330
1F
100
AcDbEntity
  8
LC-002-002-----0
 62
     7
370
    25
100
AcDbLine
 10
1572.466229
 20
1804.22
 30
0.0
 11
1576.466229
 21
1804.22
 31
0.0
  0
LINE
  5
2E6
102
{ACAD_REACTORS
330
51F
102
}
330
1F
100
AcDbEntity
  8
LC-002-002-----0
 62
     7
370
    25
100
AcDbLine
 10
1536.323548
 20
1819.715036
 30
0.0
 11
1536.323548
 21
1821.72
 31
0.0
  0
LINE
  5
2E7
102
{ACAD_REACTORS
330
51F
102
}
330
1F
100
AcDbEntity
  8
LC-002-002-----0
 62
     7
370
    25
100
AcDbLine
 10
1540.653323
 20
1816.47061
 30
0.0
 11
1541.663671
 21
1814.720635
 31
0.0
  0
LINE
  5
2E8
102
{ACAD_REACTORS
330
51F
102
}
330
1F
100
AcDbEntity
  8
LC-002-002-----0
 62
     7
370
    25
100
AcDbLine
 10
1536.323548
 20
1821.72
 30
0.0
 11
1533.823548
 21
1821.72
 31
0.0
  0
LINE
  5
2E9
102
{ACAD_REACTORS
330
51F
102
}
330
1F
100
AcDbEntity
  8
LC-002-002-----0
 62
     7
370
    25
100
AcDbLine
 10
1546.860191
 20
1811.72
 30
0.0
 11
1562.323548
 21
1811.72
 31
0.0
  0
LINE
  5
2EA
102
{ACAD_REACTORS
330
51F
102
}
330
1F
100
AcDbEntity
  8
LC-002-002-----0
 62
     7
370
    25
100
AcDbLine
 10
1572.006006
 20
1804.22
 30
0.0
 11
1572.466229
 21
1804.22
 31
0.0
  0
ARC
  5
2EB
102
{ACAD_REACTORS
330
51F
102
}
330
1F
100
AcDbEntity
  8
LC-002-002-----0
 62
     7
370
    25
100
AcDbCircle
 10
1562.323548
 20
1807.72
 30
0.0
 40
4.000000000000309
100
AcDbArc
 50
14.492147
 51
90.0
  0
ARC
  5
2EC
102
{ACAD_REACTORS
330
51F
102
}
330
1F
100
AcDbEntity
  8
LC-002-002-----0
 62
     7
370
    25
100
AcDbCircle
 10
1546.860191
 20
1817.72
 30
0.0
 40
5.999999999999893
100
AcDbArc
 50
209.988476
 51
270.0
  0
ARC
  5
2ED
102
{ACAD_REACTORS
330
51F
102
}
330
1F
100
AcDbEntity
  8
LC-002-002-----0
 62
     7
370
    25
100
AcDbCircle
 10
1536.323548
 20
1813.97
 30
0.0
 40
4.999999999999823
100
AcDbArc
 50
30.016153
 51
82.072225
  0
ARC
  5
2EE
102
{ACAD_REACTORS
330
51F
102
}
330
1F
100
AcDbEntity
  8
LC-002-002-----0
 62
     7
370
    25
100
AcDbCircle
 10
1537.123548
 20
1819.714563
 30
0.0
 40
0.7999999999999545
100
AcDbArc
 50
180.0
 51
262.062606
  0
LINE
  5
2EF
102
{ACAD_REACTORS
330
51F
102
}
330
1F
100
AcDbEntity
  8
LC-002-002-----0
 62
     7
370
    25
100
AcDbLine
 10
1572.466229
 20
1914.22
 30
0.0
 11
1576.466229
 21
1914.22
 31
0.0
  0
LINE
  5
2F0
102
{ACAD_REACTORS
330
51F
102
}
330
1F
100
AcDbEntity
  8
LC-002-002-----0
 62
     7
370
    25
100
AcDbLine
 10
1540.653323
 20
1901.96939
 30
0.0
 11
1541.663671
 21
1903.719365
 31
0.0
  0
LINE
  5
2F1
102
{ACAD_REACTORS
330
51F
102
}
330
1F
100
AcDbEntity
  8
LC-002-002-----0
 62
     7
370
    25
100
AcDbLine
 10
1536.323548
 20
1896.72
 30
0.0
 11
1533.823548
 21
1896.72
 31
0.0
  0
LINE
  5
2F2
102
{ACAD_REACTORS
330
51F
102
}
330
1F
100
AcDbEntity
  8
LC-002-002-----0
 62
     7
370
    25
100
AcDbLine
 10
1546.860191
 20
1906.72
 30
0.0
 11
1562.323548
 21
1906.72
 31
0.0
  0
LINE
  5
2F3
102
{ACAD_REACTORS
330
51F
102
}
330
1F
100
AcDbEntity
  8
LC-002-002-----0
 62
     7
370
    25
100
AcDbLine
 10
1572.006006
 20
1914.22
 30
0.0
 11
1572.466229
 21
1914.22
 31
0.0
  0
ARC
  5
2F4
102
{ACAD_REACTORS
330
51F
102
}
330
1F
100
AcDbEntity
  8
LC-002-002-----0
 62
     7
370
    25
100
AcDbCircle
 10
1562.323548
 20
1910.72
 30
0.0
 40
4.0
100
AcDbArc
 50
270.0
 51
345.507853
  0
ARC
  5
2F5
102
{ACAD_REACTORS
330
51F
102
}
330
1F
100
AcDbEntity
  8
LC-002-002-----0
 62
     7
370
    25
100
AcDbCircle
 10
1572.006006
 20
1908.22
 30
0.0
 40
6.0
100
AcDbArc
 50
90.0
 51
165.530548
  0
ARC
  5
2F6
102
{ACAD_REACTORS
330
51F
102
}
330
1F
100
AcDbEntity
  8
LC-002-002-----0
 62
     7
370
    25
100
AcDbCircle
 10
1546.860191
 20
1900.72
 30
0.0
 40
6.0
100
AcDbArc
 50
90.0
 51
150.011524
  0
ARC
  5
2F7
102
{ACAD_REACTORS
330
51F
102
}
330
1F
100
AcDbEntity
  8
LC-002-002-----0
 62
     7
370
    25
100
AcDbCircle
 10
1536.323548
 20
1904.47
 30
0.0
 40
4.999999999999969
100
AcDbArc
 50
277.927775
 51
329.983847
  0
ARC
  5
2F8
102
{ACAD_REACTORS
330
51F
102
}
330
1F
100
AcDbEntity
  8
LC-002-002-----0
 62
     7
370
    25
100
AcDbCircle
 10
1537.123548
 20
1898.725437
 30
0.0
 40
0.7999999999996246
100
AcDbArc
 50
97.937394
 51
180.0
  0
LINE
  5
2F9
102
{ACAD_REACTORS
330
51F
102
}
330
1F
100
AcDbEntity
  8
LC-002-002-----0
 62
     7
370
    25
100
AcDbLine
 10
1536.323548
 20
1896.72
 30
0.0
 11
1536.323548
 21
1898.725437
 31
0.0
  0
LINE
  5
2FA
102
{ACAD_REACTORS
330
51D
102
}
330
1F
100
AcDbEntity
  8
LC-002-002-----0
 62
     7
370
    25
100
AcDbLine
 10
1481.864001
 20
1990.300873
 30
0.0
 11
1481.864001
 21
1933.22
 31
0.0
  0
LINE
  5
2FB
102
{ACAD_REACTORS
330
51D
102
}
330
1F
100
AcDbEntity
  8
LC-002-002-----0
 62
     7
370
    25
100
AcDbLine
 10
1521.864001
 20
2010.306679
 30
0.0
 11
1521.864001
 21
2057.279966
 31
0.0
  0
ARC
  5
2FC
102
{ACAD_REACTORS
330
51F
102
}
330
1F
100
AcDbEntity
  8
LC-002-002-----0
 62
     7
370
    25
100
AcDbCircle
 10
1572.006006
 20
1810.22
 30
0.0
 40
5.999999999999878
100
AcDbArc
 50
194.469452
 51
270.0
  0
LINE
  5
2FD
102
{ACAD_REACTORS
330
51E
102
}
330
1F
100
AcDbEntity
  8
LC-002-002-----0
 62
     7
370
    25
100
AcDbLine
 10
1476.064001
 20
1917.72
 30
0.0
 11
1474.909225
 21
1917.72
 31
0.0
  0
LINE
  5
2FE
102
{ACAD_REACTORS
330
528
102
}
330
1F
100
AcDbEntity
  8
LC-002-002-----0
 62
     7
370
    50
100
AcDbLine
 10
1260.638117
 20
1073.295357
 30
0.0
 11
1260.638117
 21
840.295357
 31
0.0
  0
LINE
  5
2FF
102
{ACAD_REACTORS
330
528
102
}
330
1F
100
AcDbEntity
  8
LC-002-002-----0
 62
     7
370
    50
100
AcDbLine
 10
1265.638117
 20
835.295357
 30
0.0
 11
1678.638117
 21
835.295357
 31
0.0
  0
LINE
  5
300
102
{ACAD_REACTORS
330
527
102
}
330
1F
100
AcDbEntity
  8
LC-002-002-----0
 62
     7
370
    50
100
AcDbLine
 10
466.704624
 20
1067.732212
 30
0.0
 11
466.704624
 21
837.732212
 31
0.0
  0
LINE
  5
301
102
{ACAD_REACTORS
330
527
102
}
330
1F
100
AcDbEntity
  8
LC-002-002-----0
 62
     7
370
    50
100
AcDbLine
 10
471.704624
 20
832.732212
 30
0.0
 11
881.704624
 21
832.732212
 31
0.0
  0
LINE
  5
302
102
{ACAD_REACTORS
330
527
102
}
330
1F
100
AcDbEntity
  8
LC-002-002-----0
 62
     7
370
    50
100
AcDbLine
 10
886.704624
 20
837.732212
 30
0.0
 11
886.704624
 21
1067.732212
 31
0.0
  0
LINE
  5
303
102
{ACAD_REACTORS
330
528
102
}
330
1F
100
AcDbEntity
  8
LC-002-002-----0
 62
     7
370
    50
100
AcDbLine
 10
1683.638117
 20
840.295357
 30
0.0
 11
1683.638117
 21
1073.295357
 31
0.0
  0
LINE
  5
304
102
{ACAD_REACTORS
330
528
102
}
330
1F
100
AcDbEntity
  8
LC-002-002-----0
 62
     7
370
    50
100
AcDbLine
 10
1678.638117
 20
1078.295357
 30
0.0
 11
1265.638117
 21
1078.295357
 31
0.0
  0
ARC
  5
305
102
{ACAD_REACTORS
330
528
102
}
330
1F
100
AcDbEntity
  8
LC-004-002-RND-0
 62
     7
370
    50
100
AcDbCircle
 10
1265.638117
 20
1073.295357
 30
0.0
 40
5.0
100
AcDbArc
 50
90.0
 51
180.0
  0
ARC
  5
306
102
{ACAD_REACTORS
330
528
102
}
330
1F
100
AcDbEntity
  8
LC-004-002-RND-0
 62
     7
370
    50
100
AcDbCircle
 10
1678.638117
 20
1073.295357
 30
0.0
 40
5.0
100
AcDbArc
 50
0.0
 51
90.0
  0
ARC
  5
307
102
{ACAD_REACTORS
330
528
102
}
330
1F
100
AcDbEntity
  8
LC-004-002-RND-0
 62
     7
370
    50
100
AcDbCircle
 10
1678.638117
 20
840.295357
 30
0.0
 40
5.0
100
AcDbArc
 50
270.0
 51
0.0
  0
ARC
  5
308
102
{ACAD_REACTORS
330
528
102
}
330
1F
100
AcDbEntity
  8
LC-004-002-RND-0
 62
     7
370
    50
100
AcDbCircle
 10
1265.638117
 20
840.295357
 30
0.0
 40
5.0
100
AcDbArc
 50
180.0
 51
270.0
  0
LINE
  5
309
330
1F
100
AcDbEntity
  8
LC-002-002-----0
  6
DASHDOT
 62
     7
370
    25
100
AcDbLine
 10
886.704624
 20
806.954403
 30
0.0
 11
886.704624
 21
1110.371216
 31
0.0
  0
LINE
  5
30A
102
{ACAD_REACTORS
330
527
102
}
330
1F
100
AcDbEntity
  8
LC-002-002-----0
 62
     7
370
    50
100
AcDbLine
 10
881.704624
 20
1072.732212
 30
0.0
 11
471.704624
 21
1072.732212
 31
0.0
  0
ARC
  5
30B
102
{ACAD_REACTORS
330
527
102
}
330
1F
100
AcDbEntity
  8
LC-004-002-RND-0
 62
     7
370
    50
100
AcDbCircle
 10
471.704624
 20
1067.732212
 30
0.0
 40
5.0
100
AcDbArc
 50
90.0
 51
180.0
  0
ARC
  5
30C
102
{ACAD_REACTORS
330
527
102
}
330
1F
100
AcDbEntity
  8
LC-004-002-RND-0
 62
     7
370
    50
100
AcDbCircle
 10
881.704624
 20
1067.732212
 30
0.0
 40
5.0
100
AcDbArc
 50
0.0
 51
90.0
  0
ARC
  5
30D
102
{ACAD_REACTORS
330
527
102
}
330
1F
100
AcDbEntity
  8
LC-004-002-RND-0
 62
     7
370
    50
100
AcDbCircle
 10
471.704624
 20
837.732212
 30
0.0
 40
5.0
100
AcDbArc
 50
180.0
 51
270.0
  0
ARC
  5
30E
102
{ACAD_REACTORS
330
527
102
}
330
1F
100
AcDbEntity
  8
LC-004-002-RND-0
 62
     7
370
    50
100
AcDbCircle
 10
881.704624
 20
837.732212
 30
0.0
 40
5.0
100
AcDbArc
 50
270.0
 51
0.0
  0
INSERT
  5
328
102
{ACAD_REACTORS
330
527
102
}
330
1F
100
AcDbEntity
  8
LC-009-003-----0
 62
     7
370
    25
100
AcDbBlockReference
  2
LCDIM5
 10
0.0
 20
0.0
 30
0.0
  0
INSERT
  5
342
102
{ACAD_REACTORS
330
527
102
}
330
1F
100
AcDbEntity
  8
LC-009-003-----0
 62
     7
370
    25
100
AcDbBlockReference
  2
LCDIM6
 10
0.0
 20
0.0
 30
0.0
  0
INSERT
  5
351
102
{ACAD_REACTORS
330
527
102
}
330
1F
100
AcDbEntity
  8
LC-009-003-----0
 62
     7
370
    25
100
AcDbBlockReference
  2
LCDIM7
 10
0.0
 20
0.0
 30
0.0
  0
TEXT
  5
352
102
{ACAD_REACTORS
330
527
102
}
330
1F
100
AcDbEntity
  8
LC-010-004-----0
 62
     7
370
    35
100
AcDbText
 10
459.414848
 20
1195.652653
 30
0.0
 40
35.0
  1
Ausschnitt übergreifend 1:20
 41
0.8
  7
LCTX0-400-0-0pDIN-Schrift
100
AcDbText
  0
INSERT
  5
36C
102
{ACAD_REACTORS
330
528
102
}
330
1F
100
AcDbEntity
  8
LC-009-003-----0
 62
     7
370
    25
100
AcDbBlockReference
  2
LCDIM8
 10
0.0
 20
0.0
 30
0.0
  0
INSERT
  5
386
102
{ACAD_REACTORS
330
528
102
}
330
1F
100
AcDbEntity
  8
LC-009-003-----0
 62
     7
370
    25
100
AcDbBlockReference
  2
LCDIM9
 10
0.0
 20
0.0
 30
0.0
  0
INSERT
  5
395
102
{ACAD_REACTORS
330
528
102
}
330
1F
100
AcDbEntity
  8
LC-009-003-----0
 62
     7
370
    25
100
AcDbBlockReference
  2
LCDIM10
 10
0.0
 20
0.0
 30
0.0
  0
TEXT
  5
396
102
{ACAD_REACTORS
330
528
102
}
330
1F
100
AcDbEntity
  8
LC-010-004-----0
 62
     7
370
    35
100
AcDbText
 10
1260.657689
 20
1127.783769
 30
0.0
 40
35.0
  1
Ausschnitt Unterbau 1:20
 41
0.8
  7
LCTX0-400-0-0pDIN-Schrift
100
AcDbText
  0
LINE
  5
397
330
1F
100
AcDbEntity
  8
LC-002-002-----0
  6
DASHDOT
 62
     7
370
    25
100
AcDbLine
 10
877.204624
 20
806.954403
 30
0.0
 11
877.204624
 21
1110.371216
 31
0.0
  0
LINE
  5
398
330
1F
100
AcDbEntity
  8
LC-002-002-----0
  6
DASHDOT
 62
     7
370
    25
100
AcDbLine
 10
661.704624
 20
806.954403
 30
0.0
 11
661.704624
 21
1110.371216
 31
0.0
  0
LINE
  5
399
330
1F
100
AcDbEntity
  8
LC-002-002-----0
  6
DASHDOT
 62
     7
370
    25
100
AcDbLine
 10
671.204624
 20
806.954403
 30
0.0
 11
671.204624
 21
1110.371216
 31
0.0
  0
INSERT
  5
3B3
330
1F
100
AcDbEntity
  8
LC-009-003-----0
 62
     7
370
    25
100
AcDbBlockReference
  2
LCDIM11
 10
0.0
 20
0.0
 30
0.0
  0
LINE
  5
3B4
102
{ACAD_REACTORS
330
520
102
}
330
1F
100
AcDbEntity
  8
LC-002-002-----0
 62
     7
370
    50
100
AcDbLine
 10
1778.450455
 20
1621.22
 30
0.0
 11
1778.450455
 21
1609.219612
 31
0.0
  0
LINE
  5
3B5
102
{ACAD_REACTORS
330
520
102
}
330
1F
100
AcDbEntity
  8
LC-002-002-----0
 62
     7
370
    50
100
AcDbLine
 10
1778.450455
 20
1609.219623
 30
0.0
 11
1781.590794
 21
1609.521842
 31
0.0
  0
ARC
  5
3B6
102
{ACAD_REACTORS
330
520
102
}
330
1F
100
AcDbEntity
  8
LC-004-002-RND-0
 62
     7
370
    50
100
AcDbCircle
 10
1781.399206
 20
2106.927356
 30
0.0
 40
2.000000000000032
100
AcDbArc
 50
38.175218
 51
84.502927
  0
LINE
  5
3B7
102
{ACAD_REACTORS
330
520
102
}
330
1F
100
AcDbEntity
  8
LC-002-002-----0
 62
     7
370
    50
100
AcDbLine
 10
1785.450455
 20
1613.638201
 30
0.0
 11
1785.450455
 21
1634.22
 31
0.0
  0
LINE
  5
3B8
102
{ACAD_REACTORS
330
520
102
}
330
1F
100
AcDbEntity
  8
LC-002-002-----0
 62
     7
370
    50
100
AcDbLine
 10
1785.450455
 20
1634.22
 30
0.0
 11
1785.450455
 21
2084.22
 31
0.0
  0
LINE
  5
3B9
102
{ACAD_REACTORS
330
520
102
}
330
1F
100
AcDbEntity
  8
LC-002-002-----0
 62
     7
370
    50
100
AcDbLine
 10
1776.450455
 20
1621.22
 30
0.0
 11
1775.83272
 21
1621.22
 31
0.0
  0
ARC
  5
3BA
102
{ACAD_REACTORS
330
520
102
}
330
1F
100
AcDbEntity
  8
LC-002-002-----0
 62
     7
370
    50
100
AcDbCircle
 10
1774.450455
 20
1619.774539
 30
0.0
 40
1.999999999999839
100
AcDbArc
 50
46.182498
 51
85.000002
  0
ARC
  5
3BB
102
{ACAD_REACTORS
330
520
102
}
330
1F
100
AcDbEntity
  8
LC-004-002-RND-0
 62
     7
370
    50
100
AcDbCircle
 10
1771.450455
 20
1625.418131
 30
0.0
 40
5.0
100
AcDbArc
 50
0.0
 51
83.261696
  0
ARC
  5
3BC
102
{ACAD_REACTORS
330
520
102
}
330
1F
100
AcDbEntity
  8
LC-002-002-----0
 62
     7
370
    50
100
AcDbCircle
 10
1770.950455
 20
1623.594119
 30
0.0
 40
1.5
100
AcDbArc
 50
180.0
 51
265.0
  0
ARC
  5
3BD
102
{ACAD_REACTORS
330
520
102
}
330
1F
100
AcDbEntity
  8
LC-002-002-----0
 62
     7
370
    50
100
AcDbCircle
 10
1729.794742
 20
2066.354778
 30
0.0
 40
67.64415288739993
100
AcDbArc
 50
34.636755
 51
38.175218
  0
LINE
  5
3BE
102
{ACAD_REACTORS
330
520
102
}
330
1F
100
AcDbEntity
  8
LC-002-002-----0
 62
     7
370
    50
100
AcDbLine
 10
1785.450455
 20
2084.22
 30
0.0
 11
1785.450455
 21
2104.801799
 31
0.0
  0
LINE
  5
3BF
102
{ACAD_REACTORS
330
520
102
}
330
1F
100
AcDbEntity
  8
LC-002-002-----0
 62
     7
370
    25
100
AcDbLine
 10
1590.450455
 20
1801.72
 30
0.0
 11
1590.450455
 21
1916.72
 31
0.0
  0
ARC
  5
3C0
102
{ACAD_REACTORS
330
520
102
}
330
1F
100
AcDbEntity
  8
LC-004-002-RND-0
 62
     7
370
    50
100
AcDbCircle
 10
1589.302017
 20
1915.615705
 30
0.0
 40
1.000000000000067
100
AcDbArc
 50
95.0
 51
170.0
  0
LINE
  5
3C1
102
{ACAD_REACTORS
330
520
102
}
330
1F
100
AcDbEntity
  8
LC-002-002-----0
 62
     7
370
    50
100
AcDbLine
 10
1778.450455
 20
2109.220388
 30
0.0
 11
1778.450455
 21
2097.22
 31
0.0
  0
ARC
  5
3C2
102
{ACAD_REACTORS
330
520
102
}
330
1F
100
AcDbEntity
  8
LC-004-002-RND-0
 62
     7
370
    50
100
AcDbCircle
 10
1589.312706
 20
1917.825044
 30
0.0
 40
1.199999999999968
100
AcDbArc
 50
275.0
 51
356.670864
  0
LINE
  5
3C3
102
{ACAD_REACTORS
330
520
102
}
330
1F
100
AcDbEntity
  8
LC-002-002-----0
 62
     7
370
    50
100
AcDbLine
 10
1781.590796
 20
2108.918158
 30
0.0
 11
1778.450455
 21
2109.220377
 31
0.0
  0
LINE
  5
3C4
102
{ACAD_REACTORS
330
520
102
}
330
1F
100
AcDbEntity
  8
LC-002-002-----0
 62
     7
370
    50
100
AcDbLine
 10
1770.819721
 20
1622.099827
 30
0.0
 11
1774.624766
 21
1621.766928
 31
0.0
  0
ARC
  5
3C5
102
{ACAD_REACTORS
330
520
102
}
330
1F
100
AcDbEntity
  8
LC-002-002-----0
 62
     7
370
    50
100
AcDbCircle
 10
1729.794741
 20
1652.085223
 30
0.0
 40
67.64415288739973
100
AcDbArc
 50
321.824781
 51
325.363245
  0
LINE
  5
3C6
102
{ACAD_REACTORS
330
520
102
}
330
1F
100
AcDbEntity
  8
LC-002-002-----0
 62
     7
370
    50
100
AcDbLine
 10
1776.450455
 20
2093.021869
 30
0.0
 11
1776.450455
 21
2097.22
 31
0.0
  0
LINE
  5
3C7
102
{ACAD_REACTORS
330
520
102
}
330
1F
100
AcDbEntity
  8
LC-002-002-----0
 62
     7
370
    50
100
AcDbLine
 10
1776.450455
 20
1621.22
 30
0.0
 11
1776.450455
 21
1625.418131
 31
0.0
  0
LINE
  5
3C8
102
{ACAD_REACTORS
330
520
102
}
330
1F
100
AcDbEntity
  8
LC-002-002-----0
 62
     7
370
    50
100
AcDbLine
 10
1576.466229
 20
1859.22
 30
0.0
 11
1576.466229
 21
1797.866806
 31
0.0
  0
LINE
  5
3C9
102
{ACAD_REACTORS
330
520
102
}
330
1F
100
AcDbEntity
  8
LC-002-002-----0
 62
     7
370
    50
100
AcDbLine
 10
1576.466229
 20
1797.866806
 30
0.0
 11
1576.466229
 21
1797.754654
 31
0.0
  0
LINE
  5
3CA
102
{ACAD_REACTORS
330
520
102
}
330
1F
100
AcDbEntity
  8
LC-002-002-----0
 62
     7
370
    50
100
AcDbLine
 10
1598.183829
 20
2049.664687
 30
0.0
 11
1590.510681
 21
1917.755358
 31
0.0
  0
ARC
  5
3CB
102
{ACAD_REACTORS
330
520
102
}
330
1F
100
AcDbEntity
  8
LC-004-002-RND-0
 62
     7
370
    50
100
AcDbCircle
 10
1611.123928
 20
1670.182858
 30
0.0
 40
12.99999999999998
100
AcDbArc
 50
183.329136
 51
263.242386
  0
ARC
  5
3CC
102
{ACAD_REACTORS
330
520
102
}
330
1F
100
AcDbEntity
  8
LC-004-002-RND-0
 62
     7
370
    50
100
AcDbCircle
 10
1609.106643
 20
1670.421891
 30
0.0
 40
20.00000000000018
100
AcDbArc
 50
183.329136
 51
263.242386
  0
ARC
  5
3CD
102
{ACAD_REACTORS
330
520
102
}
330
1F
100
AcDbEntity
  8
LC-004-002-RND-0
 62
     7
370
    50
100
AcDbCircle
 10
1781.399204
 20
1611.512644
 30
0.0
 40
1.999999999999955
100
AcDbArc
 50
275.497073
 51
321.824781
  0
ARC
  5
3CE
102
{ACAD_REACTORS
330
520
102
}
330
1F
100
AcDbEntity
  8
LC-004-002-RND-0
 62
     7
370
    50
100
AcDbCircle
 10
1577.057041
 20
1790.885312
 30
0.0
 40
4.999999999999818
100
AcDbArc
 50
3.329136
 51
75.0
  0
LINE
  5
3CF
102
{ACAD_REACTORS
330
520
102
}
330
1F
100
AcDbEntity
  8
LC-002-002-----0
 62
     7
370
    50
100
AcDbLine
 10
1606.797952
 20
2068.533264
 30
0.0
 11
1772.037128
 21
2088.056407
 31
0.0
  0
ARC
  5
3D0
102
{ACAD_REACTORS
330
520
102
}
330
1F
100
AcDbEntity
  8
LC-004-002-RND-0
 62
     7
370
    50
100
AcDbCircle
 10
1577.057041
 20
1927.554688
 30
0.0
 40
5.000000000000031
100
AcDbArc
 50
285.0
 51
356.670864
  0
ARC
  5
3D1
102
{ACAD_REACTORS
330
520
102
}
330
1F
100
AcDbEntity
  8
LC-002-002-----0
 62
     7
370
    50
100
AcDbCircle
 10
1578.466229
 20
1920.685346
 30
0.0
 40
2.000000000000028
100
AcDbArc
 50
105.0
 51
180.0
  0
LINE
  5
3D2
102
{ACAD_REACTORS
330
520
102
}
330
1F
100
AcDbEntity
  8
LC-002-002-----0
 62
     7
370
    50
100
AcDbLine
 10
1576.466229
 20
1859.22
 30
0.0
 11
1576.466229
 21
1920.685346
 31
0.0
  0
ARC
  5
3D3
102
{ACAD_REACTORS
330
520
102
}
330
1F
100
AcDbEntity
  8
LC-002-002-----0
 62
     7
370
    50
100
AcDbCircle
 10
1578.466229
 20
1797.754654
 30
0.0
 40
2.0
100
AcDbArc
 50
180.0
 51
255.0
  0
ARC
  5
3D4
102
{ACAD_REACTORS
330
520
102
}
330
1F
100
AcDbEntity
  8
LC-004-002-RND-0
 62
     7
370
    50
100
AcDbCircle
 10
1781.316968
 20
1634.32195
 30
0.0
 40
2.000000000000049
100
AcDbArc
 50
34.564899
 51
83.261696
  0
LINE
  5
3D5
102
{ACAD_REACTORS
330
520
102
}
330
1F
100
AcDbEntity
  8
LC-002-002-----0
 62
     7
370
    50
100
AcDbLine
 10
1589.178398
 20
2049.832849
 30
0.0
 11
1582.048603
 21
1927.26433
 31
0.0
  0
LINE
  5
3D6
102
{ACAD_REACTORS
330
520
102
}
330
1F
100
AcDbEntity
  8
LC-002-002-----0
 62
     7
370
    50
100
AcDbLine
 10
1609.63654
 20
2061.819956
 30
0.0
 11
1781.551637
 21
2082.131865
 31
0.0
  0
ARC
  5
3D7
102
{ACAD_REACTORS
330
520
102
}
330
1F
100
AcDbEntity
  8
LC-004-002-RND-0
 62
     7
370
    50
100
AcDbCircle
 10
1781.316968
 20
2084.11805
 30
0.0
 40
2.000000000000031
100
AcDbArc
 50
276.738304
 51
325.435101
  0
ARC
  5
3D8
102
{ACAD_REACTORS
330
520
102
}
330
1F
100
AcDbEntity
  8
LC-004-002-RND-0
 62
     7
370
    50
100
AcDbCircle
 10
1771.450455
 20
2093.021869
 30
0.0
 40
5.000000000000423
100
AcDbArc
 50
276.738304
 51
0.0
  0
LINE
  5
3D9
102
{ACAD_REACTORS
330
520
102
}
330
1F
100
AcDbEntity
  8
LC-002-002-----0
 62
     7
370
    50
100
AcDbLine
 10
1589.417293
 20
1916.62961
 30
0.0
 11
1589.214862
 21
1916.6119
 31
0.0
  0
LINE
  5
3DA
102
{ACAD_REACTORS
330
520
102
}
330
1F
100
AcDbEntity
  8
LC-002-002-----0
 62
     7
370
    50
100
AcDbLine
 10
1585.395586
 20
1899.22
 30
0.0
 11
1585.395586
 21
1859.22
 31
0.0
  0
LINE
  5
3DB
102
{ACAD_REACTORS
330
520
102
}
330
1F
100
AcDbEntity
  8
LC-002-002-----0
 62
     7
370
    50
100
AcDbLine
 10
1785.450455
 20
2086.592513
 30
0.0
 11
1782.963936
 21
2082.983371
 31
0.0
  0
LINE
  5
3DC
102
{ACAD_REACTORS
330
520
102
}
330
1F
100
AcDbEntity
  8
LC-002-002-----0
 62
     7
370
    50
100
AcDbLine
 10
1588.31721
 20
1915.789353
 30
0.0
 11
1585.395586
 21
1899.22
 31
0.0
  0
LINE
  5
3DD
102
{ACAD_REACTORS
330
520
102
}
330
1F
100
AcDbEntity
  8
LC-002-002-----0
 62
     7
370
    50
100
AcDbLine
 10
1577.948591
 20
1922.617198
 30
0.0
 11
1578.351136
 21
1922.725059
 31
0.0
  0
LINE
  5
3DE
102
{ACAD_REACTORS
330
520
102
}
330
1F
100
AcDbEntity
  8
LC-002-002-----0
 62
     7
370
    50
100
AcDbLine
 10
1577.948591
 20
1795.822802
 30
0.0
 11
1578.351136
 21
1795.714941
 31
0.0
  0
LINE
  5
3DF
102
{ACAD_REACTORS
330
520
102
}
330
1F
100
AcDbEntity
  8
LC-002-002-----0
 62
     7
370
    50
100
AcDbLine
 10
1778.450455
 20
1621.22
 30
0.0
 11
1776.450455
 21
1621.22
 31
0.0
  0
LINE
  5
3E0
102
{ACAD_REACTORS
330
520
102
}
330
1F
100
AcDbEntity
  8
LC-002-002-----0
 62
     7
370
    50
100
AcDbLine
 10
1778.450455
 20
2097.22
 30
0.0
 11
1776.450455
 21
2097.22
 31
0.0
  0
LINE
  5
3E1
102
{ACAD_REACTORS
330
520
102
}
330
1F
100
AcDbEntity
  8
LC-002-002-----0
 62
     7
370
    50
100
AcDbLine
 10
1769.450455
 20
1623.594119
 30
0.0
 11
1769.450455
 21
1630.689211
 31
0.0
  0
LINE
  5
3E2
102
{ACAD_REACTORS
330
520
102
}
330
1F
100
AcDbEntity
  8
LC-002-002-----0
 62
     7
370
    50
100
AcDbLine
 10
1589.140395
 20
1669.260457
 30
0.0
 11
1582.048603
 21
1791.17567
 31
0.0
  0
LINE
  5
3E3
102
{ACAD_REACTORS
330
520
102
}
330
1F
100
AcDbEntity
  8
LC-002-002-----0
 62
     7
370
    50
100
AcDbLine
 10
1748.910829
 20
1633.716219
 30
0.0
 11
1606.753256
 21
1650.560834
 31
0.0
  0
LINE
  5
3E4
102
{ACAD_REACTORS
330
520
102
}
330
1F
100
AcDbEntity
  8
LC-002-002-----0
 62
     7
370
    50
100
AcDbLine
 10
1749.869264
 20
1633.483837
 30
0.0
 11
1749.429267
 21
1633.620948
 31
0.0
  0
LINE
  5
3E5
102
{ACAD_REACTORS
330
520
102
}
330
1F
100
AcDbEntity
  8
LC-002-002-----0
 62
     7
370
    50
100
AcDbLine
 10
1749.429267
 20
1633.620948
 30
0.0
 11
1749.299746
 21
1633.644752
 31
0.0
  0
LINE
  5
3E6
102
{ACAD_REACTORS
330
520
102
}
330
1F
100
AcDbEntity
  8
LC-002-002-----0
 62
     7
370
    50
100
AcDbLine
 10
1749.299746
 20
1633.644752
 30
0.0
 11
1748.911001
 21
1633.716198
 31
0.0
  0
ARC
  5
3E7
102
{ACAD_REACTORS
330
520
102
}
330
1F
100
AcDbEntity
  8
LC-002-002-----0
 62
     7
370
    50
100
AcDbCircle
 10
1755.542639
 20
1648.406437
 30
0.0
 40
15.964684353695
100
AcDbArc
 50
249.183859
 51
262.423075
  0
LINE
  5
3E8
102
{ACAD_REACTORS
330
520
102
}
330
1F
100
AcDbEntity
  8
LC-002-002-----0
 62
     7
370
    50
100
AcDbLine
 10
1753.440525
 20
1632.580797
 30
0.0
 11
1753.439411
 21
1632.580928
 31
0.0
  0
LINE
  5
3E9
102
{ACAD_REACTORS
330
520
102
}
330
1F
100
AcDbEntity
  8
LC-002-002-----0
 62
     7
370
    50
100
AcDbLine
 10
1753.440525
 20
1632.580797
 30
0.0
 11
1772.037128
 21
1630.383593
 31
0.0
  0
LINE
  5
3EA
102
{ACAD_REACTORS
330
520
102
}
330
1F
100
AcDbEntity
  8
LC-002-002-----0
 62
     7
370
    50
100
AcDbLine
 10
1749.619284
 20
1640.681243
 30
0.0
 11
1609.594227
 21
1657.273171
 31
0.0
  0
ARC
  5
3EB
102
{ACAD_REACTORS
330
520
102
}
330
1F
100
AcDbEntity
  8
LC-004-002-RND-0
 62
     7
370
    50
100
AcDbCircle
 10
1749.030938
 20
1635.715979
 30
0.0
 40
5.000000000000211
100
AcDbArc
 50
72.692102
 51
83.242386
  0
LINE
  5
3EC
102
{ACAD_REACTORS
330
520
102
}
330
1F
100
AcDbEntity
  8
LC-002-002-----0
 62
     7
370
    50
100
AcDbLine
 10
1750.69295
 20
1640.435207
 30
0.0
 11
1750.51847
 21
1640.489578
 31
0.0
  0
ARC
  5
3ED
102
{ACAD_REACTORS
330
520
102
}
330
1F
100
AcDbEntity
  8
LC-002-002-----0
 62
     7
370
    50
100
AcDbCircle
 10
1756.366324
 20
1655.357806
 30
0.0
 40
15.964684353695
100
AcDbArc
 50
249.183859
 51
262.423075
  0
LINE
  5
3EE
102
{ACAD_REACTORS
330
520
102
}
330
1F
100
AcDbEntity
  8
LC-002-002-----0
 62
     7
370
    50
100
AcDbLine
 10
1754.261867
 20
1639.532444
 30
0.0
 11
1781.551637
 21
1636.308135
 31
0.0
  0
LINE
  5
3EF
102
{ACAD_REACTORS
330
520
102
}
330
1F
100
AcDbEntity
  8
LC-002-002-----0
 62
     7
370
    50
100
AcDbLine
 10
1754.261867
 20
1639.532444
 30
0.0
 11
1781.551637
 21
1636.308135
 31
0.0
  0
LINE
  5
3F0
102
{ACAD_REACTORS
330
520
102
}
330
1F
100
AcDbEntity
  8
LC-002-002-----0
 62
     7
370
    50
100
AcDbLine
 10
1785.450455
 20
1631.847487
 30
0.0
 11
1782.963936
 21
1635.456629
 31
0.0
  0
ARC
  5
3F1
102
{ACAD_REACTORS
330
520
102
}
330
1F
100
AcDbEntity
  8
LC-004-002-RND-0
 62
     7
370
    50
100
AcDbCircle
 10
1589.302017
 20
1802.824295
 30
0.0
 40
1.000000000000125
100
AcDbArc
 50
190.0
 51
265.0
  0
ARC
  5
3F2
102
{ACAD_REACTORS
330
520
102
}
330
1F
100
AcDbEntity
  8
LC-004-002-RND-0
 62
     7
370
    50
100
AcDbCircle
 10
1589.312706
 20
1800.614956
 30
0.0
 40
1.200000000000045
100
AcDbArc
 50
3.329136
 51
85.0
  0
LINE
  5
3F3
102
{ACAD_REACTORS
330
520
102
}
330
1F
100
AcDbEntity
  8
LC-002-002-----0
 62
     7
370
    50
100
AcDbLine
 10
1589.417293
 20
1801.81039
 30
0.0
 11
1589.214862
 21
1801.8281
 31
0.0
  0
LINE
  5
3F4
102
{ACAD_REACTORS
330
520
102
}
330
1F
100
AcDbEntity
  8
LC-002-002-----0
 62
     7
370
    50
100
AcDbLine
 10
1585.395586
 20
1819.22
 30
0.0
 11
1585.395586
 21
1859.22
 31
0.0
  0
LINE
  5
3F5
102
{ACAD_REACTORS
330
520
102
}
330
1F
100
AcDbEntity
  8
LC-002-002-----0
 62
     7
370
    50
100
AcDbLine
 10
1588.31721
 20
1802.650647
 30
0.0
 11
1585.395586
 21
1819.22
 31
0.0
  0
LINE
  5
3F6
102
{ACAD_REACTORS
330
520
102
}
330
1F
100
AcDbEntity
  8
LC-002-002-----0
 62
     7
370
    50
100
AcDbLine
 10
1598.145867
 20
1669.427925
 30
0.0
 11
1590.510681
 21
1800.684642
 31
0.0
  0
INSERT
  5
410
102
{ACAD_REACTORS
330
520
102
}
330
1F
100
AcDbEntity
  8
LC-009-003-----0
 62
     7
370
    25
100
AcDbBlockReference
  2
LCDIM12
 10
0.0
 20
0.0
 30
0.0
  0
INSERT
  5
42A
330
1F
100
AcDbEntity
  8
LC-009-003-----0
 62
     7
370
    25
100
AcDbBlockReference
  2
LCDIM13
 10
0.0
 20
0.0
 30
0.0
  0
INSERT
  5
444
330
1F
100
AcDbEntity
  8
LC-009-003-----0
 62
     7
370
    25
100
AcDbBlockReference
  2
LCDIM14
 10
0.0
 20
0.0
 30
0.0
  0
ELLIPSE
  5
445
102
{ACAD_REACTORS
330
521
102
}
330
1F
100
AcDbEntity
  8
LC-002-002-----0
 62
     7
370
    25
100
AcDbEllipse
 10
918.288619
 20
2040.904552
 30
0.0
 11
15.36384087978567
 21
2.049974049573037
 31
0.0
210
0.0
220
0.0
230
1.0
 40
0.104528
 41
0.0
 42
6.283185307179586
  0
ARC
  5
446
102
{ACAD_REACTORS
330
522
102
}
330
1F
100
AcDbEntity
  8
LC-002-002-----0
 62
     7
370
    25
100
AcDbCircle
 10
934.788619
 20
2329.333098
 30
0.0
 40
22.0
100
AcDbArc
 50
180.0
 51
0.0
  0
LINE
  5
447
102
{ACAD_REACTORS
330
522
102
}
330
1F
100
AcDbEntity
  8
LC-002-002-----0
 62
     7
370
    25
100
AcDbLine
 10
912.788619
 20
2329.333098
 30
0.0
 11
912.788619
 21
2343.024283
 31
0.0
  0
LINE
  5
448
102
{ACAD_REACTORS
330
522
102
}
330
1F
100
AcDbEntity
  8
LC-002-002-----0
 62
     7
370
    25
100
AcDbLine
 10
956.788619
 20
2329.333098
 30
0.0
 11
956.788619
 21
2343.024283
 31
0.0
  0
LINE
  5
449
102
{ACAD_REACTORS
330
522
102
}
330
1F
100
AcDbEntity
  8
LC-002-002-----0
 62
     7
370
    25
100
AcDbLine
 10
972.288619
 20
2361.292645
 30
0.0
 11
897.288619
 21
2361.292645
 31
0.0
  0
LINE
  5
44A
102
{ACAD_REACTORS
330
522
102
}
330
1F
100
AcDbEntity
  8
LC-002-002-----0
 62
     7
370
    25
100
AcDbLine
 10
970.286756
 20
2360.589401
 30
0.0
 11
970.286756
 21
2361.292645
 31
0.0
  0
LINE
  5
44B
102
{ACAD_REACTORS
330
522
102
}
330
1F
100
AcDbEntity
  8
LC-002-002-----0
 62
     7
370
    25
100
AcDbLine
 10
972.288619
 20
2363.792646
 30
0.0
 11
972.288619
 21
2361.292645
 31
0.0
  0
LINE
  5
44C
102
{ACAD_REACTORS
330
522
102
}
330
1F
100
AcDbEntity
  8
LC-002-002-----0
 62
     7
370
    25
100
AcDbLine
 10
963.077558
 20
2350.834265
 30
0.0
 11
963.556004
 21
2353.453129
 31
0.0
  0
ARC
  5
44D
102
{ACAD_REACTORS
330
522
102
}
330
1F
100
AcDbEntity
  8
LC-002-002-----0
 62
     7
370
    25
100
AcDbCircle
 10
956.683394
 20
2352.002455
 30
0.0
 40
6.500000000000005
100
AcDbArc
 50
289.07704
 51
349.645823
  0
ARC
  5
44E
102
{ACAD_REACTORS
330
522
102
}
330
1F
100
AcDbEntity
  8
LC-002-002-----0
 62
     7
370
    25
100
AcDbCircle
 10
959.788619
 20
2343.024283
 30
0.0
 40
3.000000000000295
100
AcDbArc
 50
109.055448
 51
180.0
  0
ARC
  5
44F
102
{ACAD_REACTORS
330
522
102
}
330
1F
100
AcDbEntity
  8
LC-002-002-----0
 62
     7
370
    25
100
AcDbCircle
 10
968.286756
 20
2360.589401
 30
0.0
 40
1.999999999999772
100
AcDbArc
 50
334.152631
 51
0.0
  0
ARC
  5
450
102
{ACAD_REACTORS
330
522
102
}
330
1F
100
AcDbEntity
  8
LC-002-002-----0
 62
     7
370
    25
100
AcDbCircle
 10
964.686823
 20
2362.333098
 30
0.0
 40
5.999999999999909
100
AcDbArc
 50
286.283517
 51
334.155028
  0
ARC
  5
451
102
{ACAD_REACTORS
330
522
102
}
330
1F
100
AcDbEntity
  8
LC-002-002-----0
 62
     7
370
    25
100
AcDbCircle
 10
967.490882
 20
2352.734283
 30
0.0
 40
4.000000000000306
100
AcDbArc
 50
106.281751
 51
169.647048
  0
LINE
  5
452
102
{ACAD_REACTORS
330
522
102
}
330
1F
100
AcDbEntity
  8
LC-002-002-----0
 62
     7
370
    25
100
AcDbLine
 10
899.290482
 20
2360.589401
 30
0.0
 11
899.290482
 21
2361.292645
 31
0.0
  0
LINE
  5
453
102
{ACAD_REACTORS
330
522
102
}
330
1F
100
AcDbEntity
  8
LC-002-002-----0
 62
     7
370
    25
100
AcDbLine
 10
906.49968
 20
2350.834265
 30
0.0
 11
906.021234
 21
2353.453129
 31
0.0
  0
ARC
  5
454
102
{ACAD_REACTORS
330
522
102
}
330
1F
100
AcDbEntity
  8
LC-002-002-----0
 62
     7
370
    25
100
AcDbCircle
 10
912.893844
 20
2352.002455
 30
0.0
 40
6.499999999999891
100
AcDbArc
 50
190.354177
 51
250.92296
  0
ARC
  5
455
102
{ACAD_REACTORS
330
522
102
}
330
1F
100
AcDbEntity
  8
LC-002-002-----0
 62
     7
370
    25
100
AcDbCircle
 10
909.788619
 20
2343.024283
 30
0.0
 40
2.999999995699682
100
AcDbArc
 50
0.0
 51
70.944552
  0
ARC
  5
456
102
{ACAD_REACTORS
330
522
102
}
330
1F
100
AcDbEntity
  8
LC-002-002-----0
 62
     7
370
    25
100
AcDbCircle
 10
901.290482
 20
2360.589401
 30
0.0
 40
1.999999999999773
100
AcDbArc
 50
180.0
 51
205.847369
  0
ARC
  5
457
102
{ACAD_REACTORS
330
522
102
}
330
1F
100
AcDbEntity
  8
LC-002-002-----0
 62
     7
370
    25
100
AcDbCircle
 10
904.890415
 20
2362.333098
 30
0.0
 40
5.999999999999802
100
AcDbArc
 50
205.844972
 51
253.716483
  0
ARC
  5
458
102
{ACAD_REACTORS
330
522
102
}
330
1F
100
AcDbEntity
  8
LC-002-002-----0
 62
     7
370
    25
100
AcDbCircle
 10
902.086356
 20
2352.734283
 30
0.0
 40
3.999999999999939
100
AcDbArc
 50
10.352952
 51
73.718249
  0
ARC
  5
459
102
{ACAD_REACTORS
330
522
102
}
330
1F
100
AcDbEntity
  8
LC-002-002-----0
 62
     7
370
    25
100
AcDbCircle
 10
934.788619
 20
2329.333098
 30
0.0
 40
27.70479324130034
100
AcDbArc
 50
145.394244
 51
34.605756
  0
LINE
  5
45A
102
{ACAD_REACTORS
330
522
102
}
330
1F
100
AcDbEntity
  8
LC-002-002-----0
 62
     7
370
    25
100
AcDbLine
 10
879.788619
 20
2403.935327
 30
0.0
 11
989.788619
 21
2403.935327
 31
0.0
  0
LINE
  5
45B
102
{ACAD_REACTORS
330
522
102
}
330
1F
100
AcDbEntity
  8
LC-002-002-----0
 62
     7
370
    25
100
AcDbLine
 10
989.788619
 20
2399.935327
 30
0.0
 11
989.788619
 21
2403.935327
 31
0.0
  0
LINE
  5
45C
102
{ACAD_REACTORS
330
522
102
}
330
1F
100
AcDbEntity
  8
LC-002-002-----0
 62
     7
370
    25
100
AcDbLine
 10
974.293583
 20
2363.792646
 30
0.0
 11
972.288619
 21
2363.792646
 31
0.0
  0
LINE
  5
45D
102
{ACAD_REACTORS
330
522
102
}
330
1F
100
AcDbEntity
  8
LC-002-002-----0
 62
     7
370
    25
100
AcDbLine
 10
977.538009
 20
2368.12242
 30
0.0
 11
979.287984
 21
2369.132769
 31
0.0
  0
LINE
  5
45E
102
{ACAD_REACTORS
330
522
102
}
330
1F
100
AcDbEntity
  8
LC-002-002-----0
 62
     7
370
    25
100
AcDbLine
 10
982.288619
 20
2374.329288
 30
0.0
 11
982.288619
 21
2389.792645
 31
0.0
  0
LINE
  5
45F
102
{ACAD_REACTORS
330
522
102
}
330
1F
100
AcDbEntity
  8
LC-002-002-----0
 62
     7
370
    25
100
AcDbLine
 10
989.788619
 20
2399.475104
 30
0.0
 11
989.788619
 21
2399.935327
 31
0.0
  0
ARC
  5
460
102
{ACAD_REACTORS
330
522
102
}
330
1F
100
AcDbEntity
  8
LC-002-002-----0
 62
     7
370
    25
100
AcDbCircle
 10
986.288619
 20
2389.792645
 30
0.0
 40
3.999999999999812
100
AcDbArc
 50
104.492147
 51
180.0
  0
ARC
  5
461
102
{ACAD_REACTORS
330
522
102
}
330
1F
100
AcDbEntity
  8
LC-002-002-----0
 62
     7
370
    25
100
AcDbCircle
 10
983.788619
 20
2399.475104
 30
0.0
 40
5.999999999999658
100
AcDbArc
 50
284.469452
 51
0.0
  0
ARC
  5
462
102
{ACAD_REACTORS
330
522
102
}
330
1F
100
AcDbEntity
  8
LC-002-002-----0
 62
     7
370
    25
100
AcDbCircle
 10
976.288619
 20
2374.329288
 30
0.0
 40
5.999999999999977
100
AcDbArc
 50
299.988476
 51
0.0
  0
ARC
  5
463
102
{ACAD_REACTORS
330
522
102
}
330
1F
100
AcDbEntity
  8
LC-002-002-----0
 62
     7
370
    25
100
AcDbCircle
 10
980.038619
 20
2363.792645
 30
0.0
 40
4.999999999999906
100
AcDbArc
 50
120.016153
 51
172.072225
  0
ARC
  5
464
102
{ACAD_REACTORS
330
522
102
}
330
1F
100
AcDbEntity
  8
LC-002-002-----0
 62
     7
370
    25
100
AcDbCircle
 10
974.294056
 20
2364.592645
 30
0.0
 40
0.7999999999997272
100
AcDbArc
 50
270.0
 51
352.062606
  0
LINE
  5
465
102
{ACAD_REACTORS
330
522
102
}
330
1F
100
AcDbEntity
  8
LC-002-002-----0
 62
     7
370
    25
100
AcDbLine
 10
879.788619
 20
2399.475104
 30
0.0
 11
879.788619
 21
2403.935327
 31
0.0
  0
LINE
  5
466
102
{ACAD_REACTORS
330
522
102
}
330
1F
100
AcDbEntity
  8
LC-002-002-----0
 62
     7
370
    25
100
AcDbLine
 10
895.283655
 20
2363.792646
 30
0.0
 11
897.288619
 21
2363.792646
 31
0.0
  0
LINE
  5
467
102
{ACAD_REACTORS
330
522
102
}
330
1F
100
AcDbEntity
  8
LC-002-002-----0
 62
     7
370
    25
100
AcDbLine
 10
892.039229
 20
2368.12242
 30
0.0
 11
890.289254
 21
2369.132769
 31
0.0
  0
LINE
  5
468
102
{ACAD_REACTORS
330
522
102
}
330
1F
100
AcDbEntity
  8
LC-002-002-----0
 62
     7
370
    25
100
AcDbLine
 10
887.288619
 20
2374.329288
 30
0.0
 11
887.288619
 21
2389.792645
 31
0.0
  0
LINE
  5
469
102
{ACAD_REACTORS
330
522
102
}
330
1F
100
AcDbEntity
  8
LC-002-002-----0
 62
     7
370
    25
100
AcDbLine
 10
879.788619
 20
2399.475104
 30
0.0
 11
879.788619
 21
2399.935327
 31
0.0
  0
ARC
  5
46A
102
{ACAD_REACTORS
330
522
102
}
330
1F
100
AcDbEntity
  8
LC-002-002-----0
 62
     7
370
    25
100
AcDbCircle
 10
883.288619
 20
2389.792645
 30
0.0
 40
3.999999999999773
100
AcDbArc
 50
0.0
 51
75.507853
  0
ARC
  5
46B
102
{ACAD_REACTORS
330
522
102
}
330
1F
100
AcDbEntity
  8
LC-002-002-----0
 62
     7
370
    25
100
AcDbCircle
 10
885.788619
 20
2399.475104
 30
0.0
 40
5.999999999999545
100
AcDbArc
 50
180.0
 51
255.530548
  0
ARC
  5
46C
102
{ACAD_REACTORS
330
522
102
}
330
1F
100
AcDbEntity
  8
LC-002-002-----0
 62
     7
370
    25
100
AcDbCircle
 10
893.288619
 20
2374.329288
 30
0.0
 40
6.0
100
AcDbArc
 50
180.0
 51
240.011524
  0
ARC
  5
46D
102
{ACAD_REACTORS
330
522
102
}
330
1F
100
AcDbEntity
  8
LC-002-002-----0
 62
     7
370
    25
100
AcDbCircle
 10
889.538619
 20
2363.792645
 30
0.0
 40
4.999999999999969
100
AcDbArc
 50
7.927775
 51
59.983847
  0
ARC
  5
46E
102
{ACAD_REACTORS
330
522
102
}
330
1F
100
AcDbEntity
  8
LC-002-002-----0
 62
     7
370
    25
100
AcDbCircle
 10
895.283182
 20
2364.592645
 30
0.0
 40
0.7999999999996561
100
AcDbArc
 50
187.937394
 51
270.0
  0
LINE
  5
46F
102
{ACAD_REACTORS
330
522
102
}
330
1F
100
AcDbEntity
  8
LC-002-002-----0
 62
     7
370
    25
100
AcDbLine
 10
897.288619
 20
2363.792646
 30
0.0
 11
897.288619
 21
2361.292645
 31
0.0
  0
INSERT
  5
489
330
1F
100
AcDbEntity
  8
LC-009-003-----0
 62
     7
370
    25
100
AcDbBlockReference
  2
LCDIM15
 10
0.0
 20
0.0
 30
0.0
  0
ARC
  5
48A
102
{ACAD_REACTORS
330
523
102
}
330
1F
100
AcDbEntity
  8
LC-004-002-RND-0
 62
     7
370
    25
100
AcDbCircle
 10
1657.166711
 20
2102.175662
 30
0.0
 40
0.9999999999994998
100
AcDbArc
 50
6.7383
 51
96.7383
  0
ARC
  5
48B
102
{ACAD_REACTORS
330
523
102
}
330
1F
100
AcDbEntity
  8
LC-004-002-RND-0
 62
     7
370
    25
100
AcDbCircle
 10
1659.865407
 20
2079.334536
 30
0.0
 40
0.9999999999994198
100
AcDbArc
 50
276.7383
 51
6.7383
  0
LINE
  5
48C
102
{ACAD_REACTORS
330
524
102
}
330
1F
100
AcDbEntity
  8
LC-002-002-----0
 62
     7
370
    25
100
AcDbLine
 10
1542.452846
 20
2050.704546
 30
0.0
 11
1542.452846
 21
2084.923949
 31
0.0
  0
LINE
  5
48D
102
{ACAD_REACTORS
330
524
102
}
330
1F
100
AcDbEntity
  8
LC-002-002-----0
 62
     7
370
    25
100
AcDbLine
 10
1574.925287
 20
2098.120934
 30
0.0
 11
1554.952836
 21
2097.423481
 31
0.0
  0
LINE
  5
48E
102
{ACAD_REACTORS
330
524
102
}
330
1F
100
AcDbEntity
  8
LC-002-002-----0
 62
     7
370
    25
100
AcDbLine
 10
1589.952846
 20
2104.923481
 30
0.0
 11
1595.952846
 21
2104.923481
 31
0.0
  0
LINE
  5
48F
102
{ACAD_REACTORS
330
524
102
}
330
1F
100
AcDbEntity
  8
LC-002-002-----0
 62
     7
370
    25
100
AcDbLine
 10
1567.452846
 20
2050.704546
 30
0.0
 11
1567.452846
 21
2071.986971
 31
0.0
  0
LINE
  5
490
102
{ACAD_REACTORS
330
524
102
}
330
1F
100
AcDbEntity
  8
LC-002-002-----0
 62
     7
370
    25
100
AcDbLine
 10
1595.952846
 20
2104.923481
 30
0.0
 11
1595.952846
 21
2064.923481
 31
0.0
  0
LINE
  5
491
102
{ACAD_REACTORS
330
524
102
}
330
1F
100
AcDbEntity
  8
LC-002-002-----0
 62
     7
370
    25
100
AcDbLine
 10
1589.952846
 20
2064.923481
 30
0.0
 11
1590.344611
 21
2064.923481
 31
0.0
  0
LINE
  5
492
102
{ACAD_REACTORS
330
524
102
}
330
1F
100
AcDbEntity
  8
LC-002-002-----0
 62
     7
370
    25
100
AcDbLine
 10
1574.925287
 20
2071.726028
 30
0.0
 11
1567.450218
 21
2071.987063
 31
0.0
  0
LINE
  5
493
102
{ACAD_REACTORS
330
523
102
}
330
1F
100
AcDbEntity
  8
LC-002-002-----0
 62
     7
370
    25
100
AcDbLine
 10
1605.01409
 20
2071.846857
 30
0.0
 11
1602.080725
 21
2096.674168
 31
0.0
  0
ARC
  5
494
102
{ACAD_REACTORS
330
523
102
}
330
1F
100
AcDbEntity
  8
LC-002-002-----0
 62
     7
370
    25
100
AcDbCircle
 10
1605.131424
 20
2070.853765
 30
0.0
 40
1.000000000000376
100
AcDbArc
 50
96.7383
 51
139.875977
  0
ARC
  5
495
102
{ACAD_REACTORS
330
523
102
}
330
1F
100
AcDbEntity
  8
LC-002-002-----0
 62
     7
370
    25
100
AcDbCircle
 10
1601.96339
 20
2097.667261
 30
0.0
 40
0.9999999999997663
100
AcDbArc
 50
233.600622
 51
276.7383
  0
ARC
  5
496
102
{ACAD_REACTORS
330
523
102
}
330
1F
100
AcDbEntity
  8
LC-002-002-----0
 62
     7
370
    25
100
AcDbCircle
 10
1590.985671
 20
2082.776334
 30
0.0
 40
17.49999999999962
100
AcDbArc
 50
53.59665
 51
73.510563
  0
ARC
  5
497
102
{ACAD_REACTORS
330
523
102
}
330
1F
100
AcDbEntity
  8
LC-002-002-----0
 62
     7
370
    25
100
AcDbCircle
 10
1590.985671
 20
2082.776334
 30
0.0
 40
17.50000000003259
100
AcDbArc
 50
286.489438
 51
319.880106
  0
ARC
  5
498
102
{ACAD_REACTORS
330
524
102
}
330
1F
100
AcDbEntity
  8
LC-002-002-----0
 62
     7
370
    25
100
AcDbCircle
 10
1589.952846
 20
2084.923481
 30
0.0
 40
20.00000000000009
100
AcDbArc
 50
221.290426
 51
270.0
  0
ARC
  5
499
102
{ACAD_REACTORS
330
524
102
}
330
1F
100
AcDbEntity
  8
LC-002-002-----0
 62
     7
370
    25
100
AcDbCircle
 10
1589.952846
 20
2084.923481
 30
0.0
 40
20.0
100
AcDbArc
 50
90.0
 51
138.709438
  0
ARC
  5
49A
102
{ACAD_REACTORS
330
524
102
}
330
1F
100
AcDbEntity
  8
LC-002-002-----0
 62
     7
370
    25
100
AcDbCircle
 10
1554.952846
 20
2084.923481
 30
0.0
 40
12.5
100
AcDbArc
 50
90.0
 51
180.0
  0
INSERT
  5
4C4
102
{ACAD_REACTORS
330
524
102
}
330
1F
100
AcDbEntity
  8
LC-002-002-----0
 62
     7
370
    25
100
AcDbBlockReference
  2
POLY2
 10
0.0
 20
0.0
 30
0.0
  0
LINE
  5
4C5
102
{ACAD_REACTORS
330
523
102
}
330
1F
100
AcDbEntity
  8
LC-002-002-----0
 62
     7
370
    25
100
AcDbLine
 10
1657.049377
 20
2103.168755
 30
0.0
 11
1602.080725
 21
2096.674168
 31
0.0
  0
LINE
  5
4C6
102
{ACAD_REACTORS
330
523
102
}
330
1F
100
AcDbEntity
  8
LC-002-002-----0
 62
     7
370
    25
100
AcDbLine
 10
1660.858499
 20
2079.451871
 30
0.0
 11
1658.159804
 21
2102.292997
 31
0.0
  0
LINE
  5
4C7
102
{ACAD_REACTORS
330
523
102
}
330
1F
100
AcDbEntity
  8
LC-002-002-----0
 62
     7
370
    25
100
AcDbLine
 10
1659.982742
 20
2078.341444
 30
0.0
 11
1605.01409
 21
2071.846857
 31
0.0
  0
LINE
  5
4C8
102
{ACAD_REACTORS
330
526
102
}
330
1F
100
AcDbEntity
  8
LC-002-002-----0
 62
     7
370
    25
100
AcDbLine
 10
1770.823435
 20
2089.92692
 30
0.0
 11
1730.106645
 21
2085.116201
 31
0.0
  0
LINE
  5
4C9
102
{ACAD_REACTORS
330
526
102
}
330
1F
100
AcDbEntity
  8
LC-002-002-----0
 62
     7
370
    25
100
AcDbLine
 10
1770.823435
 20
2089.92692
 30
0.0
 11
1770.236762
 21
2094.892382
 31
0.0
  0
LINE
  5
4CA
102
{ACAD_REACTORS
330
526
102
}
330
1F
100
AcDbEntity
  8
LC-002-002-----0
 62
     7
370
    25
100
AcDbLine
 10
1730.106645
 20
2085.116201
 30
0.0
 11
1729.519972
 21
2090.081663
 31
0.0
  0
LINE
  5
4CB
102
{ACAD_REACTORS
330
526
102
}
330
1F
100
AcDbEntity
  8
LC-002-002-----0
 62
     7
370
    25
100
AcDbLine
 10
1729.519972
 20
2090.081663
 30
0.0
 11
1770.236762
 21
2094.892382
 31
0.0
  0
LINE
  5
4CC
102
{ACAD_REACTORS
330
526
102
}
330
1F
100
AcDbEntity
  8
LC-002-002-----0
 62
     7
370
    25
100
AcDbLine
 10
1660.799832
 20
2079.948417
 30
0.0
 11
1729.754641
 21
2088.095478
 31
0.0
  0
LINE
  5
4CD
102
{ACAD_REACTORS
330
526
102
}
330
1F
100
AcDbEntity
  8
LC-002-002-----0
 62
     7
370
    25
100
AcDbLine
 10
1658.218471
 20
2101.796451
 30
0.0
 11
1738.097297
 21
2111.234193
 31
0.0
  0
ARC
  5
4CE
102
{ACAD_REACTORS
330
526
102
}
330
1F
100
AcDbEntity
  8
LC-002-002-----0
 62
     7
370
    25
100
AcDbCircle
 10
1738.801304
 20
2105.275638
 30
0.0
 40
6.000000000034738
100
AcDbArc
 50
16.332368
 51
96.7383
  0
LINE
  5
4CF
102
{ACAD_REACTORS
330
526
102
}
330
1F
100
AcDbEntity
  8
LC-002-002-----0
 62
     7
370
    25
100
AcDbLine
 10
1767.505758
 20
2094.569712
 30
0.0
 11
1767.329756
 21
2096.059351
 31
0.0
  0
LINE
  5
4D0
102
{ACAD_REACTORS
330
526
102
}
330
1F
100
AcDbEntity
  8
LC-002-002-----0
 62
     7
370
    25
100
AcDbLine
 10
1769.568465
 20
2087.764733
 30
0.0
 11
1731.830953
 21
2083.306018
 31
0.0
  0
LINE
  5
4D1
102
{ACAD_REACTORS
330
526
102
}
330
1F
100
AcDbEntity
  8
LC-002-002-----0
 62
     7
370
    25
100
AcDbLine
 10
1737.690877
 20
2106.151396
 30
0.0
 11
1758.005349
 21
2108.551566
 31
0.0
  0
LINE
  5
4D2
102
{ACAD_REACTORS
330
526
102
}
330
1F
100
AcDbEntity
  8
LC-002-002-----0
 62
     7
370
    25
100
AcDbLine
 10
1767.329756
 20
2096.059351
 30
0.0
 11
1758.005349
 21
2108.551566
 31
0.0
  0
LINE
  5
4D3
102
{ACAD_REACTORS
330
526
102
}
330
1F
100
AcDbEntity
  8
LC-002-002-----0
 62
     7
370
    25
100
AcDbLine
 10
1735.478526
 20
2090.785671
 30
0.0
 11
1734.187846
 21
2101.709688
 31
0.0
  0
ARC
  5
4D4
102
{ACAD_REACTORS
330
526
102
}
330
1F
100
AcDbEntity
  8
LC-004-002-RND-0
 62
     7
370
    25
100
AcDbCircle
 10
1738.160216
 20
2102.179026
 30
0.0
 40
3.999999999999964
100
AcDbArc
 50
96.7383
 51
186.7383
  0
LINE
  5
4D5
102
{ACAD_REACTORS
330
526
102
}
330
1F
100
AcDbEntity
  8
LC-002-002-----0
 62
     7
370
    25
100
AcDbLine
 10
1731.830953
 20
2083.306015
 30
0.0
 11
1731.596283
 21
2085.292203
 31
0.0
  0
LINE
  5
4D6
102
{ACAD_REACTORS
330
524
102
}
330
1F
100
AcDbEntity
  8
LC-002-002-----0
 62
     7
370
    25
100
AcDbLine
 10
1554.952846
 20
2050.704546
 30
0.0
 11
1554.952846
 21
2038.954534
 31
0.0
  0
LINE
  5
4D7
102
{ACAD_REACTORS
330
524
102
}
330
1F
100
AcDbEntity
  8
LC-002-002-----0
 62
     7
370
    25
100
AcDbLine
 10
1539.807846
 20
2031.459275
 30
0.0
 11
1539.807846
 21
2031.204546
 31
0.0
  0
LINE
  5
4D8
102
{ACAD_REACTORS
330
524
102
}
330
1F
100
AcDbEntity
  8
LC-002-002-----0
 62
     7
370
    25
100
AcDbLine
 10
1570.097846
 20
2031.459275
 30
0.0
 11
1570.097846
 21
2031.204546
 31
0.0
  0
LINE
  5
4D9
102
{ACAD_REACTORS
330
524
102
}
330
1F
100
AcDbEntity
  8
LC-002-002-----0
 62
     7
370
    25
100
AcDbLine
 10
1539.807846
 20
2036.081911
 30
0.0
 11
1538.327898
 21
2035.311498
 31
0.0
  0
LINE
  5
4DA
102
{ACAD_REACTORS
330
524
102
}
330
1F
100
AcDbEntity
  8
LC-002-002-----0
 62
     7
370
    25
100
AcDbLine
 10
1539.807846
 20
2034.541032
 30
0.0
 11
1538.327898
 21
2033.77062
 31
0.0
  0
LINE
  5
4DB
102
{ACAD_REACTORS
330
524
102
}
330
1F
100
AcDbEntity
  8
LC-002-002-----0
 62
     7
370
    25
100
AcDbLine
 10
1539.807846
 20
2033.000154
 30
0.0
 11
1538.327898
 21
2032.229741
 31
0.0
  0
LINE
  5
4DC
102
{ACAD_REACTORS
330
524
102
}
330
1F
100
AcDbEntity
  8
LC-002-002-----0
 62
     7
370
    25
100
AcDbLine
 10
1571.577795
 20
2035.311445
 30
0.0
 11
1570.097846
 21
2034.541032
 31
0.0
  0
LINE
  5
4DD
102
{ACAD_REACTORS
330
524
102
}
330
1F
100
AcDbEntity
  8
LC-002-002-----0
 62
     7
370
    25
100
AcDbLine
 10
1571.577795
 20
2033.770566
 30
0.0
 11
1570.097846
 21
2033.000154
 31
0.0
  0
LINE
  5
4DE
102
{ACAD_REACTORS
330
524
102
}
330
1F
100
AcDbEntity
  8
LC-002-002-----0
 62
     7
370
    25
100
AcDbLine
 10
1571.577795
 20
2032.229688
 30
0.0
 11
1570.097846
 21
2031.459275
 31
0.0
  0
LINE
  5
4DF
102
{ACAD_REACTORS
330
524
102
}
330
1F
100
AcDbEntity
  8
LC-002-002-----0
 62
     7
370
    25
100
AcDbLine
 10
1570.097846
 20
2036.081911
 30
0.0
 11
1571.577795
 21
2035.311498
 31
0.0
  0
LINE
  5
4E0
102
{ACAD_REACTORS
330
524
102
}
330
1F
100
AcDbEntity
  8
LC-002-002-----0
 62
     7
370
    25
100
AcDbLine
 10
1570.097846
 20
2034.541032
 30
0.0
 11
1571.577795
 21
2033.77062
 31
0.0
  0
LINE
  5
4E1
102
{ACAD_REACTORS
330
524
102
}
330
1F
100
AcDbEntity
  8
LC-002-002-----0
 62
     7
370
    25
100
AcDbLine
 10
1570.097846
 20
2033.000154
 30
0.0
 11
1571.577795
 21
2032.229741
 31
0.0
  0
LINE
  5
4E2
102
{ACAD_REACTORS
330
524
102
}
330
1F
100
AcDbEntity
  8
LC-002-002-----0
 62
     7
370
    25
100
AcDbLine
 10
1538.327898
 20
2035.311445
 30
0.0
 11
1539.807846
 21
2034.541032
 31
0.0
  0
LINE
  5
4E3
102
{ACAD_REACTORS
330
524
102
}
330
1F
100
AcDbEntity
  8
LC-002-002-----0
 62
     7
370
    25
100
AcDbLine
 10
1538.327898
 20
2033.770566
 30
0.0
 11
1539.807846
 21
2033.000154
 31
0.0
  0
LINE
  5
4E4
102
{ACAD_REACTORS
330
524
102
}
330
1F
100
AcDbEntity
  8
LC-002-002-----0
 62
     7
370
    25
100
AcDbLine
 10
1538.327898
 20
2032.229688
 30
0.0
 11
1539.807846
 21
2031.459275
 31
0.0
  0
LINE
  5
4E5
102
{ACAD_REACTORS
330
524
102
}
330
1F
100
AcDbEntity
  8
LC-002-002-----0
 62
     7
370
    25
100
AcDbLine
 10
1534.952846
 20
2036.204546
 30
0.0
 11
1534.952846
 21
2038.204546
 31
0.0
  0
LINE
  5
4E6
102
{ACAD_REACTORS
330
524
102
}
330
1F
100
AcDbEntity
  8
LC-002-002-----0
 62
     7
370
    25
100
AcDbLine
 10
1536.995608
 20
2038.954547
 30
0.0
 11
1536.995608
 21
2050.69378
 31
0.0
  0
LINE
  5
4E7
102
{ACAD_REACTORS
330
524
102
}
330
1F
100
AcDbEntity
  8
LC-002-002-----0
 62
     7
370
    25
100
AcDbLine
 10
1572.910084
 20
2038.954547
 30
0.0
 11
1572.910084
 21
2050.69378
 31
0.0
  0
LINE
  5
4E8
102
{ACAD_REACTORS
330
524
102
}
330
1F
100
AcDbEntity
  8
LC-002-002-----0
 62
     7
370
    25
100
AcDbLine
 10
1574.952846
 20
2036.204546
 30
0.0
 11
1574.952846
 21
2038.204546
 31
0.0
  0
LINE
  5
4E9
102
{ACAD_REACTORS
330
524
102
}
330
1F
100
AcDbEntity
  8
LC-002-002-----0
 62
     7
370
    25
100
AcDbLine
 10
1534.952943
 20
2038.204643
 30
0.0
 11
1535.702834
 21
2038.954534
 31
0.0
  0
LINE
  5
4EA
102
{ACAD_REACTORS
330
524
102
}
330
1F
100
AcDbEntity
  8
LC-002-002-----0
 62
     7
370
    25
100
AcDbLine
 10
1537.203037
 20
2050.704546
 30
0.0
 11
1572.702656
 21
2050.704546
 31
0.0
  0
LINE
  5
4EB
102
{ACAD_REACTORS
330
524
102
}
330
1F
100
AcDbEntity
  8
LC-002-002-----0
 62
     7
370
    25
100
AcDbLine
 10
1535.702834
 20
2038.954534
 30
0.0
 11
1536.995608
 21
2038.954534
 31
0.0
  0
LINE
  5
4EC
102
{ACAD_REACTORS
330
524
102
}
330
1F
100
AcDbEntity
  8
LC-002-002-----0
 62
     7
370
    25
100
AcDbLine
 10
1572.910084
 20
2038.954543
 30
0.0
 11
1574.202859
 21
2038.954534
 31
0.0
  0
LINE
  5
4ED
102
{ACAD_REACTORS
330
524
102
}
330
1F
100
AcDbEntity
  8
LC-002-002-----0
 62
     7
370
    25
100
AcDbLine
 10
1534.952846
 20
2036.204546
 30
0.0
 11
1574.952846
 21
2036.204546
 31
0.0
  0
LINE
  5
4EE
102
{ACAD_REACTORS
330
524
102
}
330
1F
100
AcDbEntity
  8
LC-002-002-----0
 62
     7
370
    25
100
AcDbLine
 10
1574.952749
 20
2038.204643
 30
0.0
 11
1574.202859
 21
2038.954534
 31
0.0
  0
ARC
  5
4EF
102
{ACAD_REACTORS
330
524
102
}
330
1F
100
AcDbEntity
  8
LC-002-002-----0
 62
     7
370
    25
100
AcDbCircle
 10
1572.702846
 20
2048.704546
 30
0.0
 40
1.999999999999995
100
AcDbArc
 50
84.05239
 51
90.0
  0
ARC
  5
4F0
102
{ACAD_REACTORS
330
524
102
}
330
1F
100
AcDbEntity
  8
LC-002-002-----0
 62
     7
370
    25
100
AcDbCircle
 10
1537.202846
 20
2048.704546
 30
0.0
 40
2.0
100
AcDbArc
 50
90.0
 51
95.94761
  0
LINE
  5
4F1
102
{ACAD_REACTORS
330
524
102
}
330
1F
100
AcDbEntity
  8
LC-002-002-----0
 62
     7
370
    25
100
AcDbLine
 10
1539.572266
 20
2036.204546
 30
0.0
 11
1539.807846
 21
2036.081911
 31
0.0
  0
LINE
  5
4F2
102
{ACAD_REACTORS
330
524
102
}
330
1F
100
AcDbEntity
  8
LC-002-002-----0
 62
     7
370
    25
100
AcDbLine
 10
1570.333427
 20
2036.204546
 30
0.0
 11
1570.097846
 21
2036.081911
 31
0.0
  0
LINE
  5
4F3
102
{ACAD_REACTORS
330
524
102
}
330
1F
100
AcDbEntity
  8
LC-002-002-----0
 62
     7
370
    25
100
AcDbLine
 10
1539.852846
 20
2031.204546
 30
0.0
 11
1539.852846
 21
1900.928241
 31
0.0
  0
LINE
  5
4F4
102
{ACAD_REACTORS
330
524
102
}
330
1F
100
AcDbEntity
  8
LC-002-002-----0
 62
     7
370
    25
100
AcDbLine
 10
1570.052846
 20
2031.204546
 30
0.0
 11
1570.052846
 21
1913.893197
 31
0.0
  0
LINE
  5
4F5
102
{ACAD_REACTORS
330
524
102
}
330
1F
100
AcDbEntity
  8
LC-002-002-----0
 62
     7
370
    25
100
AcDbLine
 10
1589.952846
 20
2064.923481
 30
0.0
 11
1595.952846
 21
2064.923481
 31
0.0
  0
LINE
  5
4F6
102
{ACAD_REACTORS
330
526
102
}
330
1F
100
AcDbEntity
  8
LC-002-002-----0
 62
     7
370
    25
100
AcDbLine
 10
1769.568465
 20
2087.764732
 30
0.0
 11
1769.333796
 21
2089.750918
 31
0.0
  0
INSERT
  5
500
102
{ACAD_REACTORS
330
525
102
}
330
1F
100
AcDbEntity
  8
LC-011-005-----0
 62
     7
370
    25
100
AcDbBlockReference
  2
*X220
 10
0.0
 20
0.0
 30
0.0
  0
INSERT
  5
51A
330
1F
100
AcDbEntity
  8
LC-009-003-----0
 62
     7
370
    25
100
AcDbBlockReference
  2
LCDIM16
 10
0.0
 20
0.0
 30
0.0
  0
ENDSEC
  0
SECTION
  2
OBJECTS
  0
DICTIONARY
  5
C
330
0
100
AcDbDictionary
281
     1
  3
ACAD_GROUP
350
D
  3
ACAD_LAYOUT
350
1A
  3
ACAD_MLINESTYLE
350
17
  3
ACAD_PLOTSETTINGS
350
19
  3
ACAD_PLOTSTYLENAME
350
E
  0
DICTIONARY
  5
D
102
{ACAD_REACTORS
330
C
102
}
330
C
100
AcDbDictionary
281
     1
  3
LCGROUP10
350
51B
  3
LCGROUP1051
350
525
  3
LCGROUP1708
350
51C
  3
LCGROUP1723
350
51F
  3
LCGROUP1724
350
51E
  3
LCGROUP1727
350
51D
  3
LCGROUP1895
350
528
  3
LCGROUP1898
350
527
  3
LCGROUP2000
350
520
  3
LCGROUP2333
350
521
  3
LCGROUP2337
350
522
  3
LCGROUP2406
350
524
  3
LCGROUP2407
350
523
  3
LCGROUP2429
350
526
  0
DICTIONARY
  5
1A
102
{ACAD_REACTORS
330
C
102
}
330
C
100
AcDbDictionary
281
     1
  3
Layout1
350
1E
  3
Layout2
350
26
  3
Model
350
22
  0
DICTIONARY
  5
17
102
{ACAD_REACTORS
330
C
102
}
330
C
100
AcDbDictionary
281
     1
  3
Standard
350
18
  0
DICTIONARY
  5
19
102
{ACAD_REACTORS
330
C
102
}
330
C
100
AcDbDictionary
281
     1
  0
ACDBDICTIONARYWDFLT
  5
E
102
{ACAD_REACTORS
330
C
102
}
330
C
100
AcDbDictionary
281
     1
  3
Normal
350
F
100
AcDbDictionaryWithDefault
340
F
  0
GROUP
  5
51B
102
{ACAD_REACTORS
330
D
102
}
330
D
100
AcDbGroup
300
GRP10
 70
     1
 71
     1
340
106
340
107
340
108
340
109
340
10A
340
10B
340
110
340
111
340
112
340
113
340
114
340
118
340
11A
340
11C
340
120
340
121
340
122
340
123
340
124
340
125
340
126
340
127
340
128
340
129
340
12A
340
12B
340
12C
340
12D
340
12E
340
12F
340
130
340
131
340
132
340
133
340
134
340
135
340
136
340
137
340
138
340
139
340
13A
340
13B
340
13C
340
13D
340
13E
340
13F
340
140
340
141
340
142
340
143
340
151
340
153
340
214
340
215
340
216
340
217
340
218
340
219
340
21A
340
21B
340
21C
340
21D
340
21E
340
21F
340
220
340
221
340
222
340
223
340
224
340
258
340
272
  0
GROUP
  5
525
102
{ACAD_REACTORS
330
D
102
}
330
D
100
AcDbGroup
300
GRP1051
 70
     1
 71
     1
340
116
340
144
340
145
340
146
340
147
340
148
340
149
340
14A
340
14B
340
14C
340
14D
340
14E
340
14F
340
150
340
152
340
154
340
155
340
156
340
157
340
158
340
159
340
15A
340
15B
340
15C
340
15D
340
15E
340
15F
340
160
340
161
340
162
340
163
340
164
340
165
340
166
340
167
340
168
340
169
340
16A
340
16C
340
16D
340
16E
340
16F
340
170
340
171
340
172
340
173
340
174
340
175
340
176
340
177
340
178
340
179
340
17A
340
17B
340
17C
340
17D
340
17E
340
17F
340
180
340
181
340
182
340
183
340
184
340
185
340
186
340
187
340
188
340
189
340
18A
340
18B
340
18C
340
18D
340
18E
340
18F
340
190
340
191
340
192
340
193
340
194
340
195
340
196
340
197
340
198
340
199
340
19A
340
19B
340
19C
340
19D
340
19E
340
19F
340
1A0
340
1A1
340
1A2
340
1A3
340
1A4
340
1A5
340
1A6
340
1A7
340
1A8
340
1A9
340
1AA
340
1AB
340
1AC
340
1AD
340
1AE
340
1AF
340
1B0
340
1B1
340
1B2
340
1B3
340
1B4
340
1B5
340
1B6
340
1B7
340
1B8
340
1B9
340
1BA
340
1BB
340
1BC
340
1BD
340
1BE
340
1BF
340
1C0
340
1C1
340
1C2
340
1C3
340
1C4
340
1C5
340
1C6
340
1C7
340
1C8
340
1C9
340
1CA
340
1CB
340
1CC
340
1CD
340
1CE
340
1CF
340
1D0
340
1D1
340
1D2
340
1D3
340
1D4
340
1D5
340
1D6
340
1D7
340
1D8
340
1D9
340
1DA
340
1DB
340
1DC
340
1DD
340
1DE
340
1DF
340
1E0
340
1E1
340
1E2
340
1E3
340
1E4
340
1E5
340
1E6
340
1E7
340
1E8
340
1E9
340
1EA
340
1EB
340
1EC
340
1ED
340
1EE
340
1EF
340
1F0
340
1F1
340
1F2
340
1F3
340
1F4
340
1F5
340
1F6
340
213
340
23E
340
500
  0
GROUP
  5
51C
102
{ACAD_REACTORS
330
D
102
}
330
D
100
AcDbGroup
300
GRP1708-LCMaster-LCGROUP1051
 70
     1
 71
     1
340
278
340
279
340
27A
340
27B
340
27C
340
27D
340
27E
340
27F
340
280
340
281
340
282
340
283
340
284
340
290
  0
GROUP
  5
51F
102
{ACAD_REACTORS
330
D
102
}
330
D
100
AcDbGroup
300
GRP10-LCMaster-LCGROUP2000
 70
     1
 71
     1
340
292
340
2E4
340
2E5
340
2E6
340
2E7
340
2E8
340
2E9
340
2EA
340
2EB
340
2EC
340
2ED
340
2EE
340
2EF
340
2F0
340
2F1
340
2F2
340
2F3
340
2F4
340
2F5
340
2F6
340
2F7
340
2F8
340
2F9
340
2FC
  0
GROUP
  5
51E
102
{ACAD_REACTORS
330
D
102
}
330
D
100
AcDbGroup
300
GRP1724-LCMaster-LCGROUP1723
 70
     1
 71
     1
340
291
340
2A1
340
2A2
340
2A4
340
2A6
340
2B0
340
2B1
340
2B2
340
2B3
340
2B4
340
2B5
340
2C9
340
2CA
340
2CB
340
2CC
340
2CD
340
2CE
340
2CF
340
2D0
340
2D7
340
2D8
340
2D9
340
2DA
340
2DB
340
2DC
340
2DD
340
2DE
340
2DF
340
2E0
340
2E1
340
2E2
340
2E3
340
2FD
  0
GROUP
  5
51D
102
{ACAD_REACTORS
330
D
102
}
330
D
100
AcDbGroup
300
GRP1727-LCMaster-LCGROUP1726
 70
     1
 71
     1
340
293
340
294
340
295
340
296
340
297
340
298
340
299
340
29A
340
29B
340
29C
340
29D
340
29E
340
29F
340
2A0
340
2A3
340
2A5
340
2A7
340
2A8
340
2A9
340
2AA
340
2AB
340
2AC
340
2AD
340
2AE
340
2AF
340
2B6
340
2B7
340
2B8
340
2B9
340
2BA
340
2BB
340
2BC
340
2BD
340
2BE
340
2BF
340
2C0
340
2C1
340
2C2
340
2C3
340
2C4
340
2C5
340
2C6
340
2C7
340
2C8
340
2D5
340
2D6
340
2FA
340
2FB
  0
GROUP
  5
528
102
{ACAD_REACTORS
330
D
102
}
330
D
100
AcDbGroup
300
GRP1895
 70
     1
 71
     1
340
2FE
340
2FF
340
303
340
304
340
305
340
306
340
307
340
308
340
36C
340
386
340
395
340
396
  0
GROUP
  5
527
102
{ACAD_REACTORS
330
D
102
}
330
D
100
AcDbGroup
300
GRP1898
 70
     1
 71
     1
340
300
340
301
340
302
340
30A
340
30B
340
30C
340
30D
340
30E
340
328
340
342
340
351
340
352
  0
GROUP
  5
520
102
{ACAD_REACTORS
330
D
102
}
330
D
100
AcDbGroup
300
GRP2000
 70
     1
 71
     1
340
11B
340
11D
340
3B4
340
3B5
340
3B6
340
3B7
340
3B8
340
3B9
340
3BA
340
3BB
340
3BC
340
3BD
340
3BE
340
3BF
340
3C0
340
3C1
340
3C2
340
3C3
340
3C4
340
3C5
340
3C6
340
3C7
340
3C8
340
3C9
340
3CA
340
3CB
340
3CC
340
3CD
340
3CE
340
3CF
340
3D0
340
3D1
340
3D2
340
3D3
340
3D4
340
3D5
340
3D6
340
3D7
340
3D8
340
3D9
340
3DA
340
3DB
340
3DC
340
3DD
340
3DE
340
3DF
340
3E0
340
3E1
340
3E2
340
3E3
340
3E4
340
3E5
340
3E6
340
3E7
340
3E8
340
3E9
340
3EA
340
3EB
340
3EC
340
3ED
340
3EE
340
3EF
340
3F0
340
3F1
340
3F2
340
3F3
340
3F4
340
3F5
340
3F6
340
410
  0
GROUP
  5
521
102
{ACAD_REACTORS
330
D
102
}
330
D
100
AcDbGroup
300
Gruppe 2333
 70
     1
 71
     1
340
445
  0
GROUP
  5
522
102
{ACAD_REACTORS
330
D
102
}
330
D
100
AcDbGroup
300
GRP2337
 70
     1
 71
     1
340
446
340
447
340
448
340
449
340
44A
340
44B
340
44C
340
44D
340
44E
340
44F
340
450
340
451
340
452
340
453
340
454
340
455
340
456
340
457
340
458
340
459
340
45A
340
45B
340
45C
340
45D
340
45E
340
45F
340
460
340
461
340
462
340
463
340
464
340
465
340
466
340
467
340
468
340
469
340
46A
340
46B
340
46C
340
46D
340
46E
340
46F
  0
GROUP
  5
524
102
{ACAD_REACTORS
330
D
102
}
330
D
100
AcDbGroup
300
GRP2406
 70
     1
 71
     1
340
48C
340
48D
340
48E
340
48F
340
490
340
491
340
492
340
498
340
499
340
49A
340
4C4
340
4D6
340
4D7
340
4D8
340
4D9
340
4DA
340
4DB
340
4DC
340
4DD
340
4DE
340
4DF
340
4E0
340
4E1
340
4E2
340
4E3
340
4E4
340
4E5
340
4E6
340
4E7
340
4E8
340
4E9
340
4EA
340
4EB
340
4EC
340
4ED
340
4EE
340
4EF
340
4F0
340
4F1
340
4F2
340
4F3
340
4F4
340
4F5
  0
GROUP
  5
523
102
{ACAD_REACTORS
330
D
102
}
330
D
100
AcDbGroup
300
GRP2407-LCMaster-LCGROUP2406
 70
     1
 71
     1
340
48A
340
48B
340
493
340
494
340
495
340
496
340
497
340
4C5
340
4C6
340
4C7
  0
GROUP
  5
526
102
{ACAD_REACTORS
330
D
102
}
330
D
100
AcDbGroup
300
GRP2429-LCMaster-LCGROUP2407
 70
     1
 71
     1
340
4C8
340
4C9
340
4CA
340
4CB
340
4CC
340
4CD
340
4CE
340
4CF
340
4D0
340
4D1
340
4D2
340
4D3
340
4D4
340
4D5
340
4F6
  0
LAYOUT
  5
1E
102
{ACAD_REACTORS
330
1A
102
}
330
1A
100
AcDbPlotSettings
  1

  2

  4

  6

 40
0.0
 41
0.0
 42
0.0
 43
0.0
 44
0.0
 45
0.0
 46
0.0
 47
0.0
 48
0.0
 49
0.0
140
0.0
141
0.0
142
1.0
143
1.0
 70
   688
 72
     0
 73
     0
 74
     5
  7

 75
    16
 76
     0
 77
     2
 78
   300
147
1.0
148
0.0
149
0.0
100
AcDbLayout
  1
Layout1
 70
     1
 71
     1
 10
0.0
 20
0.0
 11
2100.0
 21
2970.0
 12
0.0
 22
0.0
 32
0.0
 14
0.0
 24
0.0
 34
0.0
 15
2100.0
 25
2970.0
 35
0.0
146
0.0
 13
0.0
 23
0.0
 33
0.0
 16
1.0
 26
0.0
 36
0.0
 17
0.0
 27
1.0
 37
0.0
 76
     0
330
1B
  0
LAYOUT
  5
26
102
{ACAD_REACTORS
330
1A
102
}
330
1A
100
AcDbPlotSettings
  1

  2

  4

  6

 40
0.0
 41
0.0
 42
0.0
 43
0.0
 44
0.0
 45
0.0
 46
0.0
 47
0.0
 48
0.0
 49
0.0
140
0.0
141
0.0
142
1.0
143
1.0
 70
   688
 72
     0
 73
     0
 74
     5
  7

 75
    16
 76
     0
 77
     2
 78
   300
147
1.0
148
0.0
149
0.0
100
AcDbLayout
  1
Layout2
 70
     1
 71
     2
 10
0.0
 20
0.0
 11
0.0
 21
0.0
 12
0.0
 22
0.0
 32
0.0
 14
0.0
 24
0.0
 34
0.0
 15
0.0
 25
0.0
 35
0.0
146
0.0
 13
0.0
 23
0.0
 33
0.0
 16
1.0
 26
0.0
 36
0.0
 17
0.0
 27
1.0
 37
0.0
 76
     0
330
23
  0
LAYOUT
  5
22
102
{ACAD_REACTORS
330
1A
102
}
330
1A
100
AcDbPlotSettings
  1

  2

  4

  6

 40
0.0
 41
0.0
 42
0.0
 43
0.0
 44
0.0
 45
0.0
 46
0.0
 47
0.0
 48
0.0
 49
0.0
140
0.0
141
0.0
142
1.0
143
1.0
 70
  1776
 72
     0
 73
     0
 74
     0
  7

 75
     0
 76
     0
 77
     2
 78
   300
147
1.0
148
0.0
149
0.0
100
AcDbLayout
  1
Model
 70
     1
 71
     0
 10
0.0
 20
0.0
 11
2100.0
 21
2970.0
 12
0.0
 22
0.0
 32
0.0
 14
0.0
 24
0.0
 34
0.0
 15
2100.0
 25
2970.0
 35
0.0
146
0.0
 13
0.0
 23
0.0
 33
0.0
 16
1.0
 26
0.0
 36
0.0
 17
0.0
 27
1.0
 37
0.0
 76
     0
330
1F
  0
MLINESTYLE
  5
18
102
{ACAD_REACTORS
330
17
102
}
330
17
100
AcDbMlineStyle
  2
Standard
 70
     0
  3

 62
   256
 51
90.0
 52
90.0
 71
     2
 49
0.5
 62
   256
  6
BYLAYER
 49
-0.5
 62
   256
  6
BYLAYER
  0
ACDBPLACEHOLDER
  5
F
102
{ACAD_REACTORS
330
E
102
}
330
E
  0
ENDSEC
  0
EOF
