  0
SECTION
  2
HEADER
  9
$ACADVER
  1
AC1015
  9
$ACADMAINTVER
 70
     6
  9
$DWGCODEPAGE
  3
ANSI_1252
  9
$INSBASE
 10
0.0
 20
0.0
 30
0.0
  9
$EXTMIN
 10
0.0
 20
0.0
 30
0.0
  9
$EXTMAX
 10
2100.0
 20
2970.0
 30
0.0
  9
$LIMMIN
 10
0.0
 20
0.0
  9
$LIMMAX
 10
2100.0
 20
2970.0
  9
$ORTHOMODE
 70
     0
  9
$REGENMODE
 70
     1
  9
$FILLMODE
 70
     1
  9
$QTEXTMODE
 70
     0
  9
$MIRRTEXT
 70
     1
  9
$LTSCALE
 40
10.0
  9
$ATTMODE
 70
     1
  9
$TEXTSIZE
 40
2.5
  9
$TRACEWID
 40
1.0
  9
$TEXTSTYLE
  7
Standard
  9
$CLAYER
  8
0
  9
$CELTYPE
  6
ByLayer
  9
$CECOLOR
 62
     7
  9
$CELTSCALE
 40
1.0
  9
$DISPSILH
 70
     0
  9
$DIMSCALE
 40
10.0
  9
$DIMASZ
 40
3.5
  9
$DIMEXO
 40
0.625
  9
$DIMDLI
 40
3.75
  9
$DIMRND
 40
0.0
  9
$DIMDLE
 40
0.0
  9
$DIMEXE
 40
1.25
  9
$DIMTP
 40
0.0
  9
$DIMTM
 40
0.0
  9
$DIMTXT
 40
3.5
  9
$DIMCEN
 40
2.5
  9
$DIMTSZ
 40
0.0
  9
$DIMTOL
 70
     0
  9
$DIMLIM
 70
     0
  9
$DIMTIH
 70
     0
  9
$DIMTOH
 70
     0
  9
$DIMSE1
 70
     0
  9
$DIMSE2
 70
     0
  9
$DIMTAD
 70
     1
  9
$DIMZIN
 70
     8
  9
$DIMBLK
  1

  9
$DIMASO
 70
     1
  9
$DIMSHO
 70
     1
  9
$DIMPOST
  1

  9
$DIMAPOST
  1

  9
$DIMALT
 70
     0
  9
$DIMALTD
 70
     3
  9
$DIMALTF
 40
0.03937
  9
$DIMLFAC
 40
1.0
  9
$DIMTOFL
 70
     1
  9
$DIMTVP
 40
0.0
  9
$DIMTIX
 70
     0
  9
$DIMSOXD
 70
     0
  9
$DIMSAH
 70
     0
  9
$DIMBLK1
  1

  9
$DIMBLK2
  1

  9
$DIMSTYLE
  2
ISO-25
  9
$DIMCLRD
 70
     0
  9
$DIMCLRE
 70
     0
  9
$DIMCLRT
 70
     0
  9
$DIMTFAC
 40
1.0
  9
$DIMGAP
 40
0.625
  9
$DIMJUST
 70
     0
  9
$DIMSD1
 70
     0
  9
$DIMSD2
 70
     0
  9
$DIMTOLJ
 70
     0
  9
$DIMTZIN
 70
     8
  9
$DIMALTZ
 70
     0
  9
$DIMALTTZ
 70
     0
  9
$DIMUPT
 70
     0
  9
$DIMDEC
 70
     2
  9
$DIMTDEC
 70
     2
  9
$DIMALTU
 70
     2
  9
$DIMALTTD
 70
     3
  9
$DIMTXSTY
  7
Standard
  9
$DIMAUNIT
 70
     0
  9
$DIMADEC
 70
     0
  9
$DIMALTRND
 40
0.0
  9
$DIMAZIN
 70
     0
  9
$DIMDSEP
 70
    44
  9
$DIMATFIT
 70
     3
  9
$DIMFRAC
 70
     0
  9
$DIMLDRBLK
  1

  9
$DIMLUNIT
 70
     2
  9
$DIMLWD
 70
    -2
  9
$DIMLWE
 70
    -2
  9
$DIMTMOVE
 70
     0
  9
$LUNITS
 70
     2
  9
$LUPREC
 70
     4
  9
$SKETCHINC
 40
1.0
  9
$FILLETRAD
 40
10.0
  9
$AUNITS
 70
     0
  9
$AUPREC
 70
     0
  9
$MENU
  1
.
  9
$ELEVATION
 40
0.0
  9
$PELEVATION
 40
0.0
  9
$THICKNESS
 40
0.0
  9
$LIMCHECK
 70
     0
  9
$CHAMFERA
 40
10.0
  9
$CHAMFERB
 40
10.0
  9
$CHAMFERC
 40
20.0
  9
$CHAMFERD
 40
0.0
  9
$SKPOLY
 70
     0
  9
$TDCREATE
 40
2454522.787527176
  9
$TDUCREATE
 40
2454522.745860509
  9
$TDUPDATE
 40
2454522.787527188
  9
$TDUUPDATE
 40
2454522.745860521
  9
$TDINDWG
 40
0.0000000116
  9
$TDUSRTIMER
 40
0.0000000116
  9
$USRTIMER
 70
     1
  9
$ANGBASE
 50
0.0
  9
$ANGDIR
 70
     0
  9
$PDMODE
 70
     0
  9
$PDSIZE
 40
0.0
  9
$PLINEWID
 40
0.0
  9
$SPLFRAME
 70
     0
  9
$SPLINETYPE
 70
     6
  9
$SPLINESEGS
 70
     8
  9
$HANDSEED
  5
653
  9
$SURFTAB1
 70
     6
  9
$SURFTAB2
 70
     6
  9
$SURFTYPE
 70
     6
  9
$SURFU
 70
     6
  9
$SURFV
 70
     6
  9
$UCSBASE
  2

  9
$UCSNAME
  2

  9
$UCSORG
 10
0.0
 20
0.0
 30
0.0
  9
$UCSXDIR
 10
1.0
 20
0.0
 30
0.0
  9
$UCSYDIR
 10
0.0
 20
1.0
 30
0.0
  9
$UCSORTHOREF
  2

  9
$UCSORTHOVIEW
 70
     0
  9
$UCSORGTOP
 10
0.0
 20
0.0
 30
0.0
  9
$UCSORGBOTTOM
 10
0.0
 20
0.0
 30
0.0
  9
$UCSORGLEFT
 10
0.0
 20
0.0
 30
0.0
  9
$UCSORGRIGHT
 10
0.0
 20
0.0
 30
0.0
  9
$UCSORGFRONT
 10
0.0
 20
0.0
 30
0.0
  9
$UCSORGBACK
 10
0.0
 20
0.0
 30
0.0
  9
$PUCSBASE
  2

  9
$PUCSNAME
  2

  9
$PUCSORG
 10
0.0
 20
0.0
 30
0.0
  9
$PUCSXDIR
 10
1.0
 20
0.0
 30
0.0
  9
$PUCSYDIR
 10
0.0
 20
1.0
 30
0.0
  9
$PUCSORTHOREF
  2

  9
$PUCSORTHOVIEW
 70
     0
  9
$PUCSORGTOP
 10
0.0
 20
0.0
 30
0.0
  9
$PUCSORGBOTTOM
 10
0.0
 20
0.0
 30
0.0
  9
$PUCSORGLEFT
 10
0.0
 20
0.0
 30
0.0
  9
$PUCSORGRIGHT
 10
0.0
 20
0.0
 30
0.0
  9
$PUCSORGFRONT
 10
0.0
 20
0.0
 30
0.0
  9
$PUCSORGBACK
 10
0.0
 20
0.0
 30
0.0
  9
$USERI1
 70
     0
  9
$USERI2
 70
     0
  9
$USERI3
 70
     0
  9
$USERI4
 70
     0
  9
$USERI5
 70
     0
  9
$USERR1
 40
0.0
  9
$USERR2
 40
0.0
  9
$USERR3
 40
0.0
  9
$USERR4
 40
0.0
  9
$USERR5
 40
0.0
  9
$WORLDVIEW
 70
     1
  9
$SHADEDGE
 70
     3
  9
$SHADEDIF
 70
    70
  9
$TILEMODE
 70
     1
  9
$MAXACTVP
 70
    64
  9
$PINSBASE
 10
0.0
 20
0.0
 30
0.0
  9
$PLIMCHECK
 70
     0
  9
$PEXTMIN
 10
0.0
 20
0.0
 30
0.0
  9
$PEXTMAX
 10
2100.0
 20
2970.0
 30
0.0
  9
$PLIMMIN
 10
0.0
 20
0.0
  9
$PLIMMAX
 10
2100.0
 20
2970.0
  9
$UNITMODE
 70
     0
  9
$VISRETAIN
 70
     1
  9
$PLINEGEN
 70
     0
  9
$PSLTSCALE
 70
     1
  9
$TREEDEPTH
 70
  3020
  9
$CMLSTYLE
  2
Standard
  9
$CMLJUST
 70
     0
  9
$CMLSCALE
 40
20.0
  9
$PROXYGRAPHICS
 70
     1
  9
$MEASUREMENT
 70
     1
  9
$CELWEIGHT
370
    -1
  9
$ENDCAPS
280
     0
  9
$JOINSTYLE
280
     0
  9
$LWDISPLAY
290
     0
  9
$INSUNITS
 70
     4
  9
$HYPERLINKBASE
  1

  9
$STYLESHEET
  1

  9
$XEDIT
290
     1
  9
$CEPSNTYPE
380
     0
  9
$PSTYLEMODE
290
     1
  9
$FINGERPRINTGUID
  2
{FAEB1C30-E019-11D5-929B-00C0DF256EC4}
  9
$VERSIONGUID
  2
{FAEB1C32-E019-11D5-929B-00C0DF256EC4}
  9
$EXTNAMES
290
     1
  9
$PSVPSCALE
 40
0.0
  9
$OLESTARTUP
290
     0
  0
ENDSEC
  0
SECTION
  2
CLASSES
  0
CLASS
  1
ACDBDICTIONARYWDFLT
  2
AcDbDictionaryWithDefault
  3
ObjectDBX Classes
 90
        0
280
     0
281
     0
  0
CLASS
  1
ACDBPLACEHOLDER
  2
AcDbPlaceHolder
  3
ObjectDBX Classes
 90
        0
280
     0
281
     0
  0
CLASS
  1
LAYOUT
  2
AcDbLayout
  3
ObjectDBX Classes
 90
        0
280
     0
281
     0
  0
ENDSEC
  0
SECTION
  2
TABLES
  0
TABLE
  2
VPORT
  5
8
330
0
100
AcDbSymbolTable
 70
     2
  0
VPORT
  5
29
330
8
100
AcDbSymbolTableRecord
100
AcDbViewportTableRecord
  2
*ACTIVE
 70
     0
 10
0.0
 20
0.0
 11
1.0
 21
1.0
 12
1050.0
 22
1485.0
 13
0.0
 23
0.0
 14
1.0
 24
1.0
 15
0.0
 25
0.0
 16
0.0
 26
0.0
 36
1.0
 17
0.0
 27
0.0
 37
0.0
 40
2970.0
 41
0.707071
 42
50.0
 43
0.0
 44
0.0
 50
0.0
 51
0.0
 71
    16
 72
   100
 73
     1
 74
     0
 75
     0
 76
     0
 77
     0
 78
     0
281
     0
 65
     0
110
0.0
120
0.0
130
0.0
111
1.0
121
0.0
131
0.0
112
0.0
122
1.0
132
0.0
 79
     0
146
0.0
  0
ENDTAB
  0
TABLE
  2
LTYPE
  5
5
330
0
100
AcDbSymbolTable
 70
     4
  0
LTYPE
  5
14
330
5
100
AcDbSymbolTableRecord
100
AcDbLinetypeTableRecord
  2
ByBlock
 70
     0
  3

 72
    65
 73
     0
 40
0.0
  0
LTYPE
  5
15
330
5
100
AcDbSymbolTableRecord
100
AcDbLinetypeTableRecord
  2
ByLayer
 70
     0
  3

 72
    65
 73
     0
 40
0.0
  0
LTYPE
  5
16
330
5
100
AcDbSymbolTableRecord
100
AcDbLinetypeTableRecord
  2
Continuous
 70
     0
  3
Solid line
 72
    65
 73
     0
 40
0.0
  0
LTYPE
  5
2A
330
5
100
AcDbSymbolTableRecord
100
AcDbLinetypeTableRecord
  2
DASHED
 70
     0
  3
__ __ __ __ __
 72
    65
 73
     2
 40
6.25
 49
5.0
 74
     4
 75
     0
340
0
 46
1.0
 50
0.0
 44
0.0
 45
0.0
 49
-1.25
 74
     4
 75
     0
340
0
 46
1.0
 50
0.0
 44
0.0
 45
0.0
  0
LTYPE
  5
125
330
5
100
AcDbSymbolTableRecord
100
AcDbLinetypeTableRecord
  2
CENTER
 70
     0
  3
__ . __ . __ . __ . __
 72
    65
 73
     4
 40
7.5
 49
5.0
 74
     4
 75
     0
340
0
 46
1.0
 50
0.0
 44
0.0
 45
0.0
 49
-1.25
 74
     4
 75
     0
340
0
 46
1.0
 50
0.0
 44
0.0
 45
0.0
 49
0.0
 74
     4
 75
     0
340
0
 46
1.0
 50
0.0
 44
0.0
 45
0.0
 49
-1.25
 74
     4
 75
     0
340
0
 46
1.0
 50
0.0
 44
0.0
 45
0.0
  0
LTYPE
  5
13D
330
5
100
AcDbSymbolTableRecord
100
AcDbLinetypeTableRecord
  2
DASHDOT
 70
     0
  3
__ . __ . __ . __ . __
 72
    65
 73
     4
 40
7.5
 49
5.0
 74
     4
 75
     0
340
0
 46
1.0
 50
0.0
 44
0.0
 45
0.0
 49
-1.25
 74
     4
 75
     0
340
0
 46
1.0
 50
0.0
 44
0.0
 45
0.0
 49
0.0
 74
     4
 75
     0
340
0
 46
1.0
 50
0.0
 44
0.0
 45
0.0
 49
-1.25
 74
     4
 75
     0
340
0
 46
1.0
 50
0.0
 44
0.0
 45
0.0
  0
ENDTAB
  0
TABLE
  2
LAYER
  5
2
330
0
100
AcDbSymbolTable
 70
    16
  0
LAYER
  5
10
330
2
100
AcDbSymbolTableRecord
100
AcDbLayerTableRecord
  2
0
 70
     0
 62
     7
  6
Continuous
370
    -3
390
F
  0
LAYER
  5
2B
330
2
100
AcDbSymbolTableRecord
100
AcDbLayerTableRecord
  2
LC-INFO-1-10-mm-A4H-0
 70
     1
 62
     7
  6
ByBlock
370
    -3
390
F
  0
LAYER
  5
2C
330
2
100
AcDbSymbolTableRecord
100
AcDbLayerTableRecord
  2
LC-CUT-HIDDEN
 70
     0
 62
     7
  6
DASHED
370
    -3
390
F
  0
LAYER
  5
2D
330
2
100
AcDbSymbolTableRecord
100
AcDbLayerTableRecord
  2
LC-VIEWPORT
 70
     0
 62
     7
  6
ByBlock
370
    -3
390
F
  0
LAYER
  5
2E
330
2
100
AcDbSymbolTableRecord
100
AcDbLayerTableRecord
  2
LC-3D-HIDDEN
 70
     0
 62
     9
  6
DASHED
370
    -3
390
F
  0
LAYER
  5
33
330
2
100
AcDbSymbolTableRecord
100
AcDbLayerTableRecord
  2
LC-001-111-----0
 70
     0
 62
   253
  6
ByBlock
370
    -3
390
F
  0
LAYER
  5
A0
330
2
100
AcDbSymbolTableRecord
100
AcDbLayerTableRecord
  2
LC-002-002-----0
 70
     0
 62
     1
  6
ByBlock
370
    -3
390
F
  0
LAYER
  5
101
330
2
100
AcDbSymbolTableRecord
100
AcDbLayerTableRecord
  2
LC-003-230-ZVN-0
 70
     0
 62
     7
  6
ByBlock
370
    -3
390
F
  0
LAYER
  5
105
330
2
100
AcDbSymbolTableRecord
100
AcDbLayerTableRecord
  2
LC-004-002-RND-0
 70
     0
 62
     1
  6
ByBlock
370
    -3
390
F
  0
LAYER
  5
126
330
2
100
AcDbSymbolTableRecord
100
AcDbLayerTableRecord
  2
LC-005-006-MLN-0
 70
     0
 62
     2
  6
CENTER
370
    -3
390
F
  0
LAYER
  5
143
330
2
100
AcDbSymbolTableRecord
100
AcDbLayerTableRecord
  2
LC-006-002-___-0
 70
     0
 62
     1
  6
ByBlock
370
    -3
390
F
  0
LAYER
  5
269
330
2
100
AcDbSymbolTableRecord
100
AcDbLayerTableRecord
  2
LC-007-003-MTH-0
 70
     0
 62
     2
  6
ByBlock
370
    -3
390
F
  0
LAYER
  5
26C
330
2
100
AcDbSymbolTableRecord
100
AcDbLayerTableRecord
  2
LC-008-003-MTG-0
 70
     0
 62
     2
  6
ByBlock
370
    -3
390
F
  0
LAYER
  5
26E
330
2
100
AcDbSymbolTableRecord
100
AcDbLayerTableRecord
  2
LC-009-003-----0
 70
     0
 62
     2
  6
ByBlock
370
    -3
390
F
  0
LAYER
  5
2C6
330
2
100
AcDbSymbolTableRecord
100
AcDbLayerTableRecord
  2
LC-010-005-----0
 70
     0
 62
     2
  6
ByBlock
370
    -3
390
F
  0
LAYER
  5
366
330
2
100
AcDbSymbolTableRecord
100
AcDbLayerTableRecord
  2
LC-011-004-----0
 70
     0
 62
     7
  6
ByBlock
370
    -3
390
F
  0
ENDTAB
  0
TABLE
  2
STYLE
  5
3
330
0
100
AcDbSymbolTable
 70
     2
  0
STYLE
  5
11
330
3
100
AcDbSymbolTableRecord
100
AcDbTextStyleTableRecord
  2
Standard
 70
     0
 40
0.0
 41
1.0
 50
0.0
 71
     0
 42
2.5
  3
txt
  4

  0
STYLE
  5
2F
330
3
100
AcDbSymbolTableRecord
100
AcDbTextStyleTableRecord
  2
LCTX0-400-0-0pDIN-Schrift
 70
     0
 40
0.0
 41
0.7
 50
0.0
 71
     0
 42
3.5
  3
TXT
  4

  0
ENDTAB
  0
TABLE
  2
VIEW
  5
6
330
0
100
AcDbSymbolTable
 70
     0
  0
ENDTAB
  0
TABLE
  2
UCS
  5
7
330
0
100
AcDbSymbolTable
 70
     0
  0
ENDTAB
  0
TABLE
  2
APPID
  5
9
330
0
100
AcDbSymbolTable
 70
     1
  0
APPID
  5
12
330
9
100
AcDbSymbolTableRecord
100
AcDbRegAppTableRecord
  2
ACAD
 70
     0
  0
ENDTAB
  0
TABLE
  2
DIMSTYLE
  5
A
330
0
100
AcDbSymbolTable
 70
     1
100
AcDbDimStyleTable
  0
DIMSTYLE
105
27
330
A
100
AcDbSymbolTableRecord
100
AcDbDimStyleTableRecord
  2
ISO-25
 70
     0
 41
2.5
 42
0.625
 43
3.75
 44
1.25
 73
     0
 74
     0
 77
     1
 78
     8
140
2.5
141
2.5
143
0.03937
147
0.625
171
     3
172
     1
271
     2
272
     2
274
     3
278
    44
283
     0
284
     8
340
11
  0
ENDTAB
  0
TABLE
  2
BLOCK_RECORD
  5
1
330
0
100
AcDbSymbolTable
 70
    37
  0
BLOCK_RECORD
  5
1F
330
1
100
AcDbSymbolTableRecord
100
AcDbBlockTableRecord
  2
*Model_Space
340
22
  0
BLOCK_RECORD
  5
1B
330
1
100
AcDbSymbolTableRecord
100
AcDbBlockTableRecord
  2
*Paper_Space
340
1E
  0
BLOCK_RECORD
  5
23
330
1
100
AcDbSymbolTableRecord
100
AcDbBlockTableRecord
  2
*Paper_Space0
340
26
  0
BLOCK_RECORD
  5
30
330
1
100
AcDbSymbolTableRecord
100
AcDbBlockTableRecord
  2
SYM1
340
0
102
{BLKREFS
331
102
102
}
  0
BLOCK_RECORD
  5
266
330
1
100
AcDbSymbolTableRecord
100
AcDbBlockTableRecord
  2
LCDIM1
340
0
102
{BLKREFS
331
282
102
}
  0
BLOCK_RECORD
  5
283
330
1
100
AcDbSymbolTableRecord
100
AcDbBlockTableRecord
  2
LCDIM2
340
0
102
{BLKREFS
331
29C
102
}
  0
BLOCK_RECORD
  5
29D
330
1
100
AcDbSymbolTableRecord
100
AcDbBlockTableRecord
  2
LCDIM3
340
0
102
{BLKREFS
331
2B6
102
}
  0
BLOCK_RECORD
  5
2C3
330
1
100
AcDbSymbolTableRecord
100
AcDbBlockTableRecord
  2
*X15
340
0
102
{BLKREFS
331
2CB
102
}
  0
BLOCK_RECORD
  5
2CC
330
1
100
AcDbSymbolTableRecord
100
AcDbBlockTableRecord
  2
LCDIM4
340
0
102
{BLKREFS
331
2E5
102
}
  0
BLOCK_RECORD
  5
2E7
330
1
100
AcDbSymbolTableRecord
100
AcDbBlockTableRecord
  2
LCDIM5
340
0
102
{BLKREFS
331
300
102
}
  0
BLOCK_RECORD
  5
301
330
1
100
AcDbSymbolTableRecord
100
AcDbBlockTableRecord
  2
LCDIM6
340
0
102
{BLKREFS
331
31A
102
}
  0
BLOCK_RECORD
  5
323
330
1
100
AcDbSymbolTableRecord
100
AcDbBlockTableRecord
  2
LCDIM7
340
0
102
{BLKREFS
331
33C
102
}
  0
BLOCK_RECORD
  5
33D
330
1
100
AcDbSymbolTableRecord
100
AcDbBlockTableRecord
  2
LCDIM8
340
0
102
{BLKREFS
331
356
102
}
  0
BLOCK_RECORD
  5
357
330
1
100
AcDbSymbolTableRecord
100
AcDbBlockTableRecord
  2
LCDIM9
340
0
102
{BLKREFS
331
365
102
}
  0
BLOCK_RECORD
  5
368
330
1
100
AcDbSymbolTableRecord
100
AcDbBlockTableRecord
  2
LCDIM10
340
0
102
{BLKREFS
331
381
102
}
  0
BLOCK_RECORD
  5
382
330
1
100
AcDbSymbolTableRecord
100
AcDbBlockTableRecord
  2
*X213
340
0
102
{BLKREFS
331
38A
102
}
  0
BLOCK_RECORD
  5
3D8
330
1
100
AcDbSymbolTableRecord
100
AcDbBlockTableRecord
  2
POLY1
340
0
102
{BLKREFS
331
3E1
102
}
  0
BLOCK_RECORD
  5
3E2
330
1
100
AcDbSymbolTableRecord
100
AcDbBlockTableRecord
  2
POLY2
340
0
102
{BLKREFS
331
3EB
102
}
  0
BLOCK_RECORD
  5
3EC
330
1
100
AcDbSymbolTableRecord
100
AcDbBlockTableRecord
  2
POLY3
340
0
102
{BLKREFS
331
3F9
102
}
  0
BLOCK_RECORD
  5
3FA
330
1
100
AcDbSymbolTableRecord
100
AcDbBlockTableRecord
  2
POLY4
340
0
102
{BLKREFS
331
407
102
}
  0
BLOCK_RECORD
  5
408
330
1
100
AcDbSymbolTableRecord
100
AcDbBlockTableRecord
  2
POLY5
340
0
102
{BLKREFS
331
41F
102
}
  0
BLOCK_RECORD
  5
420
330
1
100
AcDbSymbolTableRecord
100
AcDbBlockTableRecord
  2
POLY6
340
0
102
{BLKREFS
331
429
102
}
  0
BLOCK_RECORD
  5
42A
330
1
100
AcDbSymbolTableRecord
100
AcDbBlockTableRecord
  2
POLY7
340
0
102
{BLKREFS
331
43B
102
}
  0
BLOCK_RECORD
  5
43C
330
1
100
AcDbSymbolTableRecord
100
AcDbBlockTableRecord
  2
POLY8
340
0
102
{BLKREFS
331
465
102
}
  0
BLOCK_RECORD
  5
474
330
1
100
AcDbSymbolTableRecord
100
AcDbBlockTableRecord
  2
POLY9
340
0
102
{BLKREFS
331
483
102
}
  0
BLOCK_RECORD
  5
484
330
1
100
AcDbSymbolTableRecord
100
AcDbBlockTableRecord
  2
POLY10
340
0
102
{BLKREFS
331
491
102
}
  0
BLOCK_RECORD
  5
4F1
330
1
100
AcDbSymbolTableRecord
100
AcDbBlockTableRecord
  2
POLY11
340
0
102
{BLKREFS
331
4F5
102
}
  0
BLOCK_RECORD
  5
505
330
1
100
AcDbSymbolTableRecord
100
AcDbBlockTableRecord
  2
POLY12
340
0
102
{BLKREFS
331
514
102
}
  0
BLOCK_RECORD
  5
532
330
1
100
AcDbSymbolTableRecord
100
AcDbBlockTableRecord
  2
LCDIM11
340
0
102
{BLKREFS
331
54B
102
}
  0
BLOCK_RECORD
  5
586
330
1
100
AcDbSymbolTableRecord
100
AcDbBlockTableRecord
  2
POLY13
340
0
102
{BLKREFS
331
591
102
}
  0
BLOCK_RECORD
  5
592
330
1
100
AcDbSymbolTableRecord
100
AcDbBlockTableRecord
  2
POLY14
340
0
102
{BLKREFS
331
599
102
}
  0
BLOCK_RECORD
  5
59A
330
1
100
AcDbSymbolTableRecord
100
AcDbBlockTableRecord
  2
POLY15
340
0
102
{BLKREFS
331
5A5
102
}
  0
BLOCK_RECORD
  5
5AE
330
1
100
AcDbSymbolTableRecord
100
AcDbBlockTableRecord
  2
*X330
340
0
102
{BLKREFS
331
5B4
102
}
  0
BLOCK_RECORD
  5
5B5
330
1
100
AcDbSymbolTableRecord
100
AcDbBlockTableRecord
  2
*X431
340
0
102
{BLKREFS
331
5BC
102
}
  0
BLOCK_RECORD
  5
5BE
330
1
100
AcDbSymbolTableRecord
100
AcDbBlockTableRecord
  2
LCDIM12
340
0
102
{BLKREFS
331
5D7
102
}
  0
BLOCK_RECORD
  5
5D8
330
1
100
AcDbSymbolTableRecord
100
AcDbBlockTableRecord
  2
LCDIM13
340
0
102
{BLKREFS
331
5F1
102
}
  0
BLOCK_RECORD
  5
5FF
330
1
100
AcDbSymbolTableRecord
100
AcDbBlockTableRecord
  2
LCDIM14
340
0
102
{BLKREFS
331
618
102
}
  0
BLOCK_RECORD
  5
619
330
1
100
AcDbSymbolTableRecord
100
AcDbBlockTableRecord
  2
LCDIM15
340
0
102
{BLKREFS
331
632
102
}
  0
BLOCK_RECORD
  5
633
330
1
100
AcDbSymbolTableRecord
100
AcDbBlockTableRecord
  2
LCDIM16
340
0
102
{BLKREFS
331
641
102
}
  0
ENDTAB
  0
ENDSEC
  0
SECTION
  2
BLOCKS
  0
BLOCK
  5
20
330
1F
100
AcDbEntity
  8
0
100
AcDbBlockBegin
  2
*Model_Space
 70
     0
 71
     0
 10
0.0
 20
0.0
 30
0.0
  3
*Model_Space
  1

  0
ENDBLK
  5
21
330
1F
100
AcDbEntity
  8
0
100
AcDbBlockEnd
  0
BLOCK
  5
1C
330
1B
100
AcDbEntity
 67
     1
  8
0
100
AcDbBlockBegin
  2
*Paper_Space
 70
     0
 71
     0
 10
0.0
 20
0.0
 30
0.0
  3
*Paper_Space
  1

  0
ENDBLK
  5
1D
330
1B
100
AcDbEntity
 67
     1
  8
0
100
AcDbBlockEnd
  0
BLOCK
  5
24
330
23
100
AcDbEntity
  8
0
100
AcDbBlockBegin
  2
*Paper_Space0
 70
     0
 71
     0
 10
0.0
 20
0.0
 30
0.0
  3
*Paper_Space0
  1

  0
ENDBLK
  5
25
330
23
100
AcDbEntity
  8
0
100
AcDbBlockEnd
  0
BLOCK
  5
31
330
30
100
AcDbEntity
  8
0
100
AcDbBlockBegin
  2
SYM1
 70
     0
 71
     0
 10
0.0
 20
0.0
 30
0.0
  3
SYM1
  1

  4
SYM1
  0
LINE
  5
34
330
30
100
AcDbEntity
  8
LC-001-111-----0
 62
   253
370
    50
100
AcDbLine
 10
2050.0
 20
50.0
 30
0.0
 11
2050.0
 21
2920.0
 31
0.0
  0
LINE
  5
35
330
30
100
AcDbEntity
  8
LC-001-111-----0
 62
   253
370
    25
100
AcDbLine
 10
178.0
 20
220.0
 30
0.0
 11
724.0
 21
220.0
 31
0.0
  0
LINE
  5
36
330
30
100
AcDbEntity
  8
LC-001-111-----0
 62
   253
370
    35
100
AcDbLine
 10
724.0
 20
220.0
 30
0.0
 11
2050.0
 21
220.0
 31
0.0
  0
LINE
  5
37
330
30
100
AcDbEntity
  8
LC-001-111-----0
 62
   253
370
    50
100
AcDbLine
 10
178.0
 20
602.5
 30
0.0
 11
2050.0
 21
602.5
 31
0.0
  0
LINE
  5
38
330
30
100
AcDbEntity
  8
LC-001-111-----0
 62
   253
370
    25
100
AcDbLine
 10
178.0
 20
92.5
 30
0.0
 11
2050.0
 21
92.5
 31
0.0
  0
LINE
  5
39
330
30
100
AcDbEntity
  8
LC-001-111-----0
 62
   253
370
    25
100
AcDbLine
 10
178.0
 20
135.0
 30
0.0
 11
724.0
 21
135.0
 31
0.0
  0
LINE
  5
3A
330
30
100
AcDbEntity
  8
LC-001-111-----0
 62
   253
370
    25
100
AcDbLine
 10
178.0
 20
177.5
 30
0.0
 11
724.0
 21
177.5
 31
0.0
  0
LINE
  5
3B
330
30
100
AcDbEntity
  8
LC-001-111-----0
 62
   253
370
    25
100
AcDbLine
 10
178.0
 20
262.5
 30
0.0
 11
1166.0
 21
262.5
 31
0.0
  0
LINE
  5
3C
330
30
100
AcDbEntity
  8
LC-001-111-----0
 62
   253
370
    25
100
AcDbLine
 10
178.0
 20
305.0
 30
0.0
 11
1166.0
 21
305.0
 31
0.0
  0
LINE
  5
3D
330
30
100
AcDbEntity
  8
LC-001-111-----0
 62
   253
370
    25
100
AcDbLine
 10
178.0
 20
347.5
 30
0.0
 11
1166.0
 21
347.5
 31
0.0
  0
LINE
  5
3E
330
30
100
AcDbEntity
  8
LC-001-111-----0
 62
   253
370
    25
100
AcDbLine
 10
178.0
 20
390.0
 30
0.0
 11
1166.0
 21
390.0
 31
0.0
  0
LINE
  5
3F
330
30
100
AcDbEntity
  8
LC-001-111-----0
 62
   253
370
    35
100
AcDbLine
 10
178.0
 20
432.5
 30
0.0
 11
2050.0
 21
432.5
 31
0.0
  0
LINE
  5
40
330
30
100
AcDbEntity
  8
LC-001-111-----0
 62
   253
370
    25
100
AcDbLine
 10
828.0
 20
262.5
 30
0.0
 11
828.0
 21
432.5
 31
0.0
  0
LINE
  5
41
330
30
100
AcDbEntity
  8
LC-001-111-----0
 62
   253
370
    35
100
AcDbLine
 10
1920.0
 20
92.5
 30
0.0
 11
1920.0
 21
220.0
 31
0.0
  0
LINE
  5
42
330
30
100
AcDbEntity
  8
LC-001-111-----0
 62
   253
370
    25
100
AcDbLine
 10
1166.0
 20
538.75
 30
0.0
 11
2050.0
 21
538.75
 31
0.0
  0
LINE
  5
43
330
30
100
AcDbEntity
  8
LC-001-111-----0
 62
   253
370
    25
100
AcDbLine
 10
256.0
 20
50.0
 30
0.0
 11
256.0
 21
432.5
 31
0.0
  0
LINE
  5
44
330
30
100
AcDbEntity
  8
LC-001-111-----0
 62
   253
370
    25
100
AcDbLine
 10
516.0
 20
50.0
 30
0.0
 11
516.0
 21
432.5
 31
0.0
  0
LINE
  5
45
330
30
100
AcDbEntity
  8
LC-001-111-----0
 62
   253
370
    25
100
AcDbLine
 10
646.0
 20
50.0
 30
0.0
 11
646.0
 21
432.5
 31
0.0
  0
LINE
  5
46
330
30
100
AcDbEntity
  8
LC-001-111-----0
 62
   253
370
    35
100
AcDbLine
 10
724.0
 20
50.0
 30
0.0
 11
724.0
 21
602.5
 31
0.0
  0
LINE
  5
47
330
30
100
AcDbEntity
  8
LC-001-111-----0
 62
   253
370
    35
100
AcDbLine
 10
1166.0
 20
50.0
 30
0.0
 11
1166.0
 21
602.5
 31
0.0
  0
LINE
  5
48
330
30
100
AcDbEntity
  8
LC-001-111-----0
 62
   253
370
    25
100
AcDbLine
 10
1920.0
 20
135.0
 30
0.0
 11
2050.0
 21
135.0
 31
0.0
  0
LINE
  5
49
330
30
100
AcDbEntity
  8
LC-001-111-----0
 62
   253
370
    25
100
AcDbLine
 10
984.0
 20
220.0
 30
0.0
 11
984.0
 21
602.5
 31
0.0
  0
LINE
  5
4A
330
30
100
AcDbEntity
  8
LC-001-111-----0
 62
   253
370
    25
100
AcDbLine
 10
1686.0
 20
538.75
 30
0.0
 11
1686.0
 21
602.5
 31
0.0
  0
LINE
  5
4B
330
30
100
AcDbEntity
  8
LC-001-111-----0
 62
   253
370
    25
100
AcDbLine
 10
1608.0
 20
50.0
 30
0.0
 11
1608.0
 21
92.5
 31
0.0
  0
LINE
  5
4C
330
30
100
AcDbEntity
  8
LC-001-111-----0
 62
   253
370
    50
100
AcDbLine
 10
178.0
 20
50.0
 30
0.0
 11
178.0
 21
2920.0
 31
0.0
  0
LINE
  5
4D
330
30
100
AcDbEntity
  8
LC-001-111-----0
 62
   253
370
    50
100
AcDbLine
 10
178.0
 20
2920.0
 30
0.0
 11
2050.0
 21
2920.0
 31
0.0
  0
TEXT
  5
4E
330
30
100
AcDbEntity
  8
LC-001-111-----0
 62
     7
370
    25
100
AcDbText
 10
1471.410714
 20
558.125
 30
0.0
 40
25.0
  1
1:10
 41
0.75
  7
LCTX0-400-0-0pDIN-Schrift
 72
     1
 11
1504.0
 21
558.125
 31
0.0
100
AcDbText
  0
TEXT
  5
4F
330
30
100
AcDbEntity
  8
LC-001-111-----0
 62
     7
370
    25
100
AcDbText
 10
740.285714
 20
398.75
 30
0.0
 40
25.0
  1
2000
 41
0.75
  7
LCTX0-400-0-0pDIN-Schrift
 72
     1
 11
776.0
 21
398.75
 31
0.0
100
AcDbText
  0
TEXT
  5
50
330
30
100
AcDbEntity
  8
LC-001-111-----0
 62
     7
370
    25
100
AcDbText
 10
861.803571
 20
356.25
 30
0.0
 40
25.0
  1
08.08.
 41
0.75
  7
LCTX0-400-0-0pDIN-Schrift
 72
     1
 11
906.0
 21
356.25
 31
0.0
100
AcDbText
  0
TEXT
  5
51
330
30
100
AcDbEntity
  8
LC-001-111-----0
 62
     7
370
    25
100
AcDbText
 10
1056.696429
 20
356.25
 30
0.0
 40
25.0
  1
HÄ
 41
0.75
  7
LCTX0-400-0-0pDIN-Schrift
 72
     1
 11
1075.0
 21
356.25
 31
0.0
100
AcDbText
  0
TEXT
  5
52
330
30
100
AcDbEntity
  8
LC-001-111-----0
 62
   253
370
    20
100
AcDbText
 10
1183.923077
 20
560.625
 30
0.0
 40
20.0
  1
Maßstab
 41
0.75
  7
LCTX0-400-0-0pDIN-Schrift
100
AcDbText
  0
TEXT
  5
53
330
30
100
AcDbEntity
  8
LC-001-111-----0
 62
   253
370
    20
100
AcDbText
 10
869.928571
 20
401.25
 30
0.0
 40
20.0
  1
Datum
 41
0.75
  7
LCTX0-400-0-0pDIN-Schrift
 72
     1
 11
906.0
 21
401.25
 31
0.0
100
AcDbText
  0
TEXT
  5
54
330
30
100
AcDbEntity
  8
LC-001-111-----0
 62
   253
370
    20
100
AcDbText
 10
1042.857143
 20
401.25
 30
0.0
 40
20.0
  1
Name
 41
0.75
  7
LCTX0-400-0-0pDIN-Schrift
 72
     1
 11
1075.0
 21
401.25
 31
0.0
100
AcDbText
  0
TEXT
  5
55
330
30
100
AcDbEntity
  8
LC-001-111-----0
 62
   253
370
    20
100
AcDbText
 10
741.923077
 20
358.75
 30
0.0
 40
20.0
  1
Bearb.
 41
0.75
  7
LCTX0-400-0-0pDIN-Schrift
100
AcDbText
  0
TEXT
  5
56
330
30
100
AcDbEntity
  8
LC-001-111-----0
 62
   253
370
    20
100
AcDbText
 10
741.923077
 20
316.25
 30
0.0
 40
20.0
  1
Gepr.
 41
0.75
  7
LCTX0-400-0-0pDIN-Schrift
100
AcDbText
  0
TEXT
  5
57
330
30
100
AcDbEntity
  8
LC-001-111-----0
 62
   253
370
    20
100
AcDbText
 10
741.923077
 20
273.75
 30
0.0
 40
20.0
  1
Norm
 41
0.75
  7
LCTX0-400-0-0pDIN-Schrift
100
AcDbText
  0
TEXT
  5
58
330
30
100
AcDbEntity
  8
LC-001-111-----0
 62
   253
370
    20
100
AcDbText
 10
1937.923077
 20
188.75
 30
0.0
 40
20.0
  1
Blatt
 41
0.75
  7
LCTX0-400-0-0pDIN-Schrift
100
AcDbText
  0
TEXT
  5
59
330
30
100
AcDbEntity
  8
LC-001-111-----0
 62
   253
370
    20
100
AcDbText
 10
2012.076923
 20
103.75
 30
0.0
 40
20.0
  1
Bl.
 41
0.75
  7
LCTX0-400-0-0pDIN-Schrift
 72
     2
 11
2037.076923
 21
103.75
 31
0.0
100
AcDbText
  0
TEXT
  5
5A
330
30
100
AcDbEntity
  8
LC-001-111-----0
 62
   253
370
    20
100
AcDbText
 10
200.0
 20
61.25
 30
0.0
 40
20.0
  1
Zust.
 41
0.6
  7
LCTX0-400-0-0pDIN-Schrift
 72
     1
 11
222.0
 21
61.25
 31
0.0
100
AcDbText
  0
TEXT
  5
5B
330
30
100
AcDbEntity
  8
LC-001-111-----0
 62
   253
370
    20
100
AcDbText
 10
334.928571
 20
61.25
 30
0.0
 40
20.0
  1
Änderung
 41
0.75
  7
LCTX0-400-0-0pDIN-Schrift
 72
     1
 11
386.0
 21
61.25
 31
0.0
100
AcDbText
  0
TEXT
  5
5C
330
30
100
AcDbEntity
  8
LC-001-111-----0
 62
   253
370
    20
100
AcDbText
 10
544.928571
 20
61.25
 30
0.0
 40
20.0
  1
Datum
 41
0.75
  7
LCTX0-400-0-0pDIN-Schrift
 72
     1
 11
581.0
 21
61.25
 31
0.0
100
AcDbText
  0
TEXT
  5
5D
330
30
100
AcDbEntity
  8
LC-001-111-----0
 62
   253
370
    20
100
AcDbText
 10
652.857143
 20
61.25
 30
0.0
 40
20.0
  1
Name
 41
0.75
  7
LCTX0-400-0-0pDIN-Schrift
 72
     1
 11
685.0
 21
61.25
 31
0.0
100
AcDbText
  0
TEXT
  5
5E
330
30
100
AcDbEntity
  8
LC-001-111-----0
 62
     7
370
    50
100
AcDbText
 10
1410.678571
 20
343.75
 30
0.0
 40
50.0
  1
Lithos D-100
 41
0.75
  7
LCTX0-400-0-0pDIN-Schrift
 72
     1
 11
1608.0
 21
343.75
 31
0.0
100
AcDbText
  0
TEXT
  5
5F
330
30
100
AcDbEntity
  8
LC-001-111-----0
 62
     7
370
    50
100
AcDbText
 10
1328.714286
 20
131.25
 30
0.0
 40
50.0
  1
4.97.587.04.00
 41
0.75
  7
LCTX0-400-0-0pDIN-Schrift
 72
     1
 11
1543.0
 21
131.25
 31
0.0
100
AcDbText
  0
ARC
  5
60
330
30
100
AcDbEntity
  8
LC-001-111-----0
 62
   253
370
    25
100
AcDbCircle
 10
758.903191
 20
174.567744
 30
0.0
 40
20.81533311668208
100
AcDbArc
 50
62.408264
 51
94.48185
  0
LINE
  5
61
330
30
100
AcDbEntity
  8
LC-001-111-----0
 62
   253
370
    50
100
AcDbLine
 10
178.0
 20
50.0
 30
0.0
 11
2050.0
 21
50.0
 31
0.0
  0
LINE
  5
62
330
30
100
AcDbEntity
  8
LC-001-111-----0
 62
   253
370
    25
100
AcDbLine
 10
50.0
 20
1485.0
 30
0.0
 11
0.0
 21
1485.0
 31
0.0
  0
LINE
  5
63
330
30
100
AcDbEntity
  8
LC-001-111-----0
 62
   253
370
    25
100
AcDbLine
 10
1063.835603
 20
195.169147
 30
0.0
 11
1063.835603
 21
157.149147
 31
0.0
  0
LINE
  5
64
330
30
100
AcDbEntity
  8
LC-001-111-----0
 62
   253
370
    25
100
AcDbLine
 10
2100.0
 20
2970.0
 30
0.0
 11
2100.0
 21
0.0
 31
0.0
  0
LINE
  5
65
330
30
100
AcDbEntity
  8
LC-001-111-----0
 62
   253
370
    25
100
AcDbLine
 10
2100.0
 20
0.0
 30
0.0
 11
0.0
 21
0.0
 31
0.0
  0
LINE
  5
66
330
30
100
AcDbEntity
  8
LC-001-111-----0
 62
   253
370
    25
100
AcDbLine
 10
0.0
 20
0.0
 30
0.0
 11
0.0
 21
2970.0
 31
0.0
  0
LINE
  5
67
330
30
100
AcDbEntity
  8
LC-001-111-----0
 62
   253
370
    25
100
AcDbLine
 10
2100.0
 20
2970.0
 30
0.0
 11
0.0
 21
2970.0
 31
0.0
  0
TEXT
  5
68
330
30
100
AcDbEntity
  8
LC-001-111-----0
 62
   253
370
    20
100
AcDbText
 10
763.0
 20
111.159147
 30
0.0
 40
20.0
  1
Hofbauerstraße1 · D-94209 REGEN
 41
0.65
  7
LCTX0-400-0-0pDIN-Schrift
 72
     1
 11
945.0
 21
111.159147
 31
0.0
100
AcDbText
  0
ARC
  5
69
330
30
100
AcDbEntity
  8
LC-001-111-----0
 62
   253
370
    25
100
AcDbCircle
 10
758.032826
 20
185.671748
 30
0.0
 40
9.677270814709853
100
AcDbArc
 50
94.48185
 51
252.731329
  0
ARC
  5
6A
330
30
100
AcDbEntity
  8
LC-001-111-----0
 62
   253
370
    25
100
AcDbCircle
 10
823.845603
 20
176.159147
 30
0.0
 40
19.01000000000008
100
AcDbArc
 50
74.719456
 51
285.280544
  0
LINE
  5
6B
330
30
100
AcDbEntity
  8
LC-001-111-----0
 62
   253
370
    25
100
AcDbLine
 10
828.855603
 20
157.821208
 30
0.0
 11
828.855603
 21
163.204148
 31
0.0
  0
ARC
  5
6C
330
30
100
AcDbEntity
  8
LC-001-111-----0
 62
   253
370
    25
100
AcDbCircle
 10
823.845603
 20
176.159147
 30
0.0
 40
13.88999999999995
100
AcDbArc
 50
68.857352
 51
291.142648
  0
ARC
  5
6D
330
30
100
AcDbEntity
  8
LC-001-111-----0
 62
   253
370
    25
100
AcDbCircle
 10
823.845603
 20
176.159147
 30
0.0
 40
12.39000000000002
100
AcDbArc
 50
58.303227
 51
301.696773
  0
ARC
  5
6E
330
30
100
AcDbEntity
  8
LC-001-111-----0
 62
   253
370
    25
100
AcDbCircle
 10
1019.845603
 20
176.159147
 30
0.0
 40
19.01000000000008
100
AcDbArc
 50
74.719456
 51
285.280544
  0
LINE
  5
6F
330
30
100
AcDbEntity
  8
LC-001-111-----0
 62
   253
370
    25
100
AcDbLine
 10
830.355603
 20
165.617231
 30
0.0
 11
830.355603
 21
156.709726
 31
0.0
  0
LINE
  5
70
330
30
100
AcDbEntity
  8
LC-001-111-----0
 62
   253
370
    25
100
AcDbLine
 10
755.160101
 20
176.430697
 30
0.0
 11
762.683613
 21
174.091896
 31
0.0
  0
ARC
  5
71
330
30
100
AcDbEntity
  8
LC-001-111-----0
 62
   253
370
    25
100
AcDbCircle
 10
823.845603
 20
176.159147
 30
0.0
 40
20.51000000000012
100
AcDbArc
 50
71.493868
 51
288.506132
  0
LINE
  5
72
330
30
100
AcDbEntity
  8
LC-001-111-----0
 62
   253
370
    25
100
AcDbLine
 10
1024.855603
 20
157.821208
 30
0.0
 11
1024.855603
 21
163.204148
 31
0.0
  0
LINE
  5
73
330
30
100
AcDbEntity
  8
LC-001-111-----0
 62
   253
370
    25
100
AcDbLine
 10
830.355603
 20
195.608569
 30
0.0
 11
830.355603
 21
186.701063
 31
0.0
  0
ARC
  5
74
330
30
100
AcDbEntity
  8
LC-001-111-----0
 62
   253
370
    25
100
AcDbCircle
 10
1019.845603
 20
176.159147
 30
0.0
 40
13.88999999999995
100
AcDbArc
 50
68.857352
 51
291.142648
  0
LINE
  5
75
330
30
100
AcDbEntity
  8
LC-001-111-----0
 62
   253
370
    25
100
AcDbLine
 10
862.835603
 20
155.649147
 30
0.0
 11
862.835603
 21
196.669147
 31
0.0
  0
LINE
  5
76
330
30
100
AcDbEntity
  8
LC-001-111-----0
 62
   253
370
    25
100
AcDbLine
 10
862.835603
 20
196.669147
 30
0.0
 11
872.355603
 21
196.669147
 31
0.0
  0
LINE
  5
77
330
30
100
AcDbEntity
  8
LC-001-111-----0
 62
   253
370
    25
100
AcDbLine
 10
872.355603
 20
196.669147
 30
0.0
 11
872.355603
 21
179.519147
 31
0.0
  0
LINE
  5
78
330
30
100
AcDbEntity
  8
LC-001-111-----0
 62
   253
370
    25
100
AcDbLine
 10
872.355603
 20
179.519147
 30
0.0
 11
887.335603
 21
179.519147
 31
0.0
  0
LINE
  5
79
330
30
100
AcDbEntity
  8
LC-001-111-----0
 62
   253
370
    25
100
AcDbLine
 10
887.335603
 20
179.519147
 30
0.0
 11
887.335603
 21
196.669147
 31
0.0
  0
LINE
  5
7A
330
30
100
AcDbEntity
  8
LC-001-111-----0
 62
   253
370
    25
100
AcDbLine
 10
887.335603
 20
196.669147
 30
0.0
 11
896.855603
 21
196.669147
 31
0.0
  0
LINE
  5
7B
330
30
100
AcDbEntity
  8
LC-001-111-----0
 62
   253
370
    25
100
AcDbLine
 10
896.855603
 20
196.669147
 30
0.0
 11
896.855603
 21
155.649147
 31
0.0
  0
LINE
  5
7C
330
30
100
AcDbEntity
  8
LC-001-111-----0
 62
   253
370
    25
100
AcDbLine
 10
896.855603
 20
155.649147
 30
0.0
 11
887.335603
 21
155.649147
 31
0.0
  0
LINE
  5
7D
330
30
100
AcDbEntity
  8
LC-001-111-----0
 62
   253
370
    25
100
AcDbLine
 10
887.335603
 20
155.649147
 30
0.0
 11
887.335603
 21
172.799147
 31
0.0
  0
LINE
  5
7E
330
30
100
AcDbEntity
  8
LC-001-111-----0
 62
   253
370
    25
100
AcDbLine
 10
887.335603
 20
172.799147
 30
0.0
 11
872.355603
 21
172.799147
 31
0.0
  0
LINE
  5
7F
330
30
100
AcDbEntity
  8
LC-001-111-----0
 62
   253
370
    25
100
AcDbLine
 10
872.355603
 20
172.799147
 30
0.0
 11
872.355603
 21
155.649147
 31
0.0
  0
LINE
  5
80
330
30
100
AcDbEntity
  8
LC-001-111-----0
 62
   253
370
    25
100
AcDbLine
 10
872.355603
 20
155.649147
 30
0.0
 11
862.835603
 21
155.649147
 31
0.0
  0
CIRCLE
  5
81
330
30
100
AcDbEntity
  8
LC-001-111-----0
 62
   253
370
    25
100
AcDbCircle
 10
946.345603
 20
176.159147
 30
0.0
 40
12.39000000000044
  0
CIRCLE
  5
82
330
30
100
AcDbEntity
  8
LC-001-111-----0
 62
   253
370
    25
100
AcDbCircle
 10
946.345603
 20
176.159147
 30
0.0
 40
20.51000000000049
  0
ARC
  5
83
330
30
100
AcDbEntity
  8
LC-001-111-----0
 62
   253
370
    25
100
AcDbCircle
 10
1019.845603
 20
176.159147
 30
0.0
 40
12.39000000000002
100
AcDbArc
 50
58.303227
 51
301.696773
  0
LINE
  5
84
330
30
100
AcDbEntity
  8
LC-001-111-----0
 62
   253
370
    25
100
AcDbLine
 10
864.335603
 20
195.169147
 30
0.0
 11
864.335603
 21
157.149147
 31
0.0
  0
LINE
  5
85
330
30
100
AcDbEntity
  8
LC-001-111-----0
 62
   253
370
    25
100
AcDbLine
 10
1026.355603
 20
165.617231
 30
0.0
 11
1026.355603
 21
156.709726
 31
0.0
  0
LINE
  5
86
330
30
100
AcDbEntity
  8
LC-001-111-----0
 62
   253
370
    25
100
AcDbLine
 10
864.335603
 20
157.149147
 30
0.0
 11
870.855603
 21
157.149147
 31
0.0
  0
LINE
  5
87
330
30
100
AcDbEntity
  8
LC-001-111-----0
 62
   253
370
    25
100
AcDbLine
 10
870.855603
 20
157.149147
 30
0.0
 11
870.855603
 21
174.299147
 31
0.0
  0
LINE
  5
88
330
30
100
AcDbEntity
  8
LC-001-111-----0
 62
   253
370
    25
100
AcDbLine
 10
870.855603
 20
174.299147
 30
0.0
 11
888.835603
 21
174.299147
 31
0.0
  0
LINE
  5
89
330
30
100
AcDbEntity
  8
LC-001-111-----0
 62
   253
370
    25
100
AcDbLine
 10
888.835603
 20
174.299147
 30
0.0
 11
888.835603
 21
157.149147
 31
0.0
  0
LINE
  5
8A
330
30
100
AcDbEntity
  8
LC-001-111-----0
 62
   253
370
    25
100
AcDbLine
 10
888.835603
 20
157.149147
 30
0.0
 11
895.355603
 21
157.149147
 31
0.0
  0
LINE
  5
8B
330
30
100
AcDbEntity
  8
LC-001-111-----0
 62
   253
370
    25
100
AcDbLine
 10
895.355603
 20
157.149147
 30
0.0
 11
895.355603
 21
195.169147
 31
0.0
  0
LINE
  5
8C
330
30
100
AcDbEntity
  8
LC-001-111-----0
 62
   253
370
    25
100
AcDbLine
 10
895.355603
 20
195.169147
 30
0.0
 11
888.835603
 21
195.169147
 31
0.0
  0
LINE
  5
8D
330
30
100
AcDbEntity
  8
LC-001-111-----0
 62
   253
370
    25
100
AcDbLine
 10
888.835603
 20
195.169147
 30
0.0
 11
888.835603
 21
178.019147
 31
0.0
  0
LINE
  5
8E
330
30
100
AcDbEntity
  8
LC-001-111-----0
 62
   253
370
    25
100
AcDbLine
 10
888.835603
 20
178.019147
 30
0.0
 11
870.855603
 21
178.019147
 31
0.0
  0
LINE
  5
8F
330
30
100
AcDbEntity
  8
LC-001-111-----0
 62
   253
370
    25
100
AcDbLine
 10
870.855603
 20
178.019147
 30
0.0
 11
870.855603
 21
195.169147
 31
0.0
  0
CIRCLE
  5
90
330
30
100
AcDbEntity
  8
LC-001-111-----0
 62
   253
370
    25
100
AcDbCircle
 10
946.345603
 20
176.159147
 30
0.0
 40
19.01000000000055
  0
ARC
  5
91
330
30
100
AcDbEntity
  8
LC-001-111-----0
 62
   253
370
    25
100
AcDbCircle
 10
760.836588
 20
168.15034
 30
0.0
 40
6.222024781007809
100
AcDbArc
 50
268.246912
 51
72.731329
  0
ARC
  5
92
330
30
100
AcDbEntity
  8
LC-001-111-----0
 62
   253
370
    25
100
AcDbCircle
 10
761.412387
 20
186.963179
 30
0.0
 40
25.04367341134793
100
AcDbArc
 50
239.19233
 51
268.246912
  0
LINE
  5
93
330
30
100
AcDbEntity
  8
LC-001-111-----0
 62
   253
370
    25
100
AcDbLine
 10
748.586073
 20
165.453385
 30
0.0
 11
748.586073
 21
160.350534
 31
0.0
  0
ARC
  5
94
330
30
100
AcDbEntity
  8
LC-001-111-----0
 62
   253
370
    25
100
AcDbCircle
 10
760.81067
 20
180.45076
 30
0.0
 40
23.52572762426598
100
AcDbArc
 50
238.692783
 51
274.343327
  0
ARC
  5
95
330
30
100
AcDbEntity
  8
LC-001-111-----0
 62
   253
370
    25
100
AcDbCircle
 10
1019.845603
 20
176.159147
 30
0.0
 40
20.51000000000012
100
AcDbArc
 50
71.493868
 51
288.506132
  0
ARC
  5
96
330
30
100
AcDbEntity
  8
LC-001-111-----0
 62
   253
370
    25
100
AcDbCircle
 10
761.779647
 20
167.692822
 30
0.0
 40
10.73104525444839
100
AcDbArc
 50
274.343327
 51
74.255463
  0
LINE
  5
97
330
30
100
AcDbEntity
  8
LC-001-111-----0
 62
   253
370
    25
100
AcDbLine
 10
1026.355603
 20
195.608569
 30
0.0
 11
1026.355603
 21
186.701063
 31
0.0
  0
LINE
  5
98
330
30
100
AcDbEntity
  8
LC-001-111-----0
 62
   253
370
    25
100
AcDbLine
 10
764.691502
 20
178.02125
 30
0.0
 11
757.135251
 21
180.151556
 31
0.0
  0
LINE
  5
99
330
30
100
AcDbEntity
  8
LC-001-111-----0
 62
   253
370
    25
100
AcDbLine
 10
1024.855603
 20
189.114146
 30
0.0
 11
1024.855603
 21
194.497086
 31
0.0
  0
ARC
  5
9A
330
30
100
AcDbEntity
  8
LC-001-111-----0
 62
   253
370
    25
100
AcDbCircle
 10
758.632108
 20
185.460948
 30
0.0
 40
5.51636013010035
100
AcDbArc
 50
90.951212
 51
254.255463
  0
ARC
  5
9B
330
30
100
AcDbEntity
  8
LC-001-111-----0
 62
   253
370
    25
100
AcDbCircle
 10
758.906662
 20
168.924866
 30
0.0
 40
22.05472179307849
100
AcDbArc
 50
64.088485
 51
90.951212
  0
LINE
  5
9C
330
30
100
AcDbEntity
  8
LC-001-111-----0
 62
   253
370
    25
100
AcDbLine
 10
768.544191
 20
188.762426
 30
0.0
 11
768.544191
 21
193.015758
 31
0.0
  0
LINE
  5
9D
330
30
100
AcDbEntity
  8
LC-001-111-----0
 62
   253
370
    25
100
AcDbLine
 10
1071.855603
 20
177.513832
 30
0.0
 11
1087.818366
 21
196.669147
 31
0.0
  0
LINE
  5
9E
330
30
100
AcDbEntity
  8
LC-001-111-----0
 62
   253
370
    25
100
AcDbLine
 10
1087.818366
 20
196.669147
 30
0.0
 11
1099.299433
 21
196.669147
 31
0.0
  0
LINE
  5
9F
330
30
100
AcDbEntity
  8
LC-001-111-----0
 62
   253
370
    25
100
AcDbLine
 10
1099.299433
 20
196.669147
 30
0.0
 11
1082.207766
 21
176.159147
 31
0.0
  0
LINE
  5
A1
330
30
100
AcDbEntity
  8
LC-002-002-----0
 62
     1
370
    25
100
AcDbLine
 10
1143.855603
 20
159.963432
 30
0.0
 11
1143.855603
 21
192.354862
 31
0.0
  0
LINE
  5
A2
330
30
100
AcDbEntity
  8
LC-002-002-----0
 62
     1
370
    25
100
AcDbLine
 10
1143.855603
 20
192.354862
 30
0.0
 11
1127.659888
 21
176.159147
 31
0.0
  0
LINE
  5
A3
330
30
100
AcDbEntity
  8
LC-002-002-----0
 62
     1
370
    25
100
AcDbLine
 10
1127.659888
 20
176.159147
 30
0.0
 11
1143.855603
 21
159.963432
 31
0.0
  0
LINE
  5
A4
330
30
100
AcDbEntity
  8
LC-002-002-----0
 62
     1
370
    25
100
AcDbLine
 10
1142.355603
 20
163.584752
 30
0.0
 11
1142.355603
 21
188.733542
 31
0.0
  0
LINE
  5
A5
330
30
100
AcDbEntity
  8
LC-001-111-----0
 62
   253
370
    25
100
AcDbLine
 10
1082.207766
 20
176.159147
 30
0.0
 11
1099.299433
 21
155.649147
 31
0.0
  0
LINE
  5
A6
330
30
100
AcDbEntity
  8
LC-001-111-----0
 62
   253
370
    25
100
AcDbLine
 10
1099.299433
 20
155.649147
 30
0.0
 11
1087.818366
 21
155.649147
 31
0.0
  0
LINE
  5
A7
330
30
100
AcDbEntity
  8
LC-001-111-----0
 62
   253
370
    25
100
AcDbLine
 10
1087.818366
 20
155.649147
 30
0.0
 11
1071.855603
 21
174.804462
 31
0.0
  0
LINE
  5
A8
330
30
100
AcDbEntity
  8
LC-001-111-----0
 62
   253
370
    25
100
AcDbLine
 10
1062.335603
 20
155.649147
 30
0.0
 11
1062.335603
 21
196.669147
 31
0.0
  0
LINE
  5
A9
330
30
100
AcDbEntity
  8
LC-001-111-----0
 62
   253
370
    25
100
AcDbLine
 10
828.855603
 20
189.114146
 30
0.0
 11
828.855603
 21
194.497086
 31
0.0
  0
ARC
  5
AA
330
30
100
AcDbEntity
  8
LC-001-111-----0
 62
   253
370
    25
100
AcDbCircle
 10
758.903191
 20
174.567744
 30
0.0
 40
19.31533311668209
100
AcDbArc
 50
65.072024
 51
94.48185
  0
LINE
  5
AB
330
30
100
AcDbEntity
  8
LC-001-111-----0
 62
   253
370
    25
100
AcDbLine
 10
1063.835603
 20
157.149147
 30
0.0
 11
1070.355603
 21
157.149147
 31
0.0
  0
LINE
  5
AC
330
30
100
AcDbEntity
  8
LC-001-111-----0
 62
   253
370
    25
100
AcDbLine
 10
1070.355603
 20
157.149147
 30
0.0
 11
1070.355603
 21
195.169147
 31
0.0
  0
LINE
  5
AD
330
30
100
AcDbEntity
  8
LC-001-111-----0
 62
   253
370
    25
100
AcDbLine
 10
1070.355603
 20
195.169147
 30
0.0
 11
1063.835603
 21
195.169147
 31
0.0
  0
LINE
  5
AE
330
30
100
AcDbEntity
  8
LC-001-111-----0
 62
   253
370
    25
100
AcDbLine
 10
1065.335603
 20
193.669147
 30
0.0
 11
1065.335603
 21
158.649147
 31
0.0
  0
LINE
  5
AF
330
30
100
AcDbEntity
  8
LC-002-002-----0
 62
     1
370
    25
100
AcDbLine
 10
1142.355603
 20
188.733542
 30
0.0
 11
1129.781208
 21
176.159147
 31
0.0
  0
LINE
  5
B0
330
30
100
AcDbEntity
  8
LC-002-002-----0
 62
     1
370
    25
100
AcDbLine
 10
1129.781208
 20
176.159147
 30
0.0
 11
1142.355603
 21
163.584752
 31
0.0
  0
LINE
  5
B1
330
30
100
AcDbEntity
  8
LC-001-111-----0
 62
   253
370
    25
100
AcDbLine
 10
1062.335603
 20
196.669147
 30
0.0
 11
1071.855603
 21
196.669147
 31
0.0
  0
LINE
  5
B2
330
30
100
AcDbEntity
  8
LC-001-111-----0
 62
   253
370
    25
100
AcDbLine
 10
1071.855603
 20
196.669147
 30
0.0
 11
1071.855603
 21
155.649147
 31
0.0
  0
LINE
  5
B3
330
30
100
AcDbEntity
  8
LC-001-111-----0
 62
   253
370
    25
100
AcDbLine
 10
1071.855603
 20
155.649147
 30
0.0
 11
1062.335603
 21
155.649147
 31
0.0
  0
ARC
  5
B4
330
30
100
AcDbEntity
  8
LC-001-111-----0
 62
   253
370
    25
100
AcDbCircle
 10
758.032826
 20
185.671748
 30
0.0
 40
8.177270814709827
100
AcDbArc
 50
94.48185
 51
252.731329
  0
LINE
  5
B5
330
30
100
AcDbEntity
  8
LC-001-111-----0
 62
   253
370
    25
100
AcDbLine
 10
755.60538
 20
177.863082
 30
0.0
 11
763.128892
 21
175.524281
 31
0.0
  0
ARC
  5
B6
330
30
100
AcDbEntity
  8
LC-001-111-----0
 62
   253
370
    25
100
AcDbCircle
 10
760.836588
 20
168.15034
 30
0.0
 40
7.72202478100773
100
AcDbArc
 50
268.246912
 51
72.731329
  0
LINE
  5
B7
330
30
100
AcDbEntity
  8
LC-001-111-----0
 62
   253
370
    25
100
AcDbLine
 10
827.355603
 20
191.143539
 30
0.0
 11
827.355603
 21
193.313738
 31
0.0
  0
ARC
  5
B8
330
30
100
AcDbEntity
  8
LC-001-111-----0
 62
   253
370
    25
100
AcDbCircle
 10
823.845603
 20
176.159147
 30
0.0
 40
17.50999999999996
100
AcDbArc
 50
78.436322
 51
281.563678
  0
LINE
  5
B9
330
30
100
AcDbEntity
  8
LC-001-111-----0
 62
   253
370
    25
100
AcDbLine
 10
827.355603
 20
159.004556
 30
0.0
 11
827.355603
 21
161.174755
 31
0.0
  0
LINE
  5
BA
330
30
100
AcDbEntity
  8
LC-002-002-----0
 62
     1
370
    25
100
AcDbLine
 10
1145.355603
 20
195.976182
 30
0.0
 11
1145.355603
 21
156.342112
 31
0.0
  0
LINE
  5
BB
330
30
100
AcDbEntity
  8
LC-002-002-----0
 62
     1
370
    25
100
AcDbLine
 10
1145.355603
 20
156.342112
 30
0.0
 11
1125.538568
 21
176.159147
 31
0.0
  0
LINE
  5
BC
330
30
100
AcDbEntity
  8
LC-002-002-----0
 62
     1
370
    25
100
AcDbLine
 10
1125.538568
 20
176.159147
 30
0.0
 11
1145.355603
 21
195.976182
 31
0.0
  0
LINE
  5
BD
330
30
100
AcDbEntity
  8
LC-001-111-----0
 62
   253
370
    25
100
AcDbLine
 10
1065.335603
 20
158.649147
 30
0.0
 11
1068.855603
 21
158.649147
 31
0.0
  0
LINE
  5
BE
330
30
100
AcDbEntity
  8
LC-001-111-----0
 62
   253
370
    25
100
AcDbLine
 10
1068.855603
 20
158.649147
 30
0.0
 11
1068.855603
 21
193.669147
 31
0.0
  0
LINE
  5
BF
330
30
100
AcDbEntity
  8
LC-001-111-----0
 62
   253
370
    25
100
AcDbLine
 10
1068.855603
 20
193.669147
 30
0.0
 11
1065.335603
 21
193.669147
 31
0.0
  0
LINE
  5
C0
330
30
100
AcDbEntity
  8
LC-001-111-----0
 62
   253
370
    25
100
AcDbLine
 10
1067.095603
 20
192.169147
 30
0.0
 11
1067.095603
 21
160.149147
 31
0.0
  0
ARC
  5
C1
330
30
100
AcDbEntity
  8
LC-001-111-----0
 62
   253
370
    25
100
AcDbCircle
 10
823.845603
 20
176.159147
 30
0.0
 40
15.38999999999992
100
AcDbArc
 50
76.816519
 51
283.183481
  0
LINE
  5
C2
330
30
100
AcDbEntity
  8
LC-001-111-----0
 62
   253
370
    25
100
AcDbLine
 10
870.855603
 20
195.169147
 30
0.0
 11
864.335603
 21
195.169147
 31
0.0
  0
LINE
  5
C3
330
30
100
AcDbEntity
  8
LC-001-111-----0
 62
   253
370
    25
100
AcDbLine
 10
1096.09687
 20
195.169147
 30
0.0
 11
1088.520928
 21
195.169147
 31
0.0
  0
LINE
  5
C4
330
30
100
AcDbEntity
  8
LC-001-111-----0
 62
   253
370
    25
100
AcDbLine
 10
865.835603
 20
158.649147
 30
0.0
 11
869.355603
 21
158.649147
 31
0.0
  0
LINE
  5
C5
330
30
100
AcDbEntity
  8
LC-001-111-----0
 62
   253
370
    25
100
AcDbLine
 10
1023.355603
 20
191.143539
 30
0.0
 11
1023.355603
 21
193.313738
 31
0.0
  0
LINE
  5
C6
330
30
100
AcDbEntity
  8
LC-001-111-----0
 62
   253
370
    25
100
AcDbLine
 10
892.095603
 20
192.169147
 30
0.0
 11
892.095603
 21
160.149147
 31
0.0
  0
TEXT
  5
C7
330
30
100
AcDbEntity
  8
LC-001-111-----0
 62
     1
370
    15
100
AcDbText
 10
1904.428571
 20
21.25
 30
0.0
 40
15.0
  1
Lithos-D100
 41
0.75
  7
LCTX0-400-0-0pDIN-Schrift
 72
     1
 11
1958.0
 21
21.25
 31
0.0
100
AcDbText
  0
CIRCLE
  5
C8
330
30
100
AcDbEntity
  8
LC-001-111-----0
 62
   253
370
    25
100
AcDbCircle
 10
946.345603
 20
176.159147
 30
0.0
 40
17.51000000000047
  0
LINE
  5
C9
330
30
100
AcDbEntity
  8
LC-001-111-----0
 62
   253
370
    25
100
AcDbLine
 10
1088.520928
 20
195.169147
 30
0.0
 11
1072.679261
 21
176.159147
 31
0.0
  0
ARC
  5
CA
330
30
100
AcDbEntity
  8
LC-001-111-----0
 62
   253
370
    25
100
AcDbCircle
 10
1019.845603
 20
176.159147
 30
0.0
 40
17.50999999999996
100
AcDbArc
 50
78.436322
 51
281.563678
  0
ARC
  5
CB
330
30
100
AcDbEntity
  8
LC-001-111-----0
 62
   253
370
    25
100
AcDbCircle
 10
761.412387
 20
186.963179
 30
0.0
 40
26.54367341134783
100
AcDbArc
 50
244.741378
 51
268.246912
  0
LINE
  5
CC
330
30
100
AcDbEntity
  8
LC-001-111-----0
 62
   253
370
    25
100
AcDbLine
 10
1023.355603
 20
159.004556
 30
0.0
 11
1023.355603
 21
161.174755
 31
0.0
  0
LINE
  5
CD
330
30
100
AcDbEntity
  8
LC-002-002-----0
 62
     1
370
    25
100
AcDbLine
 10
1140.855603
 20
167.206073
 30
0.0
 11
1140.855603
 21
185.112221
 31
0.0
  0
LINE
  5
CE
330
30
100
AcDbEntity
  8
LC-002-002-----0
 62
     1
370
    25
100
AcDbLine
 10
1140.855603
 20
185.112221
 30
0.0
 11
1131.902529
 21
176.159147
 31
0.0
  0
LINE
  5
CF
330
30
100
AcDbEntity
  8
LC-002-002-----0
 62
     1
370
    25
100
AcDbLine
 10
1131.902529
 20
176.159147
 30
0.0
 11
1140.855603
 21
167.206073
 31
0.0
  0
CIRCLE
  5
D0
330
30
100
AcDbEntity
  8
LC-001-111-----0
 62
   253
370
    25
100
AcDbCircle
 10
946.345603
 20
176.159147
 30
0.0
 40
13.89000000000002
  0
LINE
  5
D1
330
30
100
AcDbEntity
  8
LC-001-111-----0
 62
   253
370
    25
100
AcDbLine
 10
890.335603
 20
158.649147
 30
0.0
 11
893.855603
 21
158.649147
 31
0.0
  0
LINE
  5
D2
330
30
100
AcDbEntity
  8
LC-001-111-----0
 62
   253
370
    25
100
AcDbLine
 10
893.855603
 20
158.649147
 30
0.0
 11
893.855603
 21
193.669147
 31
0.0
  0
ARC
  5
D3
330
30
100
AcDbEntity
  8
LC-001-111-----0
 62
   253
370
    25
100
AcDbCircle
 10
758.906662
 20
168.924866
 30
0.0
 40
20.55472179307891
100
AcDbArc
 50
57.190491
 51
90.951212
  0
ARC
  5
D4
330
30
100
AcDbEntity
  8
LC-001-111-----0
 62
   253
370
    25
100
AcDbCircle
 10
761.779647
 20
167.692822
 30
0.0
 40
12.23104525444841
100
AcDbArc
 50
274.343327
 51
74.255463
  0
LINE
  5
D5
330
30
100
AcDbEntity
  8
LC-001-111-----0
 62
   253
370
    25
100
AcDbLine
 10
893.855603
 20
193.669147
 30
0.0
 11
890.335603
 21
193.669147
 31
0.0
  0
LINE
  5
D6
330
30
100
AcDbEntity
  8
LC-001-111-----0
 62
   253
370
    25
100
AcDbLine
 10
890.335603
 20
193.669147
 30
0.0
 11
890.335603
 21
158.649147
 31
0.0
  0
LINE
  5
D7
330
30
100
AcDbEntity
  8
LC-001-111-----0
 62
   253
370
    25
100
AcDbLine
 10
890.335603
 20
176.159147
 30
0.0
 11
869.355603
 21
176.159147
 31
0.0
  0
LINE
  5
D8
330
30
100
AcDbEntity
  8
LC-001-111-----0
 62
   253
370
    25
100
AcDbLine
 10
869.355603
 20
158.649147
 30
0.0
 11
869.355603
 21
193.669147
 31
0.0
  0
LINE
  5
D9
330
30
100
AcDbEntity
  8
LC-001-111-----0
 62
   253
370
    25
100
AcDbLine
 10
869.355603
 20
193.669147
 30
0.0
 11
865.835603
 21
193.669147
 31
0.0
  0
LINE
  5
DA
330
30
100
AcDbEntity
  8
LC-001-111-----0
 62
   253
370
    25
100
AcDbLine
 10
865.835603
 20
193.669147
 30
0.0
 11
865.835603
 21
158.649147
 31
0.0
  0
LINE
  5
DB
330
30
100
AcDbEntity
  8
LC-001-111-----0
 62
   253
370
    25
100
AcDbLine
 10
867.595603
 20
192.169147
 30
0.0
 11
867.595603
 21
160.149147
 31
0.0
  0
CIRCLE
  5
DC
330
30
100
AcDbEntity
  8
LC-001-111-----0
 62
   253
370
    25
100
AcDbCircle
 10
946.345603
 20
176.159147
 30
0.0
 40
15.38999999999984
  0
LINE
  5
DD
330
30
100
AcDbEntity
  8
LC-001-111-----0
 62
   253
370
    25
100
AcDbLine
 10
1072.679261
 20
176.159147
 30
0.0
 11
1088.520928
 21
157.149147
 31
0.0
  0
LINE
  5
DE
330
30
100
AcDbEntity
  8
LC-001-111-----0
 62
   253
370
    25
100
AcDbLine
 10
1088.520928
 20
157.149147
 30
0.0
 11
1096.09687
 21
157.149147
 31
0.0
  0
LINE
  5
DF
330
30
100
AcDbEntity
  8
LC-001-111-----0
 62
   253
370
    25
100
AcDbLine
 10
1096.09687
 20
157.149147
 30
0.0
 11
1080.255204
 21
176.159147
 31
0.0
  0
LINE
  5
E0
330
30
100
AcDbEntity
  8
LC-001-111-----0
 62
   253
370
    25
100
AcDbLine
 10
770.044191
 20
186.20063
 30
0.0
 11
770.044191
 21
193.903002
 31
0.0
  0
ARC
  5
E1
330
30
100
AcDbEntity
  8
LC-001-111-----0
 62
   253
370
    25
100
AcDbCircle
 10
761.412387
 20
186.963179
 30
0.0
 40
23.54367341134796
100
AcDbArc
 50
232.518913
 51
268.246912
  0
ARC
  5
E2
330
30
100
AcDbEntity
  8
LC-001-111-----0
 62
   253
370
    25
100
AcDbCircle
 10
760.836588
 20
168.15034
 30
0.0
 40
4.722024781007908
100
AcDbArc
 50
268.246912
 51
72.731329
  0
LINE
  5
E3
330
30
100
AcDbEntity
  8
LC-001-111-----0
 62
   253
370
    25
100
AcDbLine
 10
757.542274
 20
181.595277
 30
0.0
 11
765.098525
 21
179.464972
 31
0.0
  0
ARC
  5
E4
330
30
100
AcDbEntity
  8
LC-001-111-----0
 62
   253
370
    25
100
AcDbCircle
 10
758.632108
 20
185.460948
 30
0.0
 40
4.016360130100384
100
AcDbArc
 50
90.951212
 51
254.255463
  0
ARC
  5
E5
330
30
100
AcDbEntity
  8
LC-001-111-----0
 62
   253
370
    25
100
AcDbCircle
 10
758.032826
 20
185.671748
 30
0.0
 40
11.17727081470983
100
AcDbArc
 50
94.48185
 51
252.731329
  0
LINE
  5
E6
330
30
100
AcDbEntity
  8
LC-001-111-----0
 62
   253
370
    25
100
AcDbLine
 10
762.238334
 20
172.659511
 30
0.0
 11
754.714822
 21
174.998312
 31
0.0
  0
LINE
  5
E7
330
30
100
AcDbEntity
  8
LC-001-111-----0
 62
   253
370
    25
100
AcDbLine
 10
747.086073
 20
168.279997
 30
0.0
 11
747.086073
 21
159.524163
 31
0.0
  0
ARC
  5
E8
330
30
100
AcDbEntity
  8
LC-001-111-----0
 62
   253
370
    25
100
AcDbCircle
 10
758.903191
 20
174.567744
 30
0.0
 40
22.31533311668187
100
AcDbArc
 50
60.049399
 51
94.48185
  0
ARC
  5
E9
330
30
100
AcDbEntity
  8
LC-001-111-----0
 62
   253
370
    25
100
AcDbCircle
 10
760.81067
 20
180.45076
 30
0.0
 40
25.02572762426604
100
AcDbArc
 50
236.741348
 51
274.343327
  0
LINE
  5
EA
330
30
100
AcDbEntity
  8
LC-001-111-----0
 62
   253
370
    25
100
AcDbLine
 10
1080.255204
 20
176.159147
 30
0.0
 11
1096.09687
 21
195.169147
 31
0.0
  0
LINE
  5
EB
330
30
100
AcDbEntity
  8
LC-001-111-----0
 62
   253
370
    25
100
AcDbLine
 10
750.086073
 20
162.957321
 30
0.0
 11
750.086073
 21
161.212369
 31
0.0
  0
LINE
  5
EC
330
30
100
AcDbEntity
  8
LC-001-111-----0
 62
   253
370
    25
100
AcDbLine
 10
1078.302641
 20
176.159147
 30
0.0
 11
1092.894308
 21
193.669147
 31
0.0
  0
LINE
  5
ED
330
30
100
AcDbEntity
  8
LC-002-002-----0
 62
     1
370
    25
100
AcDbLine
 10
1139.355603
 20
170.827393
 30
0.0
 11
1139.355603
 21
181.490901
 31
0.0
  0
LINE
  5
EE
330
30
100
AcDbEntity
  8
LC-002-002-----0
 62
     1
370
    25
100
AcDbLine
 10
1139.355603
 20
181.490901
 30
0.0
 11
1134.023849
 21
176.159147
 31
0.0
  0
LINE
  5
EF
330
30
100
AcDbEntity
  8
LC-002-002-----0
 62
     1
370
    25
100
AcDbLine
 10
1134.023849
 20
176.159147
 30
0.0
 11
1139.355603
 21
170.827393
 31
0.0
  0
LINE
  5
F0
330
30
100
AcDbEntity
  8
LC-002-002-----0
 62
     1
370
    25
100
AcDbLine
 10
1137.855603
 20
174.448713
 30
0.0
 11
1137.855603
 21
177.869581
 31
0.0
  0
LINE
  5
F1
330
30
100
AcDbEntity
  8
LC-002-002-----0
 62
     1
370
    25
100
AcDbLine
 10
1137.855603
 20
177.869581
 30
0.0
 11
1136.145169
 21
176.159147
 31
0.0
  0
LINE
  5
F2
330
30
100
AcDbEntity
  8
LC-002-002-----0
 62
     1
370
    25
100
AcDbLine
 10
1136.145169
 20
176.159147
 30
0.0
 11
1137.855603
 21
174.448713
 31
0.0
  0
LINE
  5
F3
330
30
100
AcDbEntity
  8
LC-001-111-----0
 62
   253
370
    25
100
AcDbLine
 10
1092.894308
 20
193.669147
 30
0.0
 11
1089.22349
 21
193.669147
 31
0.0
  0
LINE
  5
F4
330
30
100
AcDbEntity
  8
LC-001-111-----0
 62
   253
370
    25
100
AcDbLine
 10
1089.22349
 20
193.669147
 30
0.0
 11
1074.631824
 21
176.159147
 31
0.0
  0
ARC
  5
F5
330
30
100
AcDbEntity
  8
LC-001-111-----0
 62
   253
370
    25
100
AcDbCircle
 10
1019.845603
 20
176.159147
 30
0.0
 40
15.38999999999992
100
AcDbArc
 50
76.816519
 51
283.183481
  0
LINE
  5
F6
330
30
100
AcDbEntity
  8
LC-001-111-----0
 62
   253
370
    25
100
AcDbLine
 10
1074.631824
 20
176.159147
 30
0.0
 11
1089.22349
 21
158.649147
 31
0.0
  0
LINE
  5
F7
330
30
100
AcDbEntity
  8
LC-001-111-----0
 62
   253
370
    25
100
AcDbLine
 10
1089.22349
 20
158.649147
 30
0.0
 11
1092.894308
 21
158.649147
 31
0.0
  0
LINE
  5
F8
330
30
100
AcDbEntity
  8
LC-001-111-----0
 62
   253
370
    25
100
AcDbLine
 10
1092.894308
 20
158.649147
 30
0.0
 11
1078.302641
 21
176.159147
 31
0.0
  0
LINE
  5
F9
330
30
100
AcDbEntity
  8
LC-001-111-----0
 62
   253
370
    25
100
AcDbLine
 10
1076.467232
 20
176.159147
 30
0.0
 11
1090.098623
 21
192.516815
 31
0.0
  0
LINE
  5
FA
330
30
100
AcDbEntity
  8
LC-001-111-----0
 62
   253
370
    25
100
AcDbLine
 10
1076.467232
 20
176.159147
 30
0.0
 11
1090.098623
 21
159.801479
 31
0.0
  0
ARC
  5
FB
330
30
100
AcDbEntity
  8
LC-001-111-----0
 62
   253
370
    25
100
AcDbCircle
 10
760.81067
 20
180.45076
 30
0.0
 40
22.02572762426587
100
AcDbArc
 50
240.862164
 51
274.343327
  0
ARC
  5
FC
330
30
100
AcDbEntity
  8
LC-001-111-----0
 62
   253
370
    25
100
AcDbCircle
 10
761.779647
 20
167.692822
 30
0.0
 40
9.231045254448425
100
AcDbArc
 50
274.343327
 51
74.255463
  0
LINE
  5
FD
330
30
100
AcDbEntity
  8
LC-001-111-----0
 62
   253
370
    25
100
AcDbLine
 10
764.284479
 20
176.577529
 30
0.0
 11
756.728228
 21
178.707834
 31
0.0
  0
ARC
  5
FE
330
30
100
AcDbEntity
  8
LC-001-111-----0
 62
   253
370
    25
100
AcDbCircle
 10
758.632108
 20
185.460948
 30
0.0
 40
7.016360130100396
100
AcDbArc
 50
90.951212
 51
254.255463
  0
ARC
  5
FF
330
30
100
AcDbEntity
  8
LC-001-111-----0
 62
   253
370
    25
100
AcDbCircle
 10
758.906662
 20
168.924866
 30
0.0
 40
23.55472179307856
100
AcDbArc
 50
69.789306
 51
90.951212
  0
LINE
  5
100
330
30
100
AcDbEntity
  8
LC-001-111-----0
 62
   253
370
    25
100
AcDbLine
 10
767.044191
 20
191.029289
 30
0.0
 11
767.044191
 21
192.083629
 31
0.0
  0
ENDBLK
  5
32
330
30
100
AcDbEntity
  8
0
100
AcDbBlockEnd
  0
BLOCK
  5
267
330
266
100
AcDbEntity
  8
0
100
AcDbBlockBegin
  2
LCDIM1
 70
     0
 71
     0
 10
0.0
 20
0.0
 30
0.0
  3
LCDIM1
  1

  4
LCDIM1
  0
LINE
  5
26A
330
266
100
AcDbEntity
  8
LC-007-003-MTH-0
 62
     7
370
    25
100
AcDbLine
 10
1813.392569
 20
1612.624707
 30
0.0
 11
1915.0
 21
1612.624707
 31
0.0
  0
LINE
  5
26B
330
266
100
AcDbEntity
  8
LC-007-003-MTH-0
 62
     7
370
    25
100
AcDbLine
 10
1813.392569
 20
2033.495293
 30
0.0
 11
1915.0
 21
2033.495293
 31
0.0
  0
LINE
  5
26D
330
266
100
AcDbEntity
  8
LC-008-003-MTG-0
 62
     7
370
    25
100
AcDbLine
 10
1900.0
 20
1612.624707
 30
0.0
 11
1900.0
 21
2033.495293
 31
0.0
  0
LINE
  5
26F
330
266
100
AcDbEntity
  8
LC-009-003-----0
 62
     7
370
    25
100
AcDbLine
 10
1896.736845
 20
1637.410829
 30
0.0
 11
1900.0
 21
1612.624707
 31
0.0
  0
LINE
  5
270
330
266
100
AcDbEntity
  8
LC-009-003-----0
 62
     7
370
    25
100
AcDbLine
 10
1900.0
 20
1612.624707
 30
0.0
 11
1903.263155
 21
1637.410829
 31
0.0
  0
LINE
  5
271
330
266
100
AcDbEntity
  8
LC-009-003-----0
 62
     7
370
    25
100
AcDbLine
 10
1903.263155
 20
1637.410829
 30
0.0
 11
1896.736845
 21
1637.410829
 31
0.0
  0
LINE
  5
272
330
266
100
AcDbEntity
  8
LC-009-003-----0
 62
     7
370
    25
100
AcDbLine
 10
1897.585265
 20
1637.466437
 30
0.0
 11
1900.0
 21
1619.124707
 31
0.0
  0
LINE
  5
273
330
266
100
AcDbEntity
  8
LC-009-003-----0
 62
     7
370
    25
100
AcDbLine
 10
1900.0
 20
1619.124707
 30
0.0
 11
1902.414735
 21
1637.466437
 31
0.0
  0
LINE
  5
274
330
266
100
AcDbEntity
  8
LC-009-003-----0
 62
     7
370
    25
100
AcDbLine
 10
1898.433686
 20
1637.522046
 30
0.0
 11
1900.0
 21
1625.624707
 31
0.0
  0
LINE
  5
275
330
266
100
AcDbEntity
  8
LC-009-003-----0
 62
     7
370
    25
100
AcDbLine
 10
1900.0
 20
1625.624707
 30
0.0
 11
1901.566314
 21
1637.522046
 31
0.0
  0
LINE
  5
276
330
266
100
AcDbEntity
  8
LC-009-003-----0
 62
     7
370
    25
100
AcDbLine
 10
1899.282106
 20
1637.577654
 30
0.0
 11
1900.0
 21
1632.124707
 31
0.0
  0
LINE
  5
277
330
266
100
AcDbEntity
  8
LC-009-003-----0
 62
     7
370
    25
100
AcDbLine
 10
1900.0
 20
1632.124707
 30
0.0
 11
1900.717894
 21
1637.577654
 31
0.0
  0
LINE
  5
278
330
266
100
AcDbEntity
  8
LC-009-003-----0
 62
     7
370
    25
100
AcDbLine
 10
1903.263155
 20
2008.709171
 30
0.0
 11
1900.0
 21
2033.495293
 31
0.0
  0
LINE
  5
279
330
266
100
AcDbEntity
  8
LC-009-003-----0
 62
     7
370
    25
100
AcDbLine
 10
1900.0
 20
2033.495293
 30
0.0
 11
1896.736845
 21
2008.709171
 31
0.0
  0
LINE
  5
27A
330
266
100
AcDbEntity
  8
LC-009-003-----0
 62
     7
370
    25
100
AcDbLine
 10
1896.736845
 20
2008.709171
 30
0.0
 11
1903.263155
 21
2008.709171
 31
0.0
  0
LINE
  5
27B
330
266
100
AcDbEntity
  8
LC-009-003-----0
 62
     7
370
    25
100
AcDbLine
 10
1902.414735
 20
2008.653563
 30
0.0
 11
1900.0
 21
2026.995293
 31
0.0
  0
LINE
  5
27C
330
266
100
AcDbEntity
  8
LC-009-003-----0
 62
     7
370
    25
100
AcDbLine
 10
1900.0
 20
2026.995293
 30
0.0
 11
1897.585265
 21
2008.653563
 31
0.0
  0
LINE
  5
27D
330
266
100
AcDbEntity
  8
LC-009-003-----0
 62
     7
370
    25
100
AcDbLine
 10
1901.566314
 20
2008.597954
 30
0.0
 11
1900.0
 21
2020.495293
 31
0.0
  0
LINE
  5
27E
330
266
100
AcDbEntity
  8
LC-009-003-----0
 62
     7
370
    25
100
AcDbLine
 10
1900.0
 20
2020.495293
 30
0.0
 11
1898.433686
 21
2008.597954
 31
0.0
  0
LINE
  5
27F
330
266
100
AcDbEntity
  8
LC-009-003-----0
 62
     7
370
    25
100
AcDbLine
 10
1900.717894
 20
2008.542346
 30
0.0
 11
1900.0
 21
2013.995293
 31
0.0
  0
LINE
  5
280
330
266
100
AcDbEntity
  8
LC-009-003-----0
 62
     7
370
    25
100
AcDbLine
 10
1900.0
 20
2013.995293
 30
0.0
 11
1899.282106
 21
2008.542346
 31
0.0
  0
TEXT
  5
281
330
266
100
AcDbEntity
  8
LC-009-003-----0
 62
     7
370
    25
100
AcDbText
 10
1885.0
 20
1784.604829
 30
0.0
 40
25.0
  1
421
 50
90.0
 41
0.7
  7
LCTX0-400-0-0pDIN-Schrift
 72
     1
 11
1885.0
 21
1807.104829
 31
0.0
100
AcDbText
  0
ENDBLK
  5
268
330
266
100
AcDbEntity
  8
0
100
AcDbBlockEnd
  0
BLOCK
  5
284
330
283
100
AcDbEntity
  8
0
100
AcDbBlockBegin
  2
LCDIM2
 70
     0
 71
     0
 10
0.0
 20
0.0
 30
0.0
  3
LCDIM2
  1

  4
LCDIM2
  0
LINE
  5
286
330
283
100
AcDbEntity
  8
LC-007-003-MTH-0
 62
     7
370
    25
100
AcDbLine
 10
912.695399
 20
2023.56
 30
0.0
 11
912.695399
 21
2165.0
 31
0.0
  0
LINE
  5
287
330
283
100
AcDbEntity
  8
LC-007-003-MTH-0
 62
     7
370
    25
100
AcDbLine
 10
1320.695399
 20
2068.06
 30
0.0
 11
1320.695399
 21
2165.0
 31
0.0
  0
LINE
  5
288
330
283
100
AcDbEntity
  8
LC-008-003-MTG-0
 62
     7
370
    25
100
AcDbLine
 10
912.695399
 20
2150.0
 30
0.0
 11
1320.695399
 21
2150.0
 31
0.0
  0
LINE
  5
289
330
283
100
AcDbEntity
  8
LC-009-003-----0
 62
     7
370
    25
100
AcDbLine
 10
937.481521
 20
2153.263155
 30
0.0
 11
912.695399
 21
2150.0
 31
0.0
  0
LINE
  5
28A
330
283
100
AcDbEntity
  8
LC-009-003-----0
 62
     7
370
    25
100
AcDbLine
 10
912.695399
 20
2150.0
 30
0.0
 11
937.481521
 21
2146.736845
 31
0.0
  0
LINE
  5
28B
330
283
100
AcDbEntity
  8
LC-009-003-----0
 62
     7
370
    25
100
AcDbLine
 10
937.481521
 20
2146.736845
 30
0.0
 11
937.481521
 21
2153.263155
 31
0.0
  0
LINE
  5
28C
330
283
100
AcDbEntity
  8
LC-009-003-----0
 62
     7
370
    25
100
AcDbLine
 10
937.537129
 20
2152.414735
 30
0.0
 11
919.195399
 21
2150.0
 31
0.0
  0
LINE
  5
28D
330
283
100
AcDbEntity
  8
LC-009-003-----0
 62
     7
370
    25
100
AcDbLine
 10
919.195399
 20
2150.0
 30
0.0
 11
937.537129
 21
2147.585265
 31
0.0
  0
LINE
  5
28E
330
283
100
AcDbEntity
  8
LC-009-003-----0
 62
     7
370
    25
100
AcDbLine
 10
937.592738
 20
2151.566314
 30
0.0
 11
925.695399
 21
2150.0
 31
0.0
  0
LINE
  5
28F
330
283
100
AcDbEntity
  8
LC-009-003-----0
 62
     7
370
    25
100
AcDbLine
 10
925.695399
 20
2150.0
 30
0.0
 11
937.592738
 21
2148.433686
 31
0.0
  0
LINE
  5
290
330
283
100
AcDbEntity
  8
LC-009-003-----0
 62
     7
370
    25
100
AcDbLine
 10
937.648346
 20
2150.717894
 30
0.0
 11
932.195399
 21
2150.0
 31
0.0
  0
LINE
  5
291
330
283
100
AcDbEntity
  8
LC-009-003-----0
 62
     7
370
    25
100
AcDbLine
 10
932.195399
 20
2150.0
 30
0.0
 11
937.648346
 21
2149.282106
 31
0.0
  0
LINE
  5
292
330
283
100
AcDbEntity
  8
LC-009-003-----0
 62
     7
370
    25
100
AcDbLine
 10
1295.909277
 20
2146.736845
 30
0.0
 11
1320.695399
 21
2150.0
 31
0.0
  0
LINE
  5
293
330
283
100
AcDbEntity
  8
LC-009-003-----0
 62
     7
370
    25
100
AcDbLine
 10
1320.695399
 20
2150.0
 30
0.0
 11
1295.909277
 21
2153.263155
 31
0.0
  0
LINE
  5
294
330
283
100
AcDbEntity
  8
LC-009-003-----0
 62
     7
370
    25
100
AcDbLine
 10
1295.909277
 20
2153.263155
 30
0.0
 11
1295.909277
 21
2146.736845
 31
0.0
  0
LINE
  5
295
330
283
100
AcDbEntity
  8
LC-009-003-----0
 62
     7
370
    25
100
AcDbLine
 10
1295.853669
 20
2147.585265
 30
0.0
 11
1314.195399
 21
2150.0
 31
0.0
  0
LINE
  5
296
330
283
100
AcDbEntity
  8
LC-009-003-----0
 62
     7
370
    25
100
AcDbLine
 10
1314.195399
 20
2150.0
 30
0.0
 11
1295.853669
 21
2152.414735
 31
0.0
  0
LINE
  5
297
330
283
100
AcDbEntity
  8
LC-009-003-----0
 62
     7
370
    25
100
AcDbLine
 10
1295.79806
 20
2148.433686
 30
0.0
 11
1307.695399
 21
2150.0
 31
0.0
  0
LINE
  5
298
330
283
100
AcDbEntity
  8
LC-009-003-----0
 62
     7
370
    25
100
AcDbLine
 10
1307.695399
 20
2150.0
 30
0.0
 11
1295.79806
 21
2151.566314
 31
0.0
  0
LINE
  5
299
330
283
100
AcDbEntity
  8
LC-009-003-----0
 62
     7
370
    25
100
AcDbLine
 10
1295.742452
 20
2149.282106
 30
0.0
 11
1301.195399
 21
2150.0
 31
0.0
  0
LINE
  5
29A
330
283
100
AcDbEntity
  8
LC-009-003-----0
 62
     7
370
    25
100
AcDbLine
 10
1301.195399
 20
2150.0
 30
0.0
 11
1295.742452
 21
2150.717894
 31
0.0
  0
TEXT
  5
29B
330
283
100
AcDbEntity
  8
LC-009-003-----0
 62
     7
370
    25
100
AcDbText
 10
1080.382011
 20
2165.0
 30
0.0
 40
25.0
  1
408
 41
0.7
  7
LCTX0-400-0-0pDIN-Schrift
 72
     1
 11
1105.382011
 21
2165.0
 31
0.0
100
AcDbText
  0
ENDBLK
  5
285
330
283
100
AcDbEntity
  8
0
100
AcDbBlockEnd
  0
BLOCK
  5
29E
330
29D
100
AcDbEntity
  8
0
100
AcDbBlockBegin
  2
LCDIM3
 70
     0
 71
     0
 10
0.0
 20
0.0
 30
0.0
  3
LCDIM3
  1

  4
LCDIM3
  0
LINE
  5
2A0
330
29D
100
AcDbEntity
  8
LC-007-003-MTH-0
 62
     7
370
    25
100
AcDbLine
 10
1315.695399
 20
1573.06
 30
0.0
 11
1415.0
 21
1573.06
 31
0.0
  0
LINE
  5
2A1
330
29D
100
AcDbEntity
  8
LC-007-003-MTH-0
 62
     7
370
    25
100
AcDbLine
 10
1315.695399
 20
2073.06
 30
0.0
 11
1415.0
 21
2073.06
 31
0.0
  0
LINE
  5
2A2
330
29D
100
AcDbEntity
  8
LC-008-003-MTG-0
 62
     7
370
    25
100
AcDbLine
 10
1400.0
 20
1573.06
 30
0.0
 11
1400.0
 21
2073.06
 31
0.0
  0
LINE
  5
2A3
330
29D
100
AcDbEntity
  8
LC-009-003-----0
 62
     7
370
    25
100
AcDbLine
 10
1396.736845
 20
1597.846122
 30
0.0
 11
1400.0
 21
1573.06
 31
0.0
  0
LINE
  5
2A4
330
29D
100
AcDbEntity
  8
LC-009-003-----0
 62
     7
370
    25
100
AcDbLine
 10
1400.0
 20
1573.06
 30
0.0
 11
1403.263155
 21
1597.846122
 31
0.0
  0
LINE
  5
2A5
330
29D
100
AcDbEntity
  8
LC-009-003-----0
 62
     7
370
    25
100
AcDbLine
 10
1403.263155
 20
1597.846122
 30
0.0
 11
1396.736845
 21
1597.846122
 31
0.0
  0
LINE
  5
2A6
330
29D
100
AcDbEntity
  8
LC-009-003-----0
 62
     7
370
    25
100
AcDbLine
 10
1397.585265
 20
1597.90173
 30
0.0
 11
1400.0
 21
1579.56
 31
0.0
  0
LINE
  5
2A7
330
29D
100
AcDbEntity
  8
LC-009-003-----0
 62
     7
370
    25
100
AcDbLine
 10
1400.0
 20
1579.56
 30
0.0
 11
1402.414735
 21
1597.90173
 31
0.0
  0
LINE
  5
2A8
330
29D
100
AcDbEntity
  8
LC-009-003-----0
 62
     7
370
    25
100
AcDbLine
 10
1398.433686
 20
1597.957339
 30
0.0
 11
1400.0
 21
1586.06
 31
0.0
  0
LINE
  5
2A9
330
29D
100
AcDbEntity
  8
LC-009-003-----0
 62
     7
370
    25
100
AcDbLine
 10
1400.0
 20
1586.06
 30
0.0
 11
1401.566314
 21
1597.957339
 31
0.0
  0
LINE
  5
2AA
330
29D
100
AcDbEntity
  8
LC-009-003-----0
 62
     7
370
    25
100
AcDbLine
 10
1399.282106
 20
1598.012947
 30
0.0
 11
1400.0
 21
1592.56
 31
0.0
  0
LINE
  5
2AB
330
29D
100
AcDbEntity
  8
LC-009-003-----0
 62
     7
370
    25
100
AcDbLine
 10
1400.0
 20
1592.56
 30
0.0
 11
1400.717894
 21
1598.012947
 31
0.0
  0
LINE
  5
2AC
330
29D
100
AcDbEntity
  8
LC-009-003-----0
 62
     7
370
    25
100
AcDbLine
 10
1403.263155
 20
2048.273878
 30
0.0
 11
1400.0
 21
2073.06
 31
0.0
  0
LINE
  5
2AD
330
29D
100
AcDbEntity
  8
LC-009-003-----0
 62
     7
370
    25
100
AcDbLine
 10
1400.0
 20
2073.06
 30
0.0
 11
1396.736845
 21
2048.273878
 31
0.0
  0
LINE
  5
2AE
330
29D
100
AcDbEntity
  8
LC-009-003-----0
 62
     7
370
    25
100
AcDbLine
 10
1396.736845
 20
2048.273878
 30
0.0
 11
1403.263155
 21
2048.273878
 31
0.0
  0
LINE
  5
2AF
330
29D
100
AcDbEntity
  8
LC-009-003-----0
 62
     7
370
    25
100
AcDbLine
 10
1402.414735
 20
2048.21827
 30
0.0
 11
1400.0
 21
2066.56
 31
0.0
  0
LINE
  5
2B0
330
29D
100
AcDbEntity
  8
LC-009-003-----0
 62
     7
370
    25
100
AcDbLine
 10
1400.0
 20
2066.56
 30
0.0
 11
1397.585265
 21
2048.21827
 31
0.0
  0
LINE
  5
2B1
330
29D
100
AcDbEntity
  8
LC-009-003-----0
 62
     7
370
    25
100
AcDbLine
 10
1401.566314
 20
2048.162661
 30
0.0
 11
1400.0
 21
2060.06
 31
0.0
  0
LINE
  5
2B2
330
29D
100
AcDbEntity
  8
LC-009-003-----0
 62
     7
370
    25
100
AcDbLine
 10
1400.0
 20
2060.06
 30
0.0
 11
1398.433686
 21
2048.162661
 31
0.0
  0
LINE
  5
2B3
330
29D
100
AcDbEntity
  8
LC-009-003-----0
 62
     7
370
    25
100
AcDbLine
 10
1400.717894
 20
2048.107053
 30
0.0
 11
1400.0
 21
2053.56
 31
0.0
  0
LINE
  5
2B4
330
29D
100
AcDbEntity
  8
LC-009-003-----0
 62
     7
370
    25
100
AcDbLine
 10
1400.0
 20
2053.56
 30
0.0
 11
1399.282106
 21
2048.107053
 31
0.0
  0
TEXT
  5
2B5
330
29D
100
AcDbEntity
  8
LC-009-003-----0
 62
     7
370
    25
100
AcDbText
 10
1385.0
 20
1795.208527
 30
0.0
 40
25.0
  1
500
 50
90.0
 41
0.7
  7
LCTX0-400-0-0pDIN-Schrift
 72
     1
 11
1385.0
 21
1820.208527
 31
0.0
100
AcDbText
  0
ENDBLK
  5
29F
330
29D
100
AcDbEntity
  8
0
100
AcDbBlockEnd
  0
BLOCK
  5
2C4
330
2C3
100
AcDbEntity
  8
0
100
AcDbBlockBegin
  2
*X15
 70
     1
 71
     0
 10
0.0
 20
0.0
 30
0.0
  3
*X15
  1

  4
*X1
  0
LINE
  5
2C7
330
2C3
100
AcDbEntity
  8
LC-010-005-----0
 62
     7
370
    25
100
AcDbLine
 10
1410.484201
 20
2640.85
 30
0.0
 11
1418.119222
 21
2648.485021
 31
0.0
  0
LINE
  5
2C8
330
2C3
100
AcDbEntity
  8
LC-010-005-----0
 62
     7
370
    25
100
AcDbLine
 10
1368.057794
 20
2640.85
 30
0.0
 11
1403.057794
 21
2675.85
 31
0.0
  0
LINE
  5
2C9
330
2C3
100
AcDbEntity
  8
LC-010-005-----0
 62
     7
370
    25
100
AcDbLine
 10
1325.631387
 20
2640.85
 30
0.0
 11
1360.631387
 21
2675.85
 31
0.0
  0
LINE
  5
2CA
330
2C3
100
AcDbEntity
  8
LC-010-005-----0
 62
     7
370
    25
100
AcDbLine
 10
1310.695399
 20
2668.340419
 30
0.0
 11
1318.20498
 21
2675.85
 31
0.0
  0
ENDBLK
  5
2C5
330
2C3
100
AcDbEntity
  8
0
100
AcDbBlockEnd
  0
BLOCK
  5
2CD
330
2CC
100
AcDbEntity
  8
0
100
AcDbBlockBegin
  2
LCDIM4
 70
     0
 71
     0
 10
0.0
 20
0.0
 30
0.0
  3
LCDIM4
  1

  4
LCDIM4
  0
LINE
  5
2CF
330
2CC
100
AcDbEntity
  8
LC-007-003-MTH-0
 62
     7
370
    25
100
AcDbLine
 10
860.695399
 20
2553.737349
 30
0.0
 11
860.695399
 21
2285.0
 31
0.0
  0
LINE
  5
2D0
330
2CC
100
AcDbEntity
  8
LC-007-003-MTH-0
 62
     7
370
    25
100
AcDbLine
 10
1310.695399
 20
2553.737349
 30
0.0
 11
1310.695399
 21
2285.0
 31
0.0
  0
LINE
  5
2D1
330
2CC
100
AcDbEntity
  8
LC-008-003-MTG-0
 62
     7
370
    25
100
AcDbLine
 10
860.695399
 20
2300.0
 30
0.0
 11
1310.695399
 21
2300.0
 31
0.0
  0
LINE
  5
2D2
330
2CC
100
AcDbEntity
  8
LC-009-003-----0
 62
     7
370
    25
100
AcDbLine
 10
885.481521
 20
2303.263155
 30
0.0
 11
860.695399
 21
2300.0
 31
0.0
  0
LINE
  5
2D3
330
2CC
100
AcDbEntity
  8
LC-009-003-----0
 62
     7
370
    25
100
AcDbLine
 10
860.695399
 20
2300.0
 30
0.0
 11
885.481521
 21
2296.736845
 31
0.0
  0
LINE
  5
2D4
330
2CC
100
AcDbEntity
  8
LC-009-003-----0
 62
     7
370
    25
100
AcDbLine
 10
885.481521
 20
2296.736845
 30
0.0
 11
885.481521
 21
2303.263155
 31
0.0
  0
LINE
  5
2D5
330
2CC
100
AcDbEntity
  8
LC-009-003-----0
 62
     7
370
    25
100
AcDbLine
 10
885.537129
 20
2302.414735
 30
0.0
 11
867.195399
 21
2300.0
 31
0.0
  0
LINE
  5
2D6
330
2CC
100
AcDbEntity
  8
LC-009-003-----0
 62
     7
370
    25
100
AcDbLine
 10
867.195399
 20
2300.0
 30
0.0
 11
885.537129
 21
2297.585265
 31
0.0
  0
LINE
  5
2D7
330
2CC
100
AcDbEntity
  8
LC-009-003-----0
 62
     7
370
    25
100
AcDbLine
 10
885.592738
 20
2301.566314
 30
0.0
 11
873.695399
 21
2300.0
 31
0.0
  0
LINE
  5
2D8
330
2CC
100
AcDbEntity
  8
LC-009-003-----0
 62
     7
370
    25
100
AcDbLine
 10
873.695399
 20
2300.0
 30
0.0
 11
885.592738
 21
2298.433686
 31
0.0
  0
LINE
  5
2D9
330
2CC
100
AcDbEntity
  8
LC-009-003-----0
 62
     7
370
    25
100
AcDbLine
 10
885.648346
 20
2300.717894
 30
0.0
 11
880.195399
 21
2300.0
 31
0.0
  0
LINE
  5
2DA
330
2CC
100
AcDbEntity
  8
LC-009-003-----0
 62
     7
370
    25
100
AcDbLine
 10
880.195399
 20
2300.0
 30
0.0
 11
885.648346
 21
2299.282106
 31
0.0
  0
LINE
  5
2DB
330
2CC
100
AcDbEntity
  8
LC-009-003-----0
 62
     7
370
    25
100
AcDbLine
 10
1285.909277
 20
2296.736845
 30
0.0
 11
1310.695399
 21
2300.0
 31
0.0
  0
LINE
  5
2DC
330
2CC
100
AcDbEntity
  8
LC-009-003-----0
 62
     7
370
    25
100
AcDbLine
 10
1310.695399
 20
2300.0
 30
0.0
 11
1285.909277
 21
2303.263155
 31
0.0
  0
LINE
  5
2DD
330
2CC
100
AcDbEntity
  8
LC-009-003-----0
 62
     7
370
    25
100
AcDbLine
 10
1285.909277
 20
2303.263155
 30
0.0
 11
1285.909277
 21
2296.736845
 31
0.0
  0
LINE
  5
2DE
330
2CC
100
AcDbEntity
  8
LC-009-003-----0
 62
     7
370
    25
100
AcDbLine
 10
1285.853669
 20
2297.585265
 30
0.0
 11
1304.195399
 21
2300.0
 31
0.0
  0
LINE
  5
2DF
330
2CC
100
AcDbEntity
  8
LC-009-003-----0
 62
     7
370
    25
100
AcDbLine
 10
1304.195399
 20
2300.0
 30
0.0
 11
1285.853669
 21
2302.414735
 31
0.0
  0
LINE
  5
2E0
330
2CC
100
AcDbEntity
  8
LC-009-003-----0
 62
     7
370
    25
100
AcDbLine
 10
1285.79806
 20
2298.433686
 30
0.0
 11
1297.695399
 21
2300.0
 31
0.0
  0
LINE
  5
2E1
330
2CC
100
AcDbEntity
  8
LC-009-003-----0
 62
     7
370
    25
100
AcDbLine
 10
1297.695399
 20
2300.0
 30
0.0
 11
1285.79806
 21
2301.566314
 31
0.0
  0
LINE
  5
2E2
330
2CC
100
AcDbEntity
  8
LC-009-003-----0
 62
     7
370
    25
100
AcDbLine
 10
1285.742452
 20
2299.282106
 30
0.0
 11
1291.195399
 21
2300.0
 31
0.0
  0
LINE
  5
2E3
330
2CC
100
AcDbEntity
  8
LC-009-003-----0
 62
     7
370
    25
100
AcDbLine
 10
1291.195399
 20
2300.0
 30
0.0
 11
1285.742452
 21
2300.717894
 31
0.0
  0
TEXT
  5
2E4
330
2CC
100
AcDbEntity
  8
LC-009-003-----0
 62
     7
370
    25
100
AcDbText
 10
1098.257451
 20
2315.0
 30
0.0
 40
25.0
  1
450
 41
0.7
  7
LCTX0-400-0-0pDIN-Schrift
 72
     1
 11
1123.257451
 21
2315.0
 31
0.0
100
AcDbText
  0
ENDBLK
  5
2CE
330
2CC
100
AcDbEntity
  8
0
100
AcDbBlockEnd
  0
BLOCK
  5
2E8
330
2E7
100
AcDbEntity
  8
0
100
AcDbBlockBegin
  2
LCDIM5
 70
     0
 71
     0
 10
0.0
 20
0.0
 30
0.0
  3
LCDIM5
  1

  4
LCDIM5
  0
LINE
  5
2EA
330
2E7
100
AcDbEntity
  8
LC-007-003-MTH-0
 62
     7
370
    25
100
AcDbLine
 10
1038.695399
 20
2478.85
 30
0.0
 11
1065.0
 21
2478.85
 31
0.0
  0
LINE
  5
2EB
330
2E7
100
AcDbEntity
  8
LC-007-003-MTH-0
 62
     7
370
    25
100
AcDbLine
 10
1038.695399
 20
2683.85
 30
0.0
 11
1065.0
 21
2683.85
 31
0.0
  0
LINE
  5
2EC
330
2E7
100
AcDbEntity
  8
LC-008-003-MTG-0
 62
     7
370
    25
100
AcDbLine
 10
1050.0
 20
2478.85
 30
0.0
 11
1050.0
 21
2683.85
 31
0.0
  0
LINE
  5
2ED
330
2E7
100
AcDbEntity
  8
LC-009-003-----0
 62
     7
370
    25
100
AcDbLine
 10
1046.736845
 20
2503.636122
 30
0.0
 11
1050.0
 21
2478.85
 31
0.0
  0
LINE
  5
2EE
330
2E7
100
AcDbEntity
  8
LC-009-003-----0
 62
     7
370
    25
100
AcDbLine
 10
1050.0
 20
2478.85
 30
0.0
 11
1053.263155
 21
2503.636122
 31
0.0
  0
LINE
  5
2EF
330
2E7
100
AcDbEntity
  8
LC-009-003-----0
 62
     7
370
    25
100
AcDbLine
 10
1053.263155
 20
2503.636122
 30
0.0
 11
1046.736845
 21
2503.636122
 31
0.0
  0
LINE
  5
2F0
330
2E7
100
AcDbEntity
  8
LC-009-003-----0
 62
     7
370
    25
100
AcDbLine
 10
1047.585265
 20
2503.69173
 30
0.0
 11
1050.0
 21
2485.35
 31
0.0
  0
LINE
  5
2F1
330
2E7
100
AcDbEntity
  8
LC-009-003-----0
 62
     7
370
    25
100
AcDbLine
 10
1050.0
 20
2485.35
 30
0.0
 11
1052.414735
 21
2503.69173
 31
0.0
  0
LINE
  5
2F2
330
2E7
100
AcDbEntity
  8
LC-009-003-----0
 62
     7
370
    25
100
AcDbLine
 10
1048.433686
 20
2503.747339
 30
0.0
 11
1050.0
 21
2491.85
 31
0.0
  0
LINE
  5
2F3
330
2E7
100
AcDbEntity
  8
LC-009-003-----0
 62
     7
370
    25
100
AcDbLine
 10
1050.0
 20
2491.85
 30
0.0
 11
1051.566314
 21
2503.747339
 31
0.0
  0
LINE
  5
2F4
330
2E7
100
AcDbEntity
  8
LC-009-003-----0
 62
     7
370
    25
100
AcDbLine
 10
1049.282106
 20
2503.802947
 30
0.0
 11
1050.0
 21
2498.35
 31
0.0
  0
LINE
  5
2F5
330
2E7
100
AcDbEntity
  8
LC-009-003-----0
 62
     7
370
    25
100
AcDbLine
 10
1050.0
 20
2498.35
 30
0.0
 11
1050.717894
 21
2503.802947
 31
0.0
  0
LINE
  5
2F6
330
2E7
100
AcDbEntity
  8
LC-009-003-----0
 62
     7
370
    25
100
AcDbLine
 10
1053.263155
 20
2659.063878
 30
0.0
 11
1050.0
 21
2683.85
 31
0.0
  0
LINE
  5
2F7
330
2E7
100
AcDbEntity
  8
LC-009-003-----0
 62
     7
370
    25
100
AcDbLine
 10
1050.0
 20
2683.85
 30
0.0
 11
1046.736845
 21
2659.063878
 31
0.0
  0
LINE
  5
2F8
330
2E7
100
AcDbEntity
  8
LC-009-003-----0
 62
     7
370
    25
100
AcDbLine
 10
1046.736845
 20
2659.063878
 30
0.0
 11
1053.263155
 21
2659.063878
 31
0.0
  0
LINE
  5
2F9
330
2E7
100
AcDbEntity
  8
LC-009-003-----0
 62
     7
370
    25
100
AcDbLine
 10
1052.414735
 20
2659.00827
 30
0.0
 11
1050.0
 21
2677.35
 31
0.0
  0
LINE
  5
2FA
330
2E7
100
AcDbEntity
  8
LC-009-003-----0
 62
     7
370
    25
100
AcDbLine
 10
1050.0
 20
2677.35
 30
0.0
 11
1047.585265
 21
2659.00827
 31
0.0
  0
LINE
  5
2FB
330
2E7
100
AcDbEntity
  8
LC-009-003-----0
 62
     7
370
    25
100
AcDbLine
 10
1051.566314
 20
2658.952661
 30
0.0
 11
1050.0
 21
2670.85
 31
0.0
  0
LINE
  5
2FC
330
2E7
100
AcDbEntity
  8
LC-009-003-----0
 62
     7
370
    25
100
AcDbLine
 10
1050.0
 20
2670.85
 30
0.0
 11
1048.433686
 21
2658.952661
 31
0.0
  0
LINE
  5
2FD
330
2E7
100
AcDbEntity
  8
LC-009-003-----0
 62
     7
370
    25
100
AcDbLine
 10
1050.717894
 20
2658.897053
 30
0.0
 11
1050.0
 21
2664.35
 31
0.0
  0
LINE
  5
2FE
330
2E7
100
AcDbEntity
  8
LC-009-003-----0
 62
     7
370
    25
100
AcDbLine
 10
1050.0
 20
2664.35
 30
0.0
 11
1049.282106
 21
2658.897053
 31
0.0
  0
TEXT
  5
2FF
330
2E7
100
AcDbEntity
  8
LC-009-003-----0
 62
     7
370
    25
100
AcDbText
 10
1035.0
 20
2564.212441
 30
0.0
 40
25.0
  1
205
 50
90.0
 41
0.7
  7
LCTX0-400-0-0pDIN-Schrift
 72
     1
 11
1035.0
 21
2589.212441
 31
0.0
100
AcDbText
  0
ENDBLK
  5
2E9
330
2E7
100
AcDbEntity
  8
0
100
AcDbBlockEnd
  0
BLOCK
  5
302
330
301
100
AcDbEntity
  8
0
100
AcDbBlockBegin
  2
LCDIM6
 70
     0
 71
     0
 10
0.0
 20
0.0
 30
0.0
  3
LCDIM6
  1

  4
LCDIM6
  0
LINE
  5
304
330
301
100
AcDbEntity
  8
LC-007-003-MTH-0
 62
     7
370
    25
100
AcDbLine
 10
934.254188
 20
2669.53348
 30
0.0
 11
934.254188
 21
2765.0
 31
0.0
  0
LINE
  5
305
330
301
100
AcDbEntity
  8
LC-007-003-MTH-0
 62
     7
370
    25
100
AcDbLine
 10
1281.130692
 20
2669.477171
 30
0.0
 11
1281.130692
 21
2765.0
 31
0.0
  0
LINE
  5
306
330
301
100
AcDbEntity
  8
LC-008-003-MTG-0
 62
     7
370
    25
100
AcDbLine
 10
934.254188
 20
2750.0
 30
0.0
 11
1281.130692
 21
2750.0
 31
0.0
  0
LINE
  5
307
330
301
100
AcDbEntity
  8
LC-009-003-----0
 62
     7
370
    25
100
AcDbLine
 10
959.04031
 20
2753.263155
 30
0.0
 11
934.254188
 21
2750.0
 31
0.0
  0
LINE
  5
308
330
301
100
AcDbEntity
  8
LC-009-003-----0
 62
     7
370
    25
100
AcDbLine
 10
934.254188
 20
2750.0
 30
0.0
 11
959.04031
 21
2746.736845
 31
0.0
  0
LINE
  5
309
330
301
100
AcDbEntity
  8
LC-009-003-----0
 62
     7
370
    25
100
AcDbLine
 10
959.04031
 20
2746.736845
 30
0.0
 11
959.04031
 21
2753.263155
 31
0.0
  0
LINE
  5
30A
330
301
100
AcDbEntity
  8
LC-009-003-----0
 62
     7
370
    25
100
AcDbLine
 10
959.095918
 20
2752.414735
 30
0.0
 11
940.754188
 21
2750.0
 31
0.0
  0
LINE
  5
30B
330
301
100
AcDbEntity
  8
LC-009-003-----0
 62
     7
370
    25
100
AcDbLine
 10
940.754188
 20
2750.0
 30
0.0
 11
959.095918
 21
2747.585265
 31
0.0
  0
LINE
  5
30C
330
301
100
AcDbEntity
  8
LC-009-003-----0
 62
     7
370
    25
100
AcDbLine
 10
959.151526
 20
2751.566314
 30
0.0
 11
947.254188
 21
2750.0
 31
0.0
  0
LINE
  5
30D
330
301
100
AcDbEntity
  8
LC-009-003-----0
 62
     7
370
    25
100
AcDbLine
 10
947.254188
 20
2750.0
 30
0.0
 11
959.151526
 21
2748.433686
 31
0.0
  0
LINE
  5
30E
330
301
100
AcDbEntity
  8
LC-009-003-----0
 62
     7
370
    25
100
AcDbLine
 10
959.207135
 20
2750.717894
 30
0.0
 11
953.754188
 21
2750.0
 31
0.0
  0
LINE
  5
30F
330
301
100
AcDbEntity
  8
LC-009-003-----0
 62
     7
370
    25
100
AcDbLine
 10
953.754188
 20
2750.0
 30
0.0
 11
959.207135
 21
2749.282106
 31
0.0
  0
LINE
  5
310
330
301
100
AcDbEntity
  8
LC-009-003-----0
 62
     7
370
    25
100
AcDbLine
 10
1256.34457
 20
2746.736845
 30
0.0
 11
1281.130692
 21
2750.0
 31
0.0
  0
LINE
  5
311
330
301
100
AcDbEntity
  8
LC-009-003-----0
 62
     7
370
    25
100
AcDbLine
 10
1281.130692
 20
2750.0
 30
0.0
 11
1256.34457
 21
2753.263155
 31
0.0
  0
LINE
  5
312
330
301
100
AcDbEntity
  8
LC-009-003-----0
 62
     7
370
    25
100
AcDbLine
 10
1256.34457
 20
2753.263155
 30
0.0
 11
1256.34457
 21
2746.736845
 31
0.0
  0
LINE
  5
313
330
301
100
AcDbEntity
  8
LC-009-003-----0
 62
     7
370
    25
100
AcDbLine
 10
1256.288962
 20
2747.585265
 30
0.0
 11
1274.630692
 21
2750.0
 31
0.0
  0
LINE
  5
314
330
301
100
AcDbEntity
  8
LC-009-003-----0
 62
     7
370
    25
100
AcDbLine
 10
1274.630692
 20
2750.0
 30
0.0
 11
1256.288962
 21
2752.414735
 31
0.0
  0
LINE
  5
315
330
301
100
AcDbEntity
  8
LC-009-003-----0
 62
     7
370
    25
100
AcDbLine
 10
1256.233353
 20
2748.433686
 30
0.0
 11
1268.130692
 21
2750.0
 31
0.0
  0
LINE
  5
316
330
301
100
AcDbEntity
  8
LC-009-003-----0
 62
     7
370
    25
100
AcDbLine
 10
1268.130692
 20
2750.0
 30
0.0
 11
1256.233353
 21
2751.566314
 31
0.0
  0
LINE
  5
317
330
301
100
AcDbEntity
  8
LC-009-003-----0
 62
     7
370
    25
100
AcDbLine
 10
1256.177745
 20
2749.282106
 30
0.0
 11
1261.630692
 21
2750.0
 31
0.0
  0
LINE
  5
318
330
301
100
AcDbEntity
  8
LC-009-003-----0
 62
     7
370
    25
100
AcDbLine
 10
1261.630692
 20
2750.0
 30
0.0
 11
1256.177745
 21
2750.717894
 31
0.0
  0
TEXT
  5
319
330
301
100
AcDbEntity
  8
LC-009-003-----0
 62
     7
370
    25
100
AcDbText
 10
1066.226097
 20
2765.0
 30
0.0
 40
25.0
  1
347
 41
0.7
  7
LCTX0-400-0-0pDIN-Schrift
 72
     1
 11
1091.226097
 21
2765.0
 31
0.0
100
AcDbText
  0
ENDBLK
  5
303
330
301
100
AcDbEntity
  8
0
100
AcDbBlockEnd
  0
BLOCK
  5
324
330
323
100
AcDbEntity
  8
0
100
AcDbBlockBegin
  2
LCDIM7
 70
     0
 71
     0
 10
0.0
 20
0.0
 30
0.0
  3
LCDIM7
  1

  4
LCDIM7
  0
LINE
  5
326
330
323
100
AcDbEntity
  8
LC-007-003-MTH-0
 62
     7
370
    25
100
AcDbLine
 10
399.591949
 20
814.609991
 30
0.0
 11
399.591949
 21
685.0
 31
0.0
  0
LINE
  5
327
330
323
100
AcDbEntity
  8
LC-007-003-MTH-0
 62
     7
370
    25
100
AcDbLine
 10
819.591949
 20
814.609991
 30
0.0
 11
819.591949
 21
685.0
 31
0.0
  0
LINE
  5
328
330
323
100
AcDbEntity
  8
LC-008-003-MTG-0
 62
     7
370
    25
100
AcDbLine
 10
399.591949
 20
700.0
 30
0.0
 11
819.591949
 21
700.0
 31
0.0
  0
LINE
  5
329
330
323
100
AcDbEntity
  8
LC-009-003-----0
 62
     7
370
    25
100
AcDbLine
 10
424.378071
 20
703.263155
 30
0.0
 11
399.591949
 21
700.0
 31
0.0
  0
LINE
  5
32A
330
323
100
AcDbEntity
  8
LC-009-003-----0
 62
     7
370
    25
100
AcDbLine
 10
399.591949
 20
700.0
 30
0.0
 11
424.378071
 21
696.736845
 31
0.0
  0
LINE
  5
32B
330
323
100
AcDbEntity
  8
LC-009-003-----0
 62
     7
370
    25
100
AcDbLine
 10
424.378071
 20
696.736845
 30
0.0
 11
424.378071
 21
703.263155
 31
0.0
  0
LINE
  5
32C
330
323
100
AcDbEntity
  8
LC-009-003-----0
 62
     7
370
    25
100
AcDbLine
 10
424.433679
 20
702.414735
 30
0.0
 11
406.091949
 21
700.0
 31
0.0
  0
LINE
  5
32D
330
323
100
AcDbEntity
  8
LC-009-003-----0
 62
     7
370
    25
100
AcDbLine
 10
406.091949
 20
700.0
 30
0.0
 11
424.433679
 21
697.585265
 31
0.0
  0
LINE
  5
32E
330
323
100
AcDbEntity
  8
LC-009-003-----0
 62
     7
370
    25
100
AcDbLine
 10
424.489287
 20
701.566314
 30
0.0
 11
412.591949
 21
700.0
 31
0.0
  0
LINE
  5
32F
330
323
100
AcDbEntity
  8
LC-009-003-----0
 62
     7
370
    25
100
AcDbLine
 10
412.591949
 20
700.0
 30
0.0
 11
424.489287
 21
698.433686
 31
0.0
  0
LINE
  5
330
330
323
100
AcDbEntity
  8
LC-009-003-----0
 62
     7
370
    25
100
AcDbLine
 10
424.544896
 20
700.717894
 30
0.0
 11
419.091949
 21
700.0
 31
0.0
  0
LINE
  5
331
330
323
100
AcDbEntity
  8
LC-009-003-----0
 62
     7
370
    25
100
AcDbLine
 10
419.091949
 20
700.0
 30
0.0
 11
424.544896
 21
699.282106
 31
0.0
  0
LINE
  5
332
330
323
100
AcDbEntity
  8
LC-009-003-----0
 62
     7
370
    25
100
AcDbLine
 10
794.805827
 20
696.736845
 30
0.0
 11
819.591949
 21
700.0
 31
0.0
  0
LINE
  5
333
330
323
100
AcDbEntity
  8
LC-009-003-----0
 62
     7
370
    25
100
AcDbLine
 10
819.591949
 20
700.0
 30
0.0
 11
794.805827
 21
703.263155
 31
0.0
  0
LINE
  5
334
330
323
100
AcDbEntity
  8
LC-009-003-----0
 62
     7
370
    25
100
AcDbLine
 10
794.805827
 20
703.263155
 30
0.0
 11
794.805827
 21
696.736845
 31
0.0
  0
LINE
  5
335
330
323
100
AcDbEntity
  8
LC-009-003-----0
 62
     7
370
    25
100
AcDbLine
 10
794.750218
 20
697.585265
 30
0.0
 11
813.091949
 21
700.0
 31
0.0
  0
LINE
  5
336
330
323
100
AcDbEntity
  8
LC-009-003-----0
 62
     7
370
    25
100
AcDbLine
 10
813.091949
 20
700.0
 30
0.0
 11
794.750218
 21
702.414735
 31
0.0
  0
LINE
  5
337
330
323
100
AcDbEntity
  8
LC-009-003-----0
 62
     7
370
    25
100
AcDbLine
 10
794.69461
 20
698.433686
 30
0.0
 11
806.591949
 21
700.0
 31
0.0
  0
LINE
  5
338
330
323
100
AcDbEntity
  8
LC-009-003-----0
 62
     7
370
    25
100
AcDbLine
 10
806.591949
 20
700.0
 30
0.0
 11
794.69461
 21
701.566314
 31
0.0
  0
LINE
  5
339
330
323
100
AcDbEntity
  8
LC-009-003-----0
 62
     7
370
    25
100
AcDbLine
 10
794.639002
 20
699.282106
 30
0.0
 11
800.091948
 21
700.0
 31
0.0
  0
LINE
  5
33A
330
323
100
AcDbEntity
  8
LC-009-003-----0
 62
     7
370
    25
100
AcDbLine
 10
800.091948
 20
700.0
 30
0.0
 11
794.639002
 21
700.717894
 31
0.0
  0
TEXT
  5
33B
330
323
100
AcDbEntity
  8
LC-009-003-----0
 62
     7
370
    25
100
AcDbText
 10
583.727596
 20
715.0
 30
0.0
 40
25.0
  1
840
 41
0.7
  7
LCTX0-400-0-0pDIN-Schrift
 72
     1
 11
608.727596
 21
715.0
 31
0.0
100
AcDbText
  0
ENDBLK
  5
325
330
323
100
AcDbEntity
  8
0
100
AcDbBlockEnd
  0
BLOCK
  5
33E
330
33D
100
AcDbEntity
  8
0
100
AcDbBlockBegin
  2
LCDIM8
 70
     0
 71
     0
 10
0.0
 20
0.0
 30
0.0
  3
LCDIM8
  1

  4
LCDIM8
  0
LINE
  5
340
330
33D
100
AcDbEntity
  8
LC-007-003-MTH-0
 62
     7
370
    25
100
AcDbLine
 10
814.591949
 20
809.609991
 30
0.0
 11
915.0
 21
809.609991
 31
0.0
  0
LINE
  5
341
330
33D
100
AcDbEntity
  8
LC-007-003-MTH-0
 62
     7
370
    25
100
AcDbLine
 10
814.591949
 20
1049.609991
 30
0.0
 11
915.0
 21
1049.609991
 31
0.0
  0
LINE
  5
342
330
33D
100
AcDbEntity
  8
LC-008-003-MTG-0
 62
     7
370
    25
100
AcDbLine
 10
900.0
 20
809.609991
 30
0.0
 11
900.0
 21
1049.609991
 31
0.0
  0
LINE
  5
343
330
33D
100
AcDbEntity
  8
LC-009-003-----0
 62
     7
370
    25
100
AcDbLine
 10
896.736845
 20
834.396113
 30
0.0
 11
900.0
 21
809.609991
 31
0.0
  0
LINE
  5
344
330
33D
100
AcDbEntity
  8
LC-009-003-----0
 62
     7
370
    25
100
AcDbLine
 10
900.0
 20
809.609991
 30
0.0
 11
903.263155
 21
834.396113
 31
0.0
  0
LINE
  5
345
330
33D
100
AcDbEntity
  8
LC-009-003-----0
 62
     7
370
    25
100
AcDbLine
 10
903.263155
 20
834.396113
 30
0.0
 11
896.736845
 21
834.396113
 31
0.0
  0
LINE
  5
346
330
33D
100
AcDbEntity
  8
LC-009-003-----0
 62
     7
370
    25
100
AcDbLine
 10
897.585265
 20
834.451721
 30
0.0
 11
900.0
 21
816.109991
 31
0.0
  0
LINE
  5
347
330
33D
100
AcDbEntity
  8
LC-009-003-----0
 62
     7
370
    25
100
AcDbLine
 10
900.0
 20
816.109991
 30
0.0
 11
902.414735
 21
834.451721
 31
0.0
  0
LINE
  5
348
330
33D
100
AcDbEntity
  8
LC-009-003-----0
 62
     7
370
    25
100
AcDbLine
 10
898.433686
 20
834.50733
 30
0.0
 11
900.0
 21
822.609991
 31
0.0
  0
LINE
  5
349
330
33D
100
AcDbEntity
  8
LC-009-003-----0
 62
     7
370
    25
100
AcDbLine
 10
900.0
 20
822.609991
 30
0.0
 11
901.566314
 21
834.50733
 31
0.0
  0
LINE
  5
34A
330
33D
100
AcDbEntity
  8
LC-009-003-----0
 62
     7
370
    25
100
AcDbLine
 10
899.282106
 20
834.562938
 30
0.0
 11
900.0
 21
829.109991
 31
0.0
  0
LINE
  5
34B
330
33D
100
AcDbEntity
  8
LC-009-003-----0
 62
     7
370
    25
100
AcDbLine
 10
900.0
 20
829.109991
 30
0.0
 11
900.717894
 21
834.562938
 31
0.0
  0
LINE
  5
34C
330
33D
100
AcDbEntity
  8
LC-009-003-----0
 62
     7
370
    25
100
AcDbLine
 10
903.263155
 20
1024.823869
 30
0.0
 11
900.0
 21
1049.609991
 31
0.0
  0
LINE
  5
34D
330
33D
100
AcDbEntity
  8
LC-009-003-----0
 62
     7
370
    25
100
AcDbLine
 10
900.0
 20
1049.609991
 30
0.0
 11
896.736845
 21
1024.823869
 31
0.0
  0
LINE
  5
34E
330
33D
100
AcDbEntity
  8
LC-009-003-----0
 62
     7
370
    25
100
AcDbLine
 10
896.736845
 20
1024.823869
 30
0.0
 11
903.263155
 21
1024.823869
 31
0.0
  0
LINE
  5
34F
330
33D
100
AcDbEntity
  8
LC-009-003-----0
 62
     7
370
    25
100
AcDbLine
 10
902.414735
 20
1024.768261
 30
0.0
 11
900.0
 21
1043.109991
 31
0.0
  0
LINE
  5
350
330
33D
100
AcDbEntity
  8
LC-009-003-----0
 62
     7
370
    25
100
AcDbLine
 10
900.0
 20
1043.109991
 30
0.0
 11
897.585265
 21
1024.768261
 31
0.0
  0
LINE
  5
351
330
33D
100
AcDbEntity
  8
LC-009-003-----0
 62
     7
370
    25
100
AcDbLine
 10
901.566314
 20
1024.712652
 30
0.0
 11
900.0
 21
1036.609991
 31
0.0
  0
LINE
  5
352
330
33D
100
AcDbEntity
  8
LC-009-003-----0
 62
     7
370
    25
100
AcDbLine
 10
900.0
 20
1036.609991
 30
0.0
 11
898.433686
 21
1024.712652
 31
0.0
  0
LINE
  5
353
330
33D
100
AcDbEntity
  8
LC-009-003-----0
 62
     7
370
    25
100
AcDbLine
 10
900.717894
 20
1024.657044
 30
0.0
 11
900.0
 21
1030.109991
 31
0.0
  0
LINE
  5
354
330
33D
100
AcDbEntity
  8
LC-009-003-----0
 62
     7
370
    25
100
AcDbLine
 10
900.0
 20
1030.109991
 30
0.0
 11
899.282106
 21
1024.657044
 31
0.0
  0
TEXT
  5
355
330
33D
100
AcDbEntity
  8
LC-009-003-----0
 62
     7
370
    25
100
AcDbText
 10
885.0
 20
905.419284
 30
0.0
 40
25.0
  1
480
 50
90.0
 41
0.7
  7
LCTX0-400-0-0pDIN-Schrift
 72
     1
 11
885.0
 21
930.419284
 31
0.0
100
AcDbText
  0
ENDBLK
  5
33F
330
33D
100
AcDbEntity
  8
0
100
AcDbBlockEnd
  0
BLOCK
  5
358
330
357
100
AcDbEntity
  8
0
100
AcDbBlockBegin
  2
LCDIM9
 70
     0
 71
     0
 10
0.0
 20
0.0
 30
0.0
  3
LCDIM9
  1

  4
LCDIM9
  0
TEXT
  5
35A
330
357
100
AcDbEntity
  8
LC-009-003-----0
 62
     7
370
    25
100
AcDbText
 10
446.462771
 20
861.553783
 30
0.0
 40
25.0
  1
R10
 50
34.473473
 41
0.7
  7
LCTX0-400-0-0pDIN-Schrift
100
AcDbText
  0
LINE
  5
35B
330
357
100
AcDbEntity
  8
LC-008-003-MTG-0
 62
     7
370
    25
100
AcDbLine
 10
481.677104
 20
867.536618
 30
0.0
 11
400.470007
 21
811.779868
 31
0.0
  0
LINE
  5
35C
330
357
100
AcDbEntity
  8
LC-009-003-----0
 62
     7
370
    25
100
AcDbLine
 10
419.056371
 20
828.499529
 30
0.0
 11
400.470007
 21
811.779868
 31
0.0
  0
LINE
  5
35D
330
357
100
AcDbEntity
  8
LC-009-003-----0
 62
     7
370
    25
100
AcDbLine
 10
400.470007
 20
811.779868
 30
0.0
 11
422.750423
 21
823.119316
 31
0.0
  0
LINE
  5
35E
330
357
100
AcDbEntity
  8
LC-009-003-----0
 62
     7
370
    25
100
AcDbLine
 10
422.750423
 20
823.119316
 30
0.0
 11
419.056371
 21
828.499529
 31
0.0
  0
LINE
  5
35F
330
357
100
AcDbEntity
  8
LC-009-003-----0
 62
     7
370
    25
100
AcDbLine
 10
419.582441
 20
827.831577
 30
0.0
 11
405.828531
 21
815.459028
 31
0.0
  0
LINE
  5
360
330
357
100
AcDbEntity
  8
LC-009-003-----0
 62
     7
370
    25
100
AcDbLine
 10
405.828531
 20
815.459028
 30
0.0
 11
422.316039
 21
823.850219
 31
0.0
  0
LINE
  5
361
330
357
100
AcDbEntity
  8
LC-009-003-----0
 62
     7
370
    25
100
AcDbLine
 10
420.10851
 20
827.163625
 30
0.0
 11
411.187056
 21
819.138188
 31
0.0
  0
LINE
  5
362
330
357
100
AcDbEntity
  8
LC-009-003-----0
 62
     7
370
    25
100
AcDbLine
 10
411.187056
 20
819.138188
 30
0.0
 11
421.881655
 21
824.581123
 31
0.0
  0
LINE
  5
363
330
357
100
AcDbEntity
  8
LC-009-003-----0
 62
     7
370
    25
100
AcDbLine
 10
420.63458
 20
826.495673
 30
0.0
 11
416.54558
 21
822.817348
 31
0.0
  0
LINE
  5
364
330
357
100
AcDbEntity
  8
LC-009-003-----0
 62
     7
370
    25
100
AcDbLine
 10
416.54558
 20
822.817348
 30
0.0
 11
421.447271
 21
825.312026
 31
0.0
  0
ENDBLK
  5
359
330
357
100
AcDbEntity
  8
0
100
AcDbBlockEnd
  0
BLOCK
  5
369
330
368
100
AcDbEntity
  8
0
100
AcDbBlockBegin
  2
LCDIM10
 70
     0
 71
     0
 10
0.0
 20
0.0
 30
0.0
  3
LCDIM10
  1

  4
LCDIM10
  0
LINE
  5
36B
330
368
100
AcDbEntity
  8
LC-007-003-MTH-0
 62
     7
370
    25
100
AcDbLine
 10
895.195399
 20
2006.06
 30
0.0
 11
835.0
 21
2006.06
 31
0.0
  0
LINE
  5
36C
330
368
100
AcDbEntity
  8
LC-007-003-MTH-0
 62
     7
370
    25
100
AcDbLine
 10
887.632017
 20
2073.06
 30
0.0
 11
835.0
 21
2073.06
 31
0.0
  0
LINE
  5
36D
330
368
100
AcDbEntity
  8
LC-009-003-----0
 62
     7
370
    25
100
AcDbLine
 10
853.263155
 20
1981.273878
 30
0.0
 11
850.0
 21
2006.06
 31
0.0
  0
LINE
  5
36E
330
368
100
AcDbEntity
  8
LC-009-003-----0
 62
     7
370
    25
100
AcDbLine
 10
850.0
 20
2006.06
 30
0.0
 11
846.736845
 21
1981.273878
 31
0.0
  0
LINE
  5
36F
330
368
100
AcDbEntity
  8
LC-009-003-----0
 62
     7
370
    25
100
AcDbLine
 10
846.736845
 20
1981.273878
 30
0.0
 11
853.263155
 21
1981.273878
 31
0.0
  0
LINE
  5
370
330
368
100
AcDbEntity
  8
LC-009-003-----0
 62
     7
370
    25
100
AcDbLine
 10
852.414735
 20
1981.21827
 30
0.0
 11
850.0
 21
1999.56
 31
0.0
  0
LINE
  5
371
330
368
100
AcDbEntity
  8
LC-009-003-----0
 62
     7
370
    25
100
AcDbLine
 10
850.0
 20
1999.56
 30
0.0
 11
847.585265
 21
1981.21827
 31
0.0
  0
LINE
  5
372
330
368
100
AcDbEntity
  8
LC-009-003-----0
 62
     7
370
    25
100
AcDbLine
 10
851.566314
 20
1981.162661
 30
0.0
 11
850.0
 21
1993.06
 31
0.0
  0
LINE
  5
373
330
368
100
AcDbEntity
  8
LC-009-003-----0
 62
     7
370
    25
100
AcDbLine
 10
850.0
 20
1993.06
 30
0.0
 11
848.433686
 21
1981.162661
 31
0.0
  0
LINE
  5
374
330
368
100
AcDbEntity
  8
LC-009-003-----0
 62
     7
370
    25
100
AcDbLine
 10
850.717894
 20
1981.107053
 30
0.0
 11
850.0
 21
1986.56
 31
0.0
  0
LINE
  5
375
330
368
100
AcDbEntity
  8
LC-009-003-----0
 62
     7
370
    25
100
AcDbLine
 10
850.0
 20
1986.56
 30
0.0
 11
849.282106
 21
1981.107053
 31
0.0
  0
LINE
  5
376
330
368
100
AcDbEntity
  8
LC-009-003-----0
 62
     7
370
    25
100
AcDbLine
 10
846.736845
 20
2097.846122
 30
0.0
 11
850.0
 21
2073.06
 31
0.0
  0
LINE
  5
377
330
368
100
AcDbEntity
  8
LC-009-003-----0
 62
     7
370
    25
100
AcDbLine
 10
850.0
 20
2073.06
 30
0.0
 11
853.263155
 21
2097.846122
 31
0.0
  0
LINE
  5
378
330
368
100
AcDbEntity
  8
LC-009-003-----0
 62
     7
370
    25
100
AcDbLine
 10
853.263155
 20
2097.846122
 30
0.0
 11
846.736845
 21
2097.846122
 31
0.0
  0
LINE
  5
379
330
368
100
AcDbEntity
  8
LC-009-003-----0
 62
     7
370
    25
100
AcDbLine
 10
847.585265
 20
2097.90173
 30
0.0
 11
850.0
 21
2079.56
 31
0.0
  0
LINE
  5
37A
330
368
100
AcDbEntity
  8
LC-009-003-----0
 62
     7
370
    25
100
AcDbLine
 10
850.0
 20
2079.56
 30
0.0
 11
852.414735
 21
2097.90173
 31
0.0
  0
LINE
  5
37B
330
368
100
AcDbEntity
  8
LC-009-003-----0
 62
     7
370
    25
100
AcDbLine
 10
848.433686
 20
2097.957339
 30
0.0
 11
850.0
 21
2086.06
 31
0.0
  0
LINE
  5
37C
330
368
100
AcDbEntity
  8
LC-009-003-----0
 62
     7
370
    25
100
AcDbLine
 10
850.0
 20
2086.06
 30
0.0
 11
851.566314
 21
2097.957339
 31
0.0
  0
LINE
  5
37D
330
368
100
AcDbEntity
  8
LC-009-003-----0
 62
     7
370
    25
100
AcDbLine
 10
849.282106
 20
2098.012947
 30
0.0
 11
850.0
 21
2092.56
 31
0.0
  0
LINE
  5
37E
330
368
100
AcDbEntity
  8
LC-009-003-----0
 62
     7
370
    25
100
AcDbLine
 10
850.0
 20
2092.56
 30
0.0
 11
850.717894
 21
2098.012947
 31
0.0
  0
LINE
  5
37F
330
368
100
AcDbEntity
  8
LC-008-003-MTG-0
 62
     7
370
    25
100
AcDbLine
 10
850.0
 20
1971.059999
 30
0.0
 11
850.0
 21
2153.774339
 31
0.0
  0
TEXT
  5
380
330
368
100
AcDbEntity
  8
LC-009-003-----0
 62
     7
370
    25
100
AcDbText
 10
835.0
 20
2137.570523
 30
0.0
 40
25.0
  1
67
 50
90.0
 41
0.7
  7
LCTX0-400-0-0pDIN-Schrift
100
AcDbText
  0
ENDBLK
  5
36A
330
368
100
AcDbEntity
  8
0
100
AcDbBlockEnd
  0
BLOCK
  5
383
330
382
100
AcDbEntity
  8
0
100
AcDbBlockBegin
  2
*X213
 70
     1
 71
     0
 10
0.0
 20
0.0
 30
0.0
  3
*X213
  1

  4
*X2
  0
LINE
  5
385
330
382
100
AcDbEntity
  8
LC-010-005-----0
 62
     7
370
    25
100
AcDbLine
 10
459.961114
 20
2637.85
 30
0.0
 11
470.695399
 21
2648.584285
 31
0.0
  0
LINE
  5
386
330
382
100
AcDbEntity
  8
LC-010-005-----0
 62
     7
370
    25
100
AcDbLine
 10
431.676843
 20
2637.85
 30
0.0
 11
469.676843
 21
2675.85
 31
0.0
  0
LINE
  5
387
330
382
100
AcDbEntity
  8
LC-010-005-----0
 62
     7
370
    25
100
AcDbLine
 10
403.392571
 20
2637.85
 30
0.0
 11
441.392571
 21
2675.85
 31
0.0
  0
LINE
  5
388
330
382
100
AcDbEntity
  8
LC-010-005-----0
 62
     7
370
    25
100
AcDbLine
 10
377.811714
 20
2640.553414
 30
0.0
 11
413.1083
 21
2675.85
 31
0.0
  0
LINE
  5
389
330
382
100
AcDbEntity
  8
LC-010-005-----0
 62
     7
370
    25
100
AcDbLine
 10
377.113753
 20
2668.139724
 30
0.0
 11
384.824029
 21
2675.85
 31
0.0
  0
ENDBLK
  5
384
330
382
100
AcDbEntity
  8
0
100
AcDbBlockEnd
  0
BLOCK
  5
3D9
330
3D8
100
AcDbEntity
  8
0
100
AcDbBlockBegin
  2
POLY1
 70
     0
 71
     0
 10
0.0
 20
0.0
 30
0.0
  3
POLY1
  1

  4
POLY1
  0
LINE
  5
3DB
330
3D8
100
AcDbEntity
  8
LC-002-002-----0
 62
     7
370
    25
100
AcDbLine
 10
993.062611
 20
2436.24395
 30
0.0
 11
993.062611
 21
2436.24395
 31
0.0
  0
LINE
  5
3DC
330
3D8
100
AcDbEntity
  8
LC-002-002-----0
 62
     7
370
    25
100
AcDbLine
 10
993.062611
 20
2436.24395
 30
0.0
 11
993.382406
 21
2438.597213
 31
0.0
  0
LINE
  5
3DD
330
3D8
100
AcDbEntity
  8
LC-002-002-----0
 62
     7
370
    25
100
AcDbLine
 10
993.382406
 20
2438.597213
 30
0.0
 11
993.382406
 21
2438.597213
 31
0.0
  0
LINE
  5
3DE
330
3D8
100
AcDbEntity
  8
LC-002-002-----0
 62
     7
370
    25
100
AcDbLine
 10
993.382406
 20
2438.597213
 30
0.0
 11
993.588689
 21
2441.0756
 31
0.0
  0
LINE
  5
3DF
330
3D8
100
AcDbEntity
  8
LC-002-002-----0
 62
     7
370
    25
100
AcDbLine
 10
993.588689
 20
2441.0756
 30
0.0
 11
993.588689
 21
2441.0756
 31
0.0
  0
LINE
  5
3E0
330
3D8
100
AcDbEntity
  8
LC-002-002-----0
 62
     7
370
    25
100
AcDbLine
 10
993.588689
 20
2441.0756
 30
0.0
 11
993.659413
 21
2443.6
 31
0.0
  0
ENDBLK
  5
3DA
330
3D8
100
AcDbEntity
  8
0
100
AcDbBlockEnd
  0
BLOCK
  5
3E3
330
3E2
100
AcDbEntity
  8
0
100
AcDbBlockBegin
  2
POLY2
 70
     0
 71
     0
 10
0.0
 20
0.0
 30
0.0
  3
POLY2
  1

  4
POLY2
  0
LINE
  5
3E5
330
3E2
100
AcDbEntity
  8
LC-002-002-----0
 62
     7
370
    25
100
AcDbLine
 10
994.994169
 20
2431.047809
 30
0.0
 11
994.994169
 21
2431.047809
 31
0.0
  0
LINE
  5
3E6
330
3E2
100
AcDbEntity
  8
LC-002-002-----0
 62
     7
370
    25
100
AcDbLine
 10
994.994169
 20
2431.047809
 30
0.0
 11
995.532349
 21
2430.681396
 31
0.0
  0
LINE
  5
3E7
330
3E2
100
AcDbEntity
  8
LC-002-002-----0
 62
     7
370
    25
100
AcDbLine
 10
995.532349
 20
2430.681396
 30
0.0
 11
995.532349
 21
2430.681396
 31
0.0
  0
LINE
  5
3E8
330
3E2
100
AcDbEntity
  8
LC-002-002-----0
 62
     7
370
    25
100
AcDbLine
 10
995.532349
 20
2430.681396
 30
0.0
 11
996.022326
 21
2430.344309
 31
0.0
  0
LINE
  5
3E9
330
3E2
100
AcDbEntity
  8
LC-002-002-----0
 62
     7
370
    25
100
AcDbLine
 10
996.022326
 20
2430.344309
 30
0.0
 11
996.022326
 21
2430.344309
 31
0.0
  0
LINE
  5
3EA
330
3E2
100
AcDbEntity
  8
LC-002-002-----0
 62
     7
370
    25
100
AcDbLine
 10
996.022326
 20
2430.344309
 30
0.0
 11
996.463949
 21
2430.037425
 31
0.0
  0
ENDBLK
  5
3E4
330
3E2
100
AcDbEntity
  8
0
100
AcDbBlockEnd
  0
BLOCK
  5
3ED
330
3EC
100
AcDbEntity
  8
0
100
AcDbBlockBegin
  2
POLY3
 70
     0
 71
     0
 10
0.0
 20
0.0
 30
0.0
  3
POLY3
  1

  4
POLY3
  0
LINE
  5
3EF
330
3EC
100
AcDbEntity
  8
LC-002-002-----0
 62
     7
370
    25
100
AcDbLine
 10
993.062611
 20
2436.24395
 30
0.0
 11
993.062611
 21
2436.24395
 31
0.0
  0
LINE
  5
3F0
330
3EC
100
AcDbEntity
  8
LC-002-002-----0
 62
     7
370
    25
100
AcDbLine
 10
993.062611
 20
2436.24395
 30
0.0
 11
992.982572
 21
2434.948803
 31
0.0
  0
LINE
  5
3F1
330
3EC
100
AcDbEntity
  8
LC-002-002-----0
 62
     7
370
    25
100
AcDbLine
 10
992.982572
 20
2434.948803
 30
0.0
 11
992.982572
 21
2434.948803
 31
0.0
  0
LINE
  5
3F2
330
3EC
100
AcDbEntity
  8
LC-002-002-----0
 62
     7
370
    25
100
AcDbLine
 10
992.982572
 20
2434.948803
 30
0.0
 11
993.153637
 21
2433.752562
 31
0.0
  0
LINE
  5
3F3
330
3EC
100
AcDbEntity
  8
LC-002-002-----0
 62
     7
370
    25
100
AcDbLine
 10
993.153637
 20
2433.752562
 30
0.0
 11
993.153637
 21
2433.752562
 31
0.0
  0
LINE
  5
3F4
330
3EC
100
AcDbEntity
  8
LC-002-002-----0
 62
     7
370
    25
100
AcDbLine
 10
993.153637
 20
2433.752562
 30
0.0
 11
993.551643
 21
2432.691499
 31
0.0
  0
LINE
  5
3F5
330
3EC
100
AcDbEntity
  8
LC-002-002-----0
 62
     7
370
    25
100
AcDbLine
 10
993.551643
 20
2432.691499
 30
0.0
 11
993.551643
 21
2432.691499
 31
0.0
  0
LINE
  5
3F6
330
3EC
100
AcDbEntity
  8
LC-002-002-----0
 62
     7
370
    25
100
AcDbLine
 10
993.551643
 20
2432.691499
 30
0.0
 11
994.16304
 21
2431.783974
 31
0.0
  0
LINE
  5
3F7
330
3EC
100
AcDbEntity
  8
LC-002-002-----0
 62
     7
370
    25
100
AcDbLine
 10
994.16304
 20
2431.783974
 30
0.0
 11
994.16304
 21
2431.783974
 31
0.0
  0
LINE
  5
3F8
330
3EC
100
AcDbEntity
  8
LC-002-002-----0
 62
     7
370
    25
100
AcDbLine
 10
994.16304
 20
2431.783974
 30
0.0
 11
994.994169
 21
2431.047809
 31
0.0
  0
ENDBLK
  5
3EE
330
3EC
100
AcDbEntity
  8
0
100
AcDbBlockEnd
  0
BLOCK
  5
3FB
330
3FA
100
AcDbEntity
  8
0
100
AcDbBlockBegin
  2
POLY4
 70
     0
 71
     0
 10
0.0
 20
0.0
 30
0.0
  3
POLY4
  1

  4
POLY4
  0
LINE
  5
3FD
330
3FA
100
AcDbEntity
  8
LC-002-002-----0
 62
     7
370
    25
100
AcDbLine
 10
996.464978
 20
2430.036685
 30
0.0
 11
996.464978
 21
2430.036685
 31
0.0
  0
LINE
  5
3FE
330
3FA
100
AcDbEntity
  8
LC-002-002-----0
 62
     7
370
    25
100
AcDbLine
 10
996.464978
 20
2430.036685
 30
0.0
 11
996.937205
 21
2429.629951
 31
0.0
  0
LINE
  5
3FF
330
3FA
100
AcDbEntity
  8
LC-002-002-----0
 62
     7
370
    25
100
AcDbLine
 10
996.937205
 20
2429.629951
 30
0.0
 11
996.937205
 21
2429.629951
 31
0.0
  0
LINE
  5
400
330
3FA
100
AcDbEntity
  8
LC-002-002-----0
 62
     7
370
    25
100
AcDbLine
 10
996.937205
 20
2429.629951
 30
0.0
 11
997.262856
 21
2429.213763
 31
0.0
  0
LINE
  5
401
330
3FA
100
AcDbEntity
  8
LC-002-002-----0
 62
     7
370
    25
100
AcDbLine
 10
997.262856
 20
2429.213763
 30
0.0
 11
997.262856
 21
2429.213763
 31
0.0
  0
LINE
  5
402
330
3FA
100
AcDbEntity
  8
LC-002-002-----0
 62
     7
370
    25
100
AcDbLine
 10
997.262856
 20
2429.213763
 30
0.0
 11
997.459886
 21
2428.85191
 31
0.0
  0
LINE
  5
403
330
3FA
100
AcDbEntity
  8
LC-002-002-----0
 62
     7
370
    25
100
AcDbLine
 10
997.459886
 20
2428.85191
 30
0.0
 11
997.459886
 21
2428.85191
 31
0.0
  0
LINE
  5
404
330
3FA
100
AcDbEntity
  8
LC-002-002-----0
 62
     7
370
    25
100
AcDbLine
 10
997.459886
 20
2428.85191
 30
0.0
 11
997.561413
 21
2428.597079
 31
0.0
  0
LINE
  5
405
330
3FA
100
AcDbEntity
  8
LC-002-002-----0
 62
     7
370
    25
100
AcDbLine
 10
997.561413
 20
2428.597079
 30
0.0
 11
997.561413
 21
2428.597079
 31
0.0
  0
LINE
  5
406
330
3FA
100
AcDbEntity
  8
LC-002-002-----0
 62
     7
370
    25
100
AcDbLine
 10
997.561413
 20
2428.597079
 30
0.0
 11
997.592694
 21
2428.500157
 31
0.0
  0
ENDBLK
  5
3FC
330
3FA
100
AcDbEntity
  8
0
100
AcDbBlockEnd
  0
BLOCK
  5
409
330
408
100
AcDbEntity
  8
0
100
AcDbBlockBegin
  2
POLY5
 70
     0
 71
     0
 10
0.0
 20
0.0
 30
0.0
  3
POLY5
  1

  4
POLY5
  0
LINE
  5
40B
330
408
100
AcDbEntity
  8
LC-002-002-----0
 62
     7
370
    25
100
AcDbLine
 10
925.964476
 20
2615.425205
 30
0.0
 11
925.964476
 21
2615.425205
 31
0.0
  0
LINE
  5
40C
330
408
100
AcDbEntity
  8
LC-002-002-----0
 62
     7
370
    25
100
AcDbLine
 10
925.964476
 20
2615.425205
 30
0.0
 11
926.00564
 21
2615.210271
 31
0.0
  0
LINE
  5
40D
330
408
100
AcDbEntity
  8
LC-002-002-----0
 62
     7
370
    25
100
AcDbLine
 10
926.00564
 20
2615.210271
 30
0.0
 11
926.00564
 21
2615.210271
 31
0.0
  0
LINE
  5
40E
330
408
100
AcDbEntity
  8
LC-002-002-----0
 62
     7
370
    25
100
AcDbLine
 10
926.00564
 20
2615.210271
 30
0.0
 11
926.078708
 21
2614.995309
 31
0.0
  0
LINE
  5
40F
330
408
100
AcDbEntity
  8
LC-002-002-----0
 62
     7
370
    25
100
AcDbLine
 10
926.078708
 20
2614.995309
 30
0.0
 11
926.078708
 21
2614.995309
 31
0.0
  0
LINE
  5
410
330
408
100
AcDbEntity
  8
LC-002-002-----0
 62
     7
370
    25
100
AcDbLine
 10
926.078708
 20
2614.995309
 30
0.0
 11
926.175249
 21
2614.789801
 31
0.0
  0
LINE
  5
411
330
408
100
AcDbEntity
  8
LC-002-002-----0
 62
     7
370
    25
100
AcDbLine
 10
926.175249
 20
2614.789801
 30
0.0
 11
926.175249
 21
2614.789801
 31
0.0
  0
LINE
  5
412
330
408
100
AcDbEntity
  8
LC-002-002-----0
 62
     7
370
    25
100
AcDbLine
 10
926.175249
 20
2614.789801
 30
0.0
 11
926.289835
 21
2614.595701
 31
0.0
  0
LINE
  5
413
330
408
100
AcDbEntity
  8
LC-002-002-----0
 62
     7
370
    25
100
AcDbLine
 10
926.289835
 20
2614.595701
 30
0.0
 11
926.289835
 21
2614.595701
 31
0.0
  0
LINE
  5
414
330
408
100
AcDbEntity
  8
LC-002-002-----0
 62
     7
370
    25
100
AcDbLine
 10
926.289835
 20
2614.595701
 30
0.0
 11
926.416143
 21
2614.415999
 31
0.0
  0
LINE
  5
415
330
408
100
AcDbEntity
  8
LC-002-002-----0
 62
     7
370
    25
100
AcDbLine
 10
926.416143
 20
2614.415999
 30
0.0
 11
926.416143
 21
2614.415999
 31
0.0
  0
LINE
  5
416
330
408
100
AcDbEntity
  8
LC-002-002-----0
 62
     7
370
    25
100
AcDbLine
 10
926.416143
 20
2614.415999
 30
0.0
 11
926.551891
 21
2614.249823
 31
0.0
  0
LINE
  5
417
330
408
100
AcDbEntity
  8
LC-002-002-----0
 62
     7
370
    25
100
AcDbLine
 10
926.551891
 20
2614.249823
 30
0.0
 11
926.551891
 21
2614.249823
 31
0.0
  0
LINE
  5
418
330
408
100
AcDbEntity
  8
LC-002-002-----0
 62
     7
370
    25
100
AcDbLine
 10
926.551891
 20
2614.249823
 30
0.0
 11
926.695734
 21
2614.09764
 31
0.0
  0
LINE
  5
419
330
408
100
AcDbEntity
  8
LC-002-002-----0
 62
     7
370
    25
100
AcDbLine
 10
926.695734
 20
2614.09764
 30
0.0
 11
926.695734
 21
2614.09764
 31
0.0
  0
LINE
  5
41A
330
408
100
AcDbEntity
  8
LC-002-002-----0
 62
     7
370
    25
100
AcDbLine
 10
926.695734
 20
2614.09764
 30
0.0
 11
926.845451
 21
2613.961054
 31
0.0
  0
LINE
  5
41B
330
408
100
AcDbEntity
  8
LC-002-002-----0
 62
     7
370
    25
100
AcDbLine
 10
926.845451
 20
2613.961054
 30
0.0
 11
926.845451
 21
2613.961054
 31
0.0
  0
LINE
  5
41C
330
408
100
AcDbEntity
  8
LC-002-002-----0
 62
     7
370
    25
100
AcDbLine
 10
926.845451
 20
2613.961054
 30
0.0
 11
926.99744
 21
2613.842173
 31
0.0
  0
LINE
  5
41D
330
408
100
AcDbEntity
  8
LC-002-002-----0
 62
     7
370
    25
100
AcDbLine
 10
926.99744
 20
2613.842173
 30
0.0
 11
926.99744
 21
2613.842173
 31
0.0
  0
LINE
  5
41E
330
408
100
AcDbEntity
  8
LC-002-002-----0
 62
     7
370
    25
100
AcDbLine
 10
926.99744
 20
2613.842173
 30
0.0
 11
927.146795
 21
2613.742959
 31
0.0
  0
ENDBLK
  5
40A
330
408
100
AcDbEntity
  8
0
100
AcDbBlockEnd
  0
BLOCK
  5
421
330
420
100
AcDbEntity
  8
0
100
AcDbBlockBegin
  2
POLY6
 70
     0
 71
     0
 10
0.0
 20
0.0
 30
0.0
  3
POLY6
  1

  4
POLY6
  0
LINE
  5
423
330
420
100
AcDbEntity
  8
LC-002-002-----0
 62
     7
370
    25
100
AcDbLine
 10
927.68462
 20
2613.409284
 30
0.0
 11
927.68462
 21
2613.409284
 31
0.0
  0
LINE
  5
424
330
420
100
AcDbEntity
  8
LC-002-002-----0
 62
     7
370
    25
100
AcDbLine
 10
927.68462
 20
2613.409284
 30
0.0
 11
927.625168
 21
2613.446906
 31
0.0
  0
LINE
  5
425
330
420
100
AcDbEntity
  8
LC-002-002-----0
 62
     7
370
    25
100
AcDbLine
 10
927.625168
 20
2613.446906
 30
0.0
 11
927.625168
 21
2613.446906
 31
0.0
  0
LINE
  5
426
330
420
100
AcDbEntity
  8
LC-002-002-----0
 62
     7
370
    25
100
AcDbLine
 10
927.625168
 20
2613.446906
 30
0.0
 11
927.446025
 21
2613.558814
 31
0.0
  0
LINE
  5
427
330
420
100
AcDbEntity
  8
LC-002-002-----0
 62
     7
370
    25
100
AcDbLine
 10
927.446025
 20
2613.558814
 30
0.0
 11
927.446025
 21
2613.558814
 31
0.0
  0
LINE
  5
428
330
420
100
AcDbEntity
  8
LC-002-002-----0
 62
     7
370
    25
100
AcDbLine
 10
927.446025
 20
2613.558814
 30
0.0
 11
927.146795
 21
2613.742959
 31
0.0
  0
ENDBLK
  5
422
330
420
100
AcDbEntity
  8
0
100
AcDbBlockEnd
  0
BLOCK
  5
42B
330
42A
100
AcDbEntity
  8
0
100
AcDbBlockBegin
  2
POLY7
 70
     0
 71
     0
 10
0.0
 20
0.0
 30
0.0
  3
POLY7
  1

  4
POLY7
  0
LINE
  5
42D
330
42A
100
AcDbEntity
  8
LC-002-002-----0
 62
     7
370
    25
100
AcDbLine
 10
910.205809
 20
2608.070878
 30
0.0
 11
910.205809
 21
2608.070878
 31
0.0
  0
LINE
  5
42E
330
42A
100
AcDbEntity
  8
LC-002-002-----0
 62
     7
370
    25
100
AcDbLine
 10
910.205809
 20
2608.070878
 30
0.0
 11
910.188915
 21
2607.946078
 31
0.0
  0
LINE
  5
42F
330
42A
100
AcDbEntity
  8
LC-002-002-----0
 62
     7
370
    25
100
AcDbLine
 10
910.188915
 20
2607.946078
 30
0.0
 11
910.188915
 21
2607.946078
 31
0.0
  0
LINE
  5
430
330
42A
100
AcDbEntity
  8
LC-002-002-----0
 62
     7
370
    25
100
AcDbLine
 10
910.188915
 20
2607.946078
 30
0.0
 11
910.184613
 21
2607.887071
 31
0.0
  0
LINE
  5
431
330
42A
100
AcDbEntity
  8
LC-002-002-----0
 62
     7
370
    25
100
AcDbLine
 10
910.184613
 20
2607.887071
 30
0.0
 11
910.184613
 21
2607.887071
 31
0.0
  0
LINE
  5
432
330
42A
100
AcDbEntity
  8
LC-002-002-----0
 62
     7
370
    25
100
AcDbLine
 10
910.184613
 20
2607.887071
 30
0.0
 11
910.182641
 21
2607.827942
 31
0.0
  0
LINE
  5
433
330
42A
100
AcDbEntity
  8
LC-002-002-----0
 62
     7
370
    25
100
AcDbLine
 10
910.182641
 20
2607.827942
 30
0.0
 11
910.182641
 21
2607.827942
 31
0.0
  0
LINE
  5
434
330
42A
100
AcDbEntity
  8
LC-002-002-----0
 62
     7
370
    25
100
AcDbLine
 10
910.182641
 20
2607.827942
 30
0.0
 11
910.183003
 21
2607.76878
 31
0.0
  0
LINE
  5
435
330
42A
100
AcDbEntity
  8
LC-002-002-----0
 62
     7
370
    25
100
AcDbLine
 10
910.183003
 20
2607.76878
 30
0.0
 11
910.183003
 21
2607.76878
 31
0.0
  0
LINE
  5
436
330
42A
100
AcDbEntity
  8
LC-002-002-----0
 62
     7
370
    25
100
AcDbLine
 10
910.183003
 20
2607.76878
 30
0.0
 11
910.185697
 21
2607.709678
 31
0.0
  0
LINE
  5
437
330
42A
100
AcDbEntity
  8
LC-002-002-----0
 62
     7
370
    25
100
AcDbLine
 10
910.185697
 20
2607.709678
 30
0.0
 11
910.185697
 21
2607.709678
 31
0.0
  0
LINE
  5
438
330
42A
100
AcDbEntity
  8
LC-002-002-----0
 62
     7
370
    25
100
AcDbLine
 10
910.185697
 20
2607.709678
 30
0.0
 11
910.19072
 21
2607.650729
 31
0.0
  0
LINE
  5
439
330
42A
100
AcDbEntity
  8
LC-002-002-----0
 62
     7
370
    25
100
AcDbLine
 10
910.19072
 20
2607.650729
 30
0.0
 11
910.19072
 21
2607.650729
 31
0.0
  0
LINE
  5
43A
330
42A
100
AcDbEntity
  8
LC-002-002-----0
 62
     7
370
    25
100
AcDbLine
 10
910.19072
 20
2607.650729
 30
0.0
 11
910.244313
 21
2607.381724
 31
0.0
  0
ENDBLK
  5
42C
330
42A
100
AcDbEntity
  8
0
100
AcDbBlockEnd
  0
BLOCK
  5
43D
330
43C
100
AcDbEntity
  8
0
100
AcDbBlockBegin
  2
POLY8
 70
     0
 71
     0
 10
0.0
 20
0.0
 30
0.0
  3
POLY8
  1

  4
POLY8
  0
LINE
  5
43F
330
43C
100
AcDbEntity
  8
LC-002-002-----0
 62
     7
370
    25
100
AcDbLine
 10
918.897203
 20
2463.572543
 30
0.0
 11
918.897203
 21
2463.572543
 31
0.0
  0
LINE
  5
440
330
43C
100
AcDbEntity
  8
LC-002-002-----0
 62
     7
370
    25
100
AcDbLine
 10
918.897203
 20
2463.572543
 30
0.0
 11
919.042186
 21
2463.57258
 31
0.0
  0
LINE
  5
441
330
43C
100
AcDbEntity
  8
LC-002-002-----0
 62
     7
370
    25
100
AcDbLine
 10
919.042186
 20
2463.57258
 30
0.0
 11
919.042186
 21
2463.57258
 31
0.0
  0
LINE
  5
442
330
43C
100
AcDbEntity
  8
LC-002-002-----0
 62
     7
370
    25
100
AcDbLine
 10
919.042186
 20
2463.57258
 30
0.0
 11
919.466827
 21
2463.57302
 31
0.0
  0
LINE
  5
443
330
43C
100
AcDbEntity
  8
LC-002-002-----0
 62
     7
370
    25
100
AcDbLine
 10
919.466827
 20
2463.57302
 30
0.0
 11
919.466827
 21
2463.57302
 31
0.0
  0
LINE
  5
444
330
43C
100
AcDbEntity
  8
LC-002-002-----0
 62
     7
370
    25
100
AcDbLine
 10
919.466827
 20
2463.57302
 30
0.0
 11
920.171175
 21
2463.572592
 31
0.0
  0
LINE
  5
445
330
43C
100
AcDbEntity
  8
LC-002-002-----0
 62
     7
370
    25
100
AcDbLine
 10
920.171175
 20
2463.572592
 30
0.0
 11
920.171175
 21
2463.572592
 31
0.0
  0
LINE
  5
446
330
43C
100
AcDbEntity
  8
LC-002-002-----0
 62
     7
370
    25
100
AcDbLine
 10
920.171175
 20
2463.572592
 30
0.0
 11
921.169585
 21
2463.572453
 31
0.0
  0
LINE
  5
447
330
43C
100
AcDbEntity
  8
LC-002-002-----0
 62
     7
370
    25
100
AcDbLine
 10
921.169585
 20
2463.572453
 30
0.0
 11
921.169585
 21
2463.572453
 31
0.0
  0
LINE
  5
448
330
43C
100
AcDbEntity
  8
LC-002-002-----0
 62
     7
370
    25
100
AcDbLine
 10
921.169585
 20
2463.572453
 30
0.0
 11
922.514681
 21
2463.572496
 31
0.0
  0
LINE
  5
449
330
43C
100
AcDbEntity
  8
LC-002-002-----0
 62
     7
370
    25
100
AcDbLine
 10
922.514681
 20
2463.572496
 30
0.0
 11
922.514681
 21
2463.572496
 31
0.0
  0
LINE
  5
44A
330
43C
100
AcDbEntity
  8
LC-002-002-----0
 62
     7
370
    25
100
AcDbLine
 10
922.514681
 20
2463.572496
 30
0.0
 11
924.206534
 21
2463.572513
 31
0.0
  0
LINE
  5
44B
330
43C
100
AcDbEntity
  8
LC-002-002-----0
 62
     7
370
    25
100
AcDbLine
 10
924.206534
 20
2463.572513
 30
0.0
 11
924.206534
 21
2463.572513
 31
0.0
  0
LINE
  5
44C
330
43C
100
AcDbEntity
  8
LC-002-002-----0
 62
     7
370
    25
100
AcDbLine
 10
924.206534
 20
2463.572513
 30
0.0
 11
926.209839
 21
2463.572816
 31
0.0
  0
LINE
  5
44D
330
43C
100
AcDbEntity
  8
LC-002-002-----0
 62
     7
370
    25
100
AcDbLine
 10
926.209839
 20
2463.572816
 30
0.0
 11
926.209839
 21
2463.572816
 31
0.0
  0
LINE
  5
44E
330
43C
100
AcDbEntity
  8
LC-002-002-----0
 62
     7
370
    25
100
AcDbLine
 10
926.209839
 20
2463.572816
 30
0.0
 11
928.468276
 21
2463.572665
 31
0.0
  0
LINE
  5
44F
330
43C
100
AcDbEntity
  8
LC-002-002-----0
 62
     7
370
    25
100
AcDbLine
 10
928.468276
 20
2463.572665
 30
0.0
 11
928.468276
 21
2463.572665
 31
0.0
  0
LINE
  5
450
330
43C
100
AcDbEntity
  8
LC-002-002-----0
 62
     7
370
    25
100
AcDbLine
 10
928.468276
 20
2463.572665
 30
0.0
 11
930.891206
 21
2463.572629
 31
0.0
  0
LINE
  5
451
330
43C
100
AcDbEntity
  8
LC-002-002-----0
 62
     7
370
    25
100
AcDbLine
 10
930.891206
 20
2463.572629
 30
0.0
 11
930.891206
 21
2463.572629
 31
0.0
  0
LINE
  5
452
330
43C
100
AcDbEntity
  8
LC-002-002-----0
 62
     7
370
    25
100
AcDbLine
 10
930.891206
 20
2463.572629
 30
0.0
 11
933.3734
 21
2463.572631
 31
0.0
  0
LINE
  5
453
330
43C
100
AcDbEntity
  8
LC-002-002-----0
 62
     7
370
    25
100
AcDbLine
 10
933.3734
 20
2463.572631
 30
0.0
 11
933.3734
 21
2463.572631
 31
0.0
  0
LINE
  5
454
330
43C
100
AcDbEntity
  8
LC-002-002-----0
 62
     7
370
    25
100
AcDbLine
 10
933.3734
 20
2463.572631
 30
0.0
 11
935.785744
 21
2463.572681
 31
0.0
  0
LINE
  5
455
330
43C
100
AcDbEntity
  8
LC-002-002-----0
 62
     7
370
    25
100
AcDbLine
 10
935.785744
 20
2463.572681
 30
0.0
 11
935.785744
 21
2463.572681
 31
0.0
  0
LINE
  5
456
330
43C
100
AcDbEntity
  8
LC-002-002-----0
 62
     7
370
    25
100
AcDbLine
 10
935.785744
 20
2463.572681
 30
0.0
 11
938.024813
 21
2463.572818
 31
0.0
  0
LINE
  5
457
330
43C
100
AcDbEntity
  8
LC-002-002-----0
 62
     7
370
    25
100
AcDbLine
 10
938.024813
 20
2463.572818
 30
0.0
 11
938.024813
 21
2463.572818
 31
0.0
  0
LINE
  5
458
330
43C
100
AcDbEntity
  8
LC-002-002-----0
 62
     7
370
    25
100
AcDbLine
 10
938.024813
 20
2463.572818
 30
0.0
 11
940.006656
 21
2463.572519
 31
0.0
  0
LINE
  5
459
330
43C
100
AcDbEntity
  8
LC-002-002-----0
 62
     7
370
    25
100
AcDbLine
 10
940.006656
 20
2463.572519
 30
0.0
 11
940.006656
 21
2463.572519
 31
0.0
  0
LINE
  5
45A
330
43C
100
AcDbEntity
  8
LC-002-002-----0
 62
     7
370
    25
100
AcDbLine
 10
940.006656
 20
2463.572519
 30
0.0
 11
941.680948
 21
2463.572505
 31
0.0
  0
LINE
  5
45B
330
43C
100
AcDbEntity
  8
LC-002-002-----0
 62
     7
370
    25
100
AcDbLine
 10
941.680948
 20
2463.572505
 30
0.0
 11
941.680948
 21
2463.572505
 31
0.0
  0
LINE
  5
45C
330
43C
100
AcDbEntity
  8
LC-002-002-----0
 62
     7
370
    25
100
AcDbLine
 10
941.680948
 20
2463.572505
 30
0.0
 11
943.0161
 21
2463.572451
 31
0.0
  0
LINE
  5
45D
330
43C
100
AcDbEntity
  8
LC-002-002-----0
 62
     7
370
    25
100
AcDbLine
 10
943.0161
 20
2463.572451
 30
0.0
 11
943.0161
 21
2463.572451
 31
0.0
  0
LINE
  5
45E
330
43C
100
AcDbEntity
  8
LC-002-002-----0
 62
     7
370
    25
100
AcDbLine
 10
943.0161
 20
2463.572451
 30
0.0
 11
944.012034
 21
2463.572582
 31
0.0
  0
LINE
  5
45F
330
43C
100
AcDbEntity
  8
LC-002-002-----0
 62
     7
370
    25
100
AcDbLine
 10
944.012034
 20
2463.572582
 30
0.0
 11
944.012034
 21
2463.572582
 31
0.0
  0
LINE
  5
460
330
43C
100
AcDbEntity
  8
LC-002-002-----0
 62
     7
370
    25
100
AcDbLine
 10
944.012034
 20
2463.572582
 30
0.0
 11
944.71813
 21
2463.57299
 31
0.0
  0
LINE
  5
461
330
43C
100
AcDbEntity
  8
LC-002-002-----0
 62
     7
370
    25
100
AcDbLine
 10
944.71813
 20
2463.57299
 30
0.0
 11
944.71813
 21
2463.57299
 31
0.0
  0
LINE
  5
462
330
43C
100
AcDbEntity
  8
LC-002-002-----0
 62
     7
370
    25
100
AcDbLine
 10
944.71813
 20
2463.57299
 30
0.0
 11
945.145779
 21
2463.572551
 31
0.0
  0
LINE
  5
463
330
43C
100
AcDbEntity
  8
LC-002-002-----0
 62
     7
370
    25
100
AcDbLine
 10
945.145779
 20
2463.572551
 30
0.0
 11
945.145779
 21
2463.572551
 31
0.0
  0
LINE
  5
464
330
43C
100
AcDbEntity
  8
LC-002-002-----0
 62
     7
370
    25
100
AcDbLine
 10
945.145779
 20
2463.572551
 30
0.0
 11
945.292283
 21
2463.572512
 31
0.0
  0
ENDBLK
  5
43E
330
43C
100
AcDbEntity
  8
0
100
AcDbBlockEnd
  0
BLOCK
  5
475
330
474
100
AcDbEntity
  8
0
100
AcDbBlockBegin
  2
POLY9
 70
     0
 71
     0
 10
0.0
 20
0.0
 30
0.0
  3
POLY9
  1

  4
POLY9
  0
LINE
  5
477
330
474
100
AcDbEntity
  8
LC-002-002-----0
 62
     7
370
    25
100
AcDbLine
 10
985.808822
 20
2461.389777
 30
0.0
 11
985.808822
 21
2461.389777
 31
0.0
  0
LINE
  5
478
330
474
100
AcDbEntity
  8
LC-002-002-----0
 62
     7
370
    25
100
AcDbLine
 10
985.808822
 20
2461.389777
 30
0.0
 11
985.953902
 21
2460.103536
 31
0.0
  0
LINE
  5
479
330
474
100
AcDbEntity
  8
LC-002-002-----0
 62
     7
370
    25
100
AcDbLine
 10
985.953902
 20
2460.103536
 30
0.0
 11
985.953902
 21
2460.103536
 31
0.0
  0
LINE
  5
47A
330
474
100
AcDbEntity
  8
LC-002-002-----0
 62
     7
370
    25
100
AcDbLine
 10
985.953902
 20
2460.103536
 30
0.0
 11
986.384175
 21
2458.873758
 31
0.0
  0
LINE
  5
47B
330
474
100
AcDbEntity
  8
LC-002-002-----0
 62
     7
370
    25
100
AcDbLine
 10
986.384175
 20
2458.873758
 30
0.0
 11
986.384175
 21
2458.873758
 31
0.0
  0
LINE
  5
47C
330
474
100
AcDbEntity
  8
LC-002-002-----0
 62
     7
370
    25
100
AcDbLine
 10
986.384175
 20
2458.873758
 30
0.0
 11
987.085293
 21
2457.755003
 31
0.0
  0
LINE
  5
47D
330
474
100
AcDbEntity
  8
LC-002-002-----0
 62
     7
370
    25
100
AcDbLine
 10
987.085293
 20
2457.755003
 30
0.0
 11
987.085293
 21
2457.755003
 31
0.0
  0
LINE
  5
47E
330
474
100
AcDbEntity
  8
LC-002-002-----0
 62
     7
370
    25
100
AcDbLine
 10
987.085293
 20
2457.755003
 30
0.0
 11
988.032541
 21
2456.800681
 31
0.0
  0
LINE
  5
47F
330
474
100
AcDbEntity
  8
LC-002-002-----0
 62
     7
370
    25
100
AcDbLine
 10
988.032541
 20
2456.800681
 30
0.0
 11
988.032541
 21
2456.800681
 31
0.0
  0
LINE
  5
480
330
474
100
AcDbEntity
  8
LC-002-002-----0
 62
     7
370
    25
100
AcDbLine
 10
988.032541
 20
2456.800681
 30
0.0
 11
989.189302
 21
2456.061092
 31
0.0
  0
LINE
  5
481
330
474
100
AcDbEntity
  8
LC-002-002-----0
 62
     7
370
    25
100
AcDbLine
 10
989.189302
 20
2456.061092
 30
0.0
 11
989.189302
 21
2456.061092
 31
0.0
  0
LINE
  5
482
330
474
100
AcDbEntity
  8
LC-002-002-----0
 62
     7
370
    25
100
AcDbLine
 10
989.189302
 20
2456.061092
 30
0.0
 11
990.505774
 21
2455.580302
 31
0.0
  0
ENDBLK
  5
476
330
474
100
AcDbEntity
  8
0
100
AcDbBlockEnd
  0
BLOCK
  5
485
330
484
100
AcDbEntity
  8
0
100
AcDbBlockBegin
  2
POLY10
 70
     0
 71
     0
 10
0.0
 20
0.0
 30
0.0
  3
POLY10
  1

  4
POLY10
  0
LINE
  5
487
330
484
100
AcDbEntity
  8
LC-002-002-----0
 62
     7
370
    25
100
AcDbLine
 10
990.505774
 20
2455.580302
 30
0.0
 11
990.505774
 21
2455.580302
 31
0.0
  0
LINE
  5
488
330
484
100
AcDbEntity
  8
LC-002-002-----0
 62
     7
370
    25
100
AcDbLine
 10
990.505774
 20
2455.580302
 30
0.0
 11
991.556422
 21
2455.170553
 31
0.0
  0
LINE
  5
489
330
484
100
AcDbEntity
  8
LC-002-002-----0
 62
     7
370
    25
100
AcDbLine
 10
991.556422
 20
2455.170553
 30
0.0
 11
991.556422
 21
2455.170553
 31
0.0
  0
LINE
  5
48A
330
484
100
AcDbEntity
  8
LC-002-002-----0
 62
     7
370
    25
100
AcDbLine
 10
991.556422
 20
2455.170553
 30
0.0
 11
992.444752
 21
2454.517237
 31
0.0
  0
LINE
  5
48B
330
484
100
AcDbEntity
  8
LC-002-002-----0
 62
     7
370
    25
100
AcDbLine
 10
992.444752
 20
2454.517237
 30
0.0
 11
992.444752
 21
2454.517237
 31
0.0
  0
LINE
  5
48C
330
484
100
AcDbEntity
  8
LC-002-002-----0
 62
     7
370
    25
100
AcDbLine
 10
992.444752
 20
2454.517237
 30
0.0
 11
993.111544
 21
2453.67911
 31
0.0
  0
LINE
  5
48D
330
484
100
AcDbEntity
  8
LC-002-002-----0
 62
     7
370
    25
100
AcDbLine
 10
993.111544
 20
2453.67911
 30
0.0
 11
993.111544
 21
2453.67911
 31
0.0
  0
LINE
  5
48E
330
484
100
AcDbEntity
  8
LC-002-002-----0
 62
     7
370
    25
100
AcDbLine
 10
993.111544
 20
2453.67911
 30
0.0
 11
993.521627
 21
2452.721321
 31
0.0
  0
LINE
  5
48F
330
484
100
AcDbEntity
  8
LC-002-002-----0
 62
     7
370
    25
100
AcDbLine
 10
993.521627
 20
2452.721321
 30
0.0
 11
993.521627
 21
2452.721321
 31
0.0
  0
LINE
  5
490
330
484
100
AcDbEntity
  8
LC-002-002-----0
 62
     7
370
    25
100
AcDbLine
 10
993.521627
 20
2452.721321
 30
0.0
 11
993.659413
 21
2451.707319
 31
0.0
  0
ENDBLK
  5
486
330
484
100
AcDbEntity
  8
0
100
AcDbBlockEnd
  0
BLOCK
  5
4F2
330
4F1
100
AcDbEntity
  8
0
100
AcDbBlockBegin
  2
POLY11
 70
     0
 71
     0
 10
0.0
 20
0.0
 30
0.0
  3
POLY11
  1

  4
POLY11
  0
LINE
  5
4F4
330
4F1
100
AcDbEntity
  8
LC-002-002-----0
 62
     7
370
    25
100
AcDbLine
 10
1515.188186
 20
2005.174672
 30
0.0
 11
1515.16317
 21
2005.149631
 31
0.0
  0
ENDBLK
  5
4F3
330
4F1
100
AcDbEntity
  8
0
100
AcDbBlockEnd
  0
BLOCK
  5
506
330
505
100
AcDbEntity
  8
0
100
AcDbBlockBegin
  2
POLY12
 70
     0
 71
     0
 10
0.0
 20
0.0
 30
0.0
  3
POLY12
  1

  4
POLY12
  0
LINE
  5
508
330
505
100
AcDbEntity
  8
LC-002-002-----0
 62
     7
370
    25
100
AcDbLine
 10
1535.16317
 20
1895.06
 30
0.0
 11
1535.16317
 21
1895.06
 31
0.0
  0
LINE
  5
509
330
505
100
AcDbEntity
  8
LC-002-002-----0
 62
     7
370
    25
100
AcDbLine
 10
1535.16317
 20
1895.06
 30
0.0
 11
1535.163204
 21
1895.574788
 31
0.0
  0
LINE
  5
50A
330
505
100
AcDbEntity
  8
LC-002-002-----0
 62
     7
370
    25
100
AcDbLine
 10
1535.163204
 20
1895.574788
 30
0.0
 11
1535.163204
 21
1895.574788
 31
0.0
  0
LINE
  5
50B
330
505
100
AcDbEntity
  8
LC-002-002-----0
 62
     7
370
    25
100
AcDbLine
 10
1535.163204
 20
1895.574788
 30
0.0
 11
1535.163167
 21
1896.056158
 31
0.0
  0
LINE
  5
50C
330
505
100
AcDbEntity
  8
LC-002-002-----0
 62
     7
370
    25
100
AcDbLine
 10
1535.163167
 20
1896.056158
 30
0.0
 11
1535.163167
 21
1896.056158
 31
0.0
  0
LINE
  5
50D
330
505
100
AcDbEntity
  8
LC-002-002-----0
 62
     7
370
    25
100
AcDbLine
 10
1535.163167
 20
1896.056158
 30
0.0
 11
1535.163174
 21
1896.469728
 31
0.0
  0
LINE
  5
50E
330
505
100
AcDbEntity
  8
LC-002-002-----0
 62
     7
370
    25
100
AcDbLine
 10
1535.163174
 20
1896.469728
 30
0.0
 11
1535.163174
 21
1896.469728
 31
0.0
  0
LINE
  5
50F
330
505
100
AcDbEntity
  8
LC-002-002-----0
 62
     7
370
    25
100
AcDbLine
 10
1535.163174
 20
1896.469728
 30
0.0
 11
1535.163148
 21
1896.788665
 31
0.0
  0
LINE
  5
510
330
505
100
AcDbEntity
  8
LC-002-002-----0
 62
     7
370
    25
100
AcDbLine
 10
1535.163148
 20
1896.788665
 30
0.0
 11
1535.163148
 21
1896.788665
 31
0.0
  0
LINE
  5
511
330
505
100
AcDbEntity
  8
LC-002-002-----0
 62
     7
370
    25
100
AcDbLine
 10
1535.163148
 20
1896.788665
 30
0.0
 11
1535.163197
 21
1896.990621
 31
0.0
  0
LINE
  5
512
330
505
100
AcDbEntity
  8
LC-002-002-----0
 62
     7
370
    25
100
AcDbLine
 10
1535.163197
 20
1896.990621
 30
0.0
 11
1535.163197
 21
1896.990621
 31
0.0
  0
LINE
  5
513
330
505
100
AcDbEntity
  8
LC-002-002-----0
 62
     7
370
    25
100
AcDbLine
 10
1535.163197
 20
1896.990621
 30
0.0
 11
1535.163179
 21
1897.06
 31
0.0
  0
ENDBLK
  5
507
330
505
100
AcDbEntity
  8
0
100
AcDbBlockEnd
  0
BLOCK
  5
533
330
532
100
AcDbEntity
  8
0
100
AcDbBlockBegin
  2
LCDIM11
 70
     0
 71
     0
 10
0.0
 20
0.0
 30
0.0
  3
LCDIM11
  1

  4
LCDIM11
  0
LINE
  5
535
330
532
100
AcDbEntity
  8
LC-007-003-MTH-0
 62
     7
370
    25
100
AcDbLine
 10
1507.458377
 20
1878.06
 30
0.0
 11
1507.458377
 21
1485.0
 31
0.0
  0
LINE
  5
536
330
532
100
AcDbEntity
  8
LC-007-003-MTH-0
 62
     7
370
    25
100
AcDbLine
 10
1819.765399
 20
1573.06
 30
0.0
 11
1819.765399
 21
1485.0
 31
0.0
  0
LINE
  5
537
330
532
100
AcDbEntity
  8
LC-008-003-MTG-0
 62
     7
370
    25
100
AcDbLine
 10
1507.458377
 20
1500.0
 30
0.0
 11
1819.765399
 21
1500.0
 31
0.0
  0
LINE
  5
538
330
532
100
AcDbEntity
  8
LC-009-003-----0
 62
     7
370
    25
100
AcDbLine
 10
1532.244499
 20
1503.263155
 30
0.0
 11
1507.458377
 21
1500.0
 31
0.0
  0
LINE
  5
539
330
532
100
AcDbEntity
  8
LC-009-003-----0
 62
     7
370
    25
100
AcDbLine
 10
1507.458377
 20
1500.0
 30
0.0
 11
1532.244499
 21
1496.736845
 31
0.0
  0
LINE
  5
53A
330
532
100
AcDbEntity
  8
LC-009-003-----0
 62
     7
370
    25
100
AcDbLine
 10
1532.244499
 20
1496.736845
 30
0.0
 11
1532.244499
 21
1503.263155
 31
0.0
  0
LINE
  5
53B
330
532
100
AcDbEntity
  8
LC-009-003-----0
 62
     7
370
    25
100
AcDbLine
 10
1532.300107
 20
1502.414735
 30
0.0
 11
1513.958377
 21
1500.0
 31
0.0
  0
LINE
  5
53C
330
532
100
AcDbEntity
  8
LC-009-003-----0
 62
     7
370
    25
100
AcDbLine
 10
1513.958377
 20
1500.0
 30
0.0
 11
1532.300107
 21
1497.585265
 31
0.0
  0
LINE
  5
53D
330
532
100
AcDbEntity
  8
LC-009-003-----0
 62
     7
370
    25
100
AcDbLine
 10
1532.355716
 20
1501.566314
 30
0.0
 11
1520.458377
 21
1500.0
 31
0.0
  0
LINE
  5
53E
330
532
100
AcDbEntity
  8
LC-009-003-----0
 62
     7
370
    25
100
AcDbLine
 10
1520.458377
 20
1500.0
 30
0.0
 11
1532.355716
 21
1498.433686
 31
0.0
  0
LINE
  5
53F
330
532
100
AcDbEntity
  8
LC-009-003-----0
 62
     7
370
    25
100
AcDbLine
 10
1532.411324
 20
1500.717894
 30
0.0
 11
1526.958377
 21
1500.0
 31
0.0
  0
LINE
  5
540
330
532
100
AcDbEntity
  8
LC-009-003-----0
 62
     7
370
    25
100
AcDbLine
 10
1526.958377
 20
1500.0
 30
0.0
 11
1532.411324
 21
1499.282106
 31
0.0
  0
LINE
  5
541
330
532
100
AcDbEntity
  8
LC-009-003-----0
 62
     7
370
    25
100
AcDbLine
 10
1794.979277
 20
1496.736845
 30
0.0
 11
1819.765399
 21
1500.0
 31
0.0
  0
LINE
  5
542
330
532
100
AcDbEntity
  8
LC-009-003-----0
 62
     7
370
    25
100
AcDbLine
 10
1819.765399
 20
1500.0
 30
0.0
 11
1794.979277
 21
1503.263155
 31
0.0
  0
LINE
  5
543
330
532
100
AcDbEntity
  8
LC-009-003-----0
 62
     7
370
    25
100
AcDbLine
 10
1794.979277
 20
1503.263155
 30
0.0
 11
1794.979277
 21
1496.736845
 31
0.0
  0
LINE
  5
544
330
532
100
AcDbEntity
  8
LC-009-003-----0
 62
     7
370
    25
100
AcDbLine
 10
1794.923668
 20
1497.585265
 30
0.0
 11
1813.265399
 21
1500.0
 31
0.0
  0
LINE
  5
545
330
532
100
AcDbEntity
  8
LC-009-003-----0
 62
     7
370
    25
100
AcDbLine
 10
1813.265399
 20
1500.0
 30
0.0
 11
1794.923668
 21
1502.414735
 31
0.0
  0
LINE
  5
546
330
532
100
AcDbEntity
  8
LC-009-003-----0
 62
     7
370
    25
100
AcDbLine
 10
1794.86806
 20
1498.433686
 30
0.0
 11
1806.765398
 21
1500.0
 31
0.0
  0
LINE
  5
547
330
532
100
AcDbEntity
  8
LC-009-003-----0
 62
     7
370
    25
100
AcDbLine
 10
1806.765398
 20
1500.0
 30
0.0
 11
1794.86806
 21
1501.566314
 31
0.0
  0
LINE
  5
548
330
532
100
AcDbEntity
  8
LC-009-003-----0
 62
     7
370
    25
100
AcDbLine
 10
1794.812452
 20
1499.282106
 30
0.0
 11
1800.265398
 21
1500.0
 31
0.0
  0
LINE
  5
549
330
532
100
AcDbEntity
  8
LC-009-003-----0
 62
     7
370
    25
100
AcDbLine
 10
1800.265398
 20
1500.0
 30
0.0
 11
1794.812452
 21
1500.717894
 31
0.0
  0
TEXT
  5
54A
330
532
100
AcDbEntity
  8
LC-009-003-----0
 62
     7
370
    25
100
AcDbText
 10
1638.542406
 20
1515.0
 30
0.0
 40
25.0
  1
312
 41
0.8
  7
LCTX0-400-0-0pDIN-Schrift
 72
     1
 11
1667.113834
 21
1515.0
 31
0.0
100
AcDbText
  0
ENDBLK
  5
534
330
532
100
AcDbEntity
  8
0
100
AcDbBlockEnd
  0
BLOCK
  5
587
330
586
100
AcDbEntity
  8
0
100
AcDbBlockBegin
  2
POLY13
 70
     0
 71
     0
 10
0.0
 20
0.0
 30
0.0
  3
POLY13
  1

  4
POLY13
  0
LINE
  5
589
330
586
100
AcDbEntity
  8
LC-002-002-----0
 62
     7
370
    25
100
AcDbLine
 10
1753.515399
 20
1835.857485
 30
0.0
 11
1753.515399
 21
1835.857485
 31
0.0
  0
LINE
  5
58A
330
586
100
AcDbEntity
  8
LC-002-002-----0
 62
     7
370
    25
100
AcDbLine
 10
1753.515399
 20
1835.857485
 30
0.0
 11
1753.477698
 21
1836.047811
 31
0.0
  0
LINE
  5
58B
330
586
100
AcDbEntity
  8
LC-002-002-----0
 62
     7
370
    25
100
AcDbLine
 10
1753.477698
 20
1836.047811
 30
0.0
 11
1753.477698
 21
1836.047811
 31
0.0
  0
LINE
  5
58C
330
586
100
AcDbEntity
  8
LC-002-002-----0
 62
     7
370
    25
100
AcDbLine
 10
1753.477698
 20
1836.047811
 30
0.0
 11
1753.366435
 21
1836.213381
 31
0.0
  0
LINE
  5
58D
330
586
100
AcDbEntity
  8
LC-002-002-----0
 62
     7
370
    25
100
AcDbLine
 10
1753.366435
 20
1836.213381
 30
0.0
 11
1753.366435
 21
1836.213381
 31
0.0
  0
LINE
  5
58E
330
586
100
AcDbEntity
  8
LC-002-002-----0
 62
     7
370
    25
100
AcDbLine
 10
1753.366435
 20
1836.213381
 30
0.0
 11
1753.198847
 21
1836.322547
 31
0.0
  0
LINE
  5
58F
330
586
100
AcDbEntity
  8
LC-002-002-----0
 62
     7
370
    25
100
AcDbLine
 10
1753.198847
 20
1836.322547
 30
0.0
 11
1753.198847
 21
1836.322547
 31
0.0
  0
LINE
  5
590
330
586
100
AcDbEntity
  8
LC-002-002-----0
 62
     7
370
    25
100
AcDbLine
 10
1753.198847
 20
1836.322547
 30
0.0
 11
1753.015398
 21
1836.357503
 31
0.0
  0
ENDBLK
  5
588
330
586
100
AcDbEntity
  8
0
100
AcDbBlockEnd
  0
BLOCK
  5
593
330
592
100
AcDbEntity
  8
0
100
AcDbBlockBegin
  2
POLY14
 70
     0
 71
     0
 10
0.0
 20
0.0
 30
0.0
  3
POLY14
  1

  4
POLY14
  0
LINE
  5
595
330
592
100
AcDbEntity
  8
LC-002-002-----0
 62
     7
370
    25
100
AcDbLine
 10
1753.370102
 20
1809.905244
 30
0.0
 11
1753.370102
 21
1809.905244
 31
0.0
  0
LINE
  5
596
330
592
100
AcDbEntity
  8
LC-002-002-----0
 62
     7
370
    25
100
AcDbLine
 10
1753.370102
 20
1809.905244
 30
0.0
 11
1753.373723
 21
1809.908925
 31
0.0
  0
LINE
  5
597
330
592
100
AcDbEntity
  8
LC-002-002-----0
 62
     7
370
    25
100
AcDbLine
 10
1753.373723
 20
1809.908925
 30
0.0
 11
1753.373723
 21
1809.908925
 31
0.0
  0
LINE
  5
598
330
592
100
AcDbEntity
  8
LC-002-002-----0
 62
     7
370
    25
100
AcDbLine
 10
1753.373723
 20
1809.908925
 30
0.0
 11
1753.398057
 21
1809.935818
 31
0.0
  0
ENDBLK
  5
594
330
592
100
AcDbEntity
  8
0
100
AcDbBlockEnd
  0
BLOCK
  5
59B
330
59A
100
AcDbEntity
  8
0
100
AcDbBlockBegin
  2
POLY15
 70
     0
 71
     0
 10
0.0
 20
0.0
 30
0.0
  3
POLY15
  1

  4
POLY15
  0
LINE
  5
59D
330
59A
100
AcDbEntity
  8
LC-002-002-----0
 62
     7
370
    25
100
AcDbLine
 10
1753.509461
 20
1810.231995
 30
0.0
 11
1753.509461
 21
1810.231995
 31
0.0
  0
LINE
  5
59E
330
59A
100
AcDbEntity
  8
LC-002-002-----0
 62
     7
370
    25
100
AcDbLine
 10
1753.509461
 20
1810.231995
 30
0.0
 11
1753.471672
 21
1810.041686
 31
0.0
  0
LINE
  5
59F
330
59A
100
AcDbEntity
  8
LC-002-002-----0
 62
     7
370
    25
100
AcDbLine
 10
1753.471672
 20
1810.041686
 30
0.0
 11
1753.471672
 21
1810.041686
 31
0.0
  0
LINE
  5
5A0
330
59A
100
AcDbEntity
  8
LC-002-002-----0
 62
     7
370
    25
100
AcDbLine
 10
1753.471672
 20
1810.041686
 30
0.0
 11
1753.360333
 21
1809.876168
 31
0.0
  0
LINE
  5
5A1
330
59A
100
AcDbEntity
  8
LC-002-002-----0
 62
     7
370
    25
100
AcDbLine
 10
1753.360333
 20
1809.876168
 30
0.0
 11
1753.360333
 21
1809.876168
 31
0.0
  0
LINE
  5
5A2
330
59A
100
AcDbEntity
  8
LC-002-002-----0
 62
     7
370
    25
100
AcDbLine
 10
1753.360333
 20
1809.876168
 30
0.0
 11
1753.192695
 21
1809.767079
 31
0.0
  0
LINE
  5
5A3
330
59A
100
AcDbEntity
  8
LC-002-002-----0
 62
     7
370
    25
100
AcDbLine
 10
1753.192695
 20
1809.767079
 30
0.0
 11
1753.192695
 21
1809.767079
 31
0.0
  0
LINE
  5
5A4
330
59A
100
AcDbEntity
  8
LC-002-002-----0
 62
     7
370
    25
100
AcDbLine
 10
1753.192695
 20
1809.767079
 30
0.0
 11
1753.009229
 21
1809.732209
 31
0.0
  0
ENDBLK
  5
59C
330
59A
100
AcDbEntity
  8
0
100
AcDbBlockEnd
  0
BLOCK
  5
5AF
330
5AE
100
AcDbEntity
  8
0
100
AcDbBlockBegin
  2
*X330
 70
     1
 71
     0
 10
0.0
 20
0.0
 30
0.0
  3
*X330
  1

  4
*X3
  0
LINE
  5
5B1
330
5AE
100
AcDbEntity
  8
LC-010-005-----0
 62
     7
370
    25
100
AcDbLine
 10
860.695399
 20
2557.751674
 30
0.0
 11
879.695399
 21
2576.751674
 31
0.0
  0
LINE
  5
5B2
330
5AE
100
AcDbEntity
  8
LC-010-005-----0
 62
     7
370
    25
100
AcDbLine
 10
860.695399
 20
2586.035945
 30
0.0
 11
879.695399
 21
2605.035945
 31
0.0
  0
LINE
  5
5B3
330
5AE
100
AcDbEntity
  8
LC-010-005-----0
 62
     7
370
    25
100
AcDbLine
 10
860.695399
 20
2614.320216
 30
0.0
 11
879.695399
 21
2633.320216
 31
0.0
  0
ENDBLK
  5
5B0
330
5AE
100
AcDbEntity
  8
0
100
AcDbBlockEnd
  0
BLOCK
  5
5B6
330
5B5
100
AcDbEntity
  8
0
100
AcDbBlockBegin
  2
*X431
 70
     1
 71
     0
 10
0.0
 20
0.0
 30
0.0
  3
*X431
  1

  4
*X4
  0
LINE
  5
5B8
330
5B5
100
AcDbEntity
  8
LC-010-005-----0
 62
     7
370
    25
100
AcDbLine
 10
1308.344971
 20
2552.852906
 30
0.0
 11
1310.695399
 21
2555.203334
 31
0.0
  0
LINE
  5
5B9
330
5B5
100
AcDbEntity
  8
LC-010-005-----0
 62
     7
370
    25
100
AcDbLine
 10
1291.695399
 20
2564.487605
 30
0.0
 11
1310.695399
 21
2583.487605
 31
0.0
  0
LINE
  5
5BA
330
5B5
100
AcDbEntity
  8
LC-010-005-----0
 62
     7
370
    25
100
AcDbLine
 10
1291.695399
 20
2592.771876
 30
0.0
 11
1310.695399
 21
2611.771876
 31
0.0
  0
LINE
  5
5BB
330
5B5
100
AcDbEntity
  8
LC-010-005-----0
 62
     7
370
    25
100
AcDbLine
 10
1291.695399
 20
2621.056148
 30
0.0
 11
1310.695399
 21
2640.056148
 31
0.0
  0
ENDBLK
  5
5B7
330
5B5
100
AcDbEntity
  8
0
100
AcDbBlockEnd
  0
BLOCK
  5
5BF
330
5BE
100
AcDbEntity
  8
0
100
AcDbBlockBegin
  2
LCDIM12
 70
     0
 71
     0
 10
0.0
 20
0.0
 30
0.0
  3
LCDIM12
  1

  4
LCDIM12
  0
LINE
  5
5C1
330
5BE
100
AcDbEntity
  8
LC-007-003-MTH-0
 62
     7
370
    25
100
AcDbLine
 10
594.591949
 20
1077.389257
 30
0.0
 11
594.591949
 21
1115.0
 31
0.0
  0
LINE
  5
5C2
330
5BE
100
AcDbEntity
  8
LC-007-003-MTH-0
 62
     7
370
    25
100
AcDbLine
 10
819.591949
 20
1077.389257
 30
0.0
 11
819.591949
 21
1115.0
 31
0.0
  0
LINE
  5
5C3
330
5BE
100
AcDbEntity
  8
LC-008-003-MTG-0
 62
     7
370
    25
100
AcDbLine
 10
594.591949
 20
1100.0
 30
0.0
 11
819.591949
 21
1100.0
 31
0.0
  0
LINE
  5
5C4
330
5BE
100
AcDbEntity
  8
LC-009-003-----0
 62
     7
370
    25
100
AcDbLine
 10
619.378071
 20
1103.263155
 30
0.0
 11
594.591949
 21
1100.0
 31
0.0
  0
LINE
  5
5C5
330
5BE
100
AcDbEntity
  8
LC-009-003-----0
 62
     7
370
    25
100
AcDbLine
 10
594.591949
 20
1100.0
 30
0.0
 11
619.378071
 21
1096.736845
 31
0.0
  0
LINE
  5
5C6
330
5BE
100
AcDbEntity
  8
LC-009-003-----0
 62
     7
370
    25
100
AcDbLine
 10
619.378071
 20
1096.736845
 30
0.0
 11
619.378071
 21
1103.263155
 31
0.0
  0
LINE
  5
5C7
330
5BE
100
AcDbEntity
  8
LC-009-003-----0
 62
     7
370
    25
100
AcDbLine
 10
619.433679
 20
1102.414735
 30
0.0
 11
601.091949
 21
1100.0
 31
0.0
  0
LINE
  5
5C8
330
5BE
100
AcDbEntity
  8
LC-009-003-----0
 62
     7
370
    25
100
AcDbLine
 10
601.091949
 20
1100.0
 30
0.0
 11
619.433679
 21
1097.585265
 31
0.0
  0
LINE
  5
5C9
330
5BE
100
AcDbEntity
  8
LC-009-003-----0
 62
     7
370
    25
100
AcDbLine
 10
619.489287
 20
1101.566314
 30
0.0
 11
607.591949
 21
1100.0
 31
0.0
  0
LINE
  5
5CA
330
5BE
100
AcDbEntity
  8
LC-009-003-----0
 62
     7
370
    25
100
AcDbLine
 10
607.591949
 20
1100.0
 30
0.0
 11
619.489287
 21
1098.433686
 31
0.0
  0
LINE
  5
5CB
330
5BE
100
AcDbEntity
  8
LC-009-003-----0
 62
     7
370
    25
100
AcDbLine
 10
619.544896
 20
1100.717894
 30
0.0
 11
614.091949
 21
1100.0
 31
0.0
  0
LINE
  5
5CC
330
5BE
100
AcDbEntity
  8
LC-009-003-----0
 62
     7
370
    25
100
AcDbLine
 10
614.091949
 20
1100.0
 30
0.0
 11
619.544896
 21
1099.282106
 31
0.0
  0
LINE
  5
5CD
330
5BE
100
AcDbEntity
  8
LC-009-003-----0
 62
     7
370
    25
100
AcDbLine
 10
794.805827
 20
1096.736845
 30
0.0
 11
819.591949
 21
1100.0
 31
0.0
  0
LINE
  5
5CE
330
5BE
100
AcDbEntity
  8
LC-009-003-----0
 62
     7
370
    25
100
AcDbLine
 10
819.591949
 20
1100.0
 30
0.0
 11
794.805827
 21
1103.263155
 31
0.0
  0
LINE
  5
5CF
330
5BE
100
AcDbEntity
  8
LC-009-003-----0
 62
     7
370
    25
100
AcDbLine
 10
794.805827
 20
1103.263155
 30
0.0
 11
794.805827
 21
1096.736845
 31
0.0
  0
LINE
  5
5D0
330
5BE
100
AcDbEntity
  8
LC-009-003-----0
 62
     7
370
    25
100
AcDbLine
 10
794.750218
 20
1097.585265
 30
0.0
 11
813.091949
 21
1100.0
 31
0.0
  0
LINE
  5
5D1
330
5BE
100
AcDbEntity
  8
LC-009-003-----0
 62
     7
370
    25
100
AcDbLine
 10
813.091949
 20
1100.0
 30
0.0
 11
794.750218
 21
1102.414735
 31
0.0
  0
LINE
  5
5D2
330
5BE
100
AcDbEntity
  8
LC-009-003-----0
 62
     7
370
    25
100
AcDbLine
 10
794.69461
 20
1098.433686
 30
0.0
 11
806.591949
 21
1100.0
 31
0.0
  0
LINE
  5
5D3
330
5BE
100
AcDbEntity
  8
LC-009-003-----0
 62
     7
370
    25
100
AcDbLine
 10
806.591949
 20
1100.0
 30
0.0
 11
794.69461
 21
1101.566314
 31
0.0
  0
LINE
  5
5D4
330
5BE
100
AcDbEntity
  8
LC-009-003-----0
 62
     7
370
    25
100
AcDbLine
 10
794.639002
 20
1099.282106
 30
0.0
 11
800.091948
 21
1100.0
 31
0.0
  0
LINE
  5
5D5
330
5BE
100
AcDbEntity
  8
LC-009-003-----0
 62
     7
370
    25
100
AcDbLine
 10
800.091948
 20
1100.0
 30
0.0
 11
794.639002
 21
1100.717894
 31
0.0
  0
TEXT
  5
5D6
330
5BE
100
AcDbEntity
  8
LC-009-003-----0
 62
     7
370
    25
100
AcDbText
 10
674.856834
 20
1115.0
 30
0.0
 40
25.0
  1
450
 41
0.7
  7
LCTX0-400-0-0pDIN-Schrift
 72
     1
 11
699.856834
 21
1115.0
 31
0.0
100
AcDbText
  0
ENDBLK
  5
5C0
330
5BE
100
AcDbEntity
  8
0
100
AcDbBlockEnd
  0
BLOCK
  5
5D9
330
5D8
100
AcDbEntity
  8
0
100
AcDbBlockBegin
  2
LCDIM13
 70
     0
 71
     0
 10
0.0
 20
0.0
 30
0.0
  3
LCDIM13
  1

  4
LCDIM13
  0
LINE
  5
5DB
330
5D8
100
AcDbEntity
  8
LC-007-003-MTH-0
 62
     7
370
    25
100
AcDbLine
 10
460.695399
 20
1578.06
 30
0.0
 11
460.695399
 21
1485.0
 31
0.0
  0
LINE
  5
5DC
330
5D8
100
AcDbEntity
  8
LC-007-003-MTH-0
 62
     7
370
    25
100
AcDbLine
 10
1320.695399
 20
1578.06
 30
0.0
 11
1320.695399
 21
1485.0
 31
0.0
  0
LINE
  5
5DD
330
5D8
100
AcDbEntity
  8
LC-008-003-MTG-0
 62
     7
370
    25
100
AcDbLine
 10
460.695399
 20
1500.0
 30
0.0
 11
1320.695399
 21
1500.0
 31
0.0
  0
LINE
  5
5DE
330
5D8
100
AcDbEntity
  8
LC-009-003-----0
 62
     7
370
    25
100
AcDbLine
 10
485.481521
 20
1503.263155
 30
0.0
 11
460.695399
 21
1500.0
 31
0.0
  0
LINE
  5
5DF
330
5D8
100
AcDbEntity
  8
LC-009-003-----0
 62
     7
370
    25
100
AcDbLine
 10
460.695399
 20
1500.0
 30
0.0
 11
485.481521
 21
1496.736845
 31
0.0
  0
LINE
  5
5E0
330
5D8
100
AcDbEntity
  8
LC-009-003-----0
 62
     7
370
    25
100
AcDbLine
 10
485.481521
 20
1496.736845
 30
0.0
 11
485.481521
 21
1503.263155
 31
0.0
  0
LINE
  5
5E1
330
5D8
100
AcDbEntity
  8
LC-009-003-----0
 62
     7
370
    25
100
AcDbLine
 10
485.537129
 20
1502.414735
 30
0.0
 11
467.195399
 21
1500.0
 31
0.0
  0
LINE
  5
5E2
330
5D8
100
AcDbEntity
  8
LC-009-003-----0
 62
     7
370
    25
100
AcDbLine
 10
467.195399
 20
1500.0
 30
0.0
 11
485.537129
 21
1497.585265
 31
0.0
  0
LINE
  5
5E3
330
5D8
100
AcDbEntity
  8
LC-009-003-----0
 62
     7
370
    25
100
AcDbLine
 10
485.592738
 20
1501.566314
 30
0.0
 11
473.695399
 21
1500.0
 31
0.0
  0
LINE
  5
5E4
330
5D8
100
AcDbEntity
  8
LC-009-003-----0
 62
     7
370
    25
100
AcDbLine
 10
473.695399
 20
1500.0
 30
0.0
 11
485.592738
 21
1498.433686
 31
0.0
  0
LINE
  5
5E5
330
5D8
100
AcDbEntity
  8
LC-009-003-----0
 62
     7
370
    25
100
AcDbLine
 10
485.648346
 20
1500.717894
 30
0.0
 11
480.195399
 21
1500.0
 31
0.0
  0
LINE
  5
5E6
330
5D8
100
AcDbEntity
  8
LC-009-003-----0
 62
     7
370
    25
100
AcDbLine
 10
480.195399
 20
1500.0
 30
0.0
 11
485.648346
 21
1499.282106
 31
0.0
  0
LINE
  5
5E7
330
5D8
100
AcDbEntity
  8
LC-009-003-----0
 62
     7
370
    25
100
AcDbLine
 10
1295.909277
 20
1496.736845
 30
0.0
 11
1320.695399
 21
1500.0
 31
0.0
  0
LINE
  5
5E8
330
5D8
100
AcDbEntity
  8
LC-009-003-----0
 62
     7
370
    25
100
AcDbLine
 10
1320.695399
 20
1500.0
 30
0.0
 11
1295.909277
 21
1503.263155
 31
0.0
  0
LINE
  5
5E9
330
5D8
100
AcDbEntity
  8
LC-009-003-----0
 62
     7
370
    25
100
AcDbLine
 10
1295.909277
 20
1503.263155
 30
0.0
 11
1295.909277
 21
1496.736845
 31
0.0
  0
LINE
  5
5EA
330
5D8
100
AcDbEntity
  8
LC-009-003-----0
 62
     7
370
    25
100
AcDbLine
 10
1295.853669
 20
1497.585265
 30
0.0
 11
1314.195399
 21
1500.0
 31
0.0
  0
LINE
  5
5EB
330
5D8
100
AcDbEntity
  8
LC-009-003-----0
 62
     7
370
    25
100
AcDbLine
 10
1314.195399
 20
1500.0
 30
0.0
 11
1295.853669
 21
1502.414735
 31
0.0
  0
LINE
  5
5EC
330
5D8
100
AcDbEntity
  8
LC-009-003-----0
 62
     7
370
    25
100
AcDbLine
 10
1295.79806
 20
1498.433686
 30
0.0
 11
1307.695399
 21
1500.0
 31
0.0
  0
LINE
  5
5ED
330
5D8
100
AcDbEntity
  8
LC-009-003-----0
 62
     7
370
    25
100
AcDbLine
 10
1307.695399
 20
1500.0
 30
0.0
 11
1295.79806
 21
1501.566314
 31
0.0
  0
LINE
  5
5EE
330
5D8
100
AcDbEntity
  8
LC-009-003-----0
 62
     7
370
    25
100
AcDbLine
 10
1295.742452
 20
1499.282106
 30
0.0
 11
1301.195399
 21
1500.0
 31
0.0
  0
LINE
  5
5EF
330
5D8
100
AcDbEntity
  8
LC-009-003-----0
 62
     7
370
    25
100
AcDbLine
 10
1301.195399
 20
1500.0
 30
0.0
 11
1295.742452
 21
1500.717894
 31
0.0
  0
TEXT
  5
5F0
330
5D8
100
AcDbEntity
  8
LC-009-003-----0
 62
     7
370
    25
100
AcDbText
 10
894.456689
 20
1515.0
 30
0.0
 40
25.0
  1
860
 41
0.7
  7
LCTX0-400-0-0pDIN-Schrift
 72
     1
 11
919.456689
 21
1515.0
 31
0.0
100
AcDbText
  0
ENDBLK
  5
5DA
330
5D8
100
AcDbEntity
  8
0
100
AcDbBlockEnd
  0
BLOCK
  5
600
330
5FF
100
AcDbEntity
  8
0
100
AcDbBlockBegin
  2
LCDIM14
 70
     0
 71
     0
 10
0.0
 20
0.0
 30
0.0
  3
LCDIM14
  1

  4
LCDIM14
  0
LINE
  5
602
330
5FF
100
AcDbEntity
  8
LC-007-003-MTH-0
 62
     7
370
    25
100
AcDbLine
 10
1226.61746
 20
827.478317
 30
0.0
 11
1226.61746
 21
735.0
 31
0.0
  0
LINE
  5
603
330
5FF
100
AcDbEntity
  8
LC-007-003-MTH-0
 62
     7
370
    25
100
AcDbLine
 10
1649.11746
 20
827.478317
 30
0.0
 11
1649.11746
 21
735.0
 31
0.0
  0
LINE
  5
604
330
5FF
100
AcDbEntity
  8
LC-008-003-MTG-0
 62
     7
370
    25
100
AcDbLine
 10
1226.61746
 20
750.0
 30
0.0
 11
1649.11746
 21
750.0
 31
0.0
  0
LINE
  5
605
330
5FF
100
AcDbEntity
  8
LC-009-003-----0
 62
     7
370
    25
100
AcDbLine
 10
1251.403582
 20
753.263155
 30
0.0
 11
1226.61746
 21
750.0
 31
0.0
  0
LINE
  5
606
330
5FF
100
AcDbEntity
  8
LC-009-003-----0
 62
     7
370
    25
100
AcDbLine
 10
1226.61746
 20
750.0
 30
0.0
 11
1251.403582
 21
746.736845
 31
0.0
  0
LINE
  5
607
330
5FF
100
AcDbEntity
  8
LC-009-003-----0
 62
     7
370
    25
100
AcDbLine
 10
1251.403582
 20
746.736845
 30
0.0
 11
1251.403582
 21
753.263155
 31
0.0
  0
LINE
  5
608
330
5FF
100
AcDbEntity
  8
LC-009-003-----0
 62
     7
370
    25
100
AcDbLine
 10
1251.45919
 20
752.414735
 30
0.0
 11
1233.11746
 21
750.0
 31
0.0
  0
LINE
  5
609
330
5FF
100
AcDbEntity
  8
LC-009-003-----0
 62
     7
370
    25
100
AcDbLine
 10
1233.11746
 20
750.0
 30
0.0
 11
1251.45919
 21
747.585265
 31
0.0
  0
LINE
  5
60A
330
5FF
100
AcDbEntity
  8
LC-009-003-----0
 62
     7
370
    25
100
AcDbLine
 10
1251.514798
 20
751.566314
 30
0.0
 11
1239.61746
 21
750.0
 31
0.0
  0
LINE
  5
60B
330
5FF
100
AcDbEntity
  8
LC-009-003-----0
 62
     7
370
    25
100
AcDbLine
 10
1239.61746
 20
750.0
 30
0.0
 11
1251.514798
 21
748.433686
 31
0.0
  0
LINE
  5
60C
330
5FF
100
AcDbEntity
  8
LC-009-003-----0
 62
     7
370
    25
100
AcDbLine
 10
1251.570407
 20
750.717894
 30
0.0
 11
1246.11746
 21
750.0
 31
0.0
  0
LINE
  5
60D
330
5FF
100
AcDbEntity
  8
LC-009-003-----0
 62
     7
370
    25
100
AcDbLine
 10
1246.11746
 20
750.0
 30
0.0
 11
1251.570407
 21
749.282106
 31
0.0
  0
LINE
  5
60E
330
5FF
100
AcDbEntity
  8
LC-009-003-----0
 62
     7
370
    25
100
AcDbLine
 10
1624.331338
 20
746.736845
 30
0.0
 11
1649.11746
 21
750.0
 31
0.0
  0
LINE
  5
60F
330
5FF
100
AcDbEntity
  8
LC-009-003-----0
 62
     7
370
    25
100
AcDbLine
 10
1649.11746
 20
750.0
 30
0.0
 11
1624.331338
 21
753.263155
 31
0.0
  0
LINE
  5
610
330
5FF
100
AcDbEntity
  8
LC-009-003-----0
 62
     7
370
    25
100
AcDbLine
 10
1624.331338
 20
753.263155
 30
0.0
 11
1624.331338
 21
746.736845
 31
0.0
  0
LINE
  5
611
330
5FF
100
AcDbEntity
  8
LC-009-003-----0
 62
     7
370
    25
100
AcDbLine
 10
1624.275729
 20
747.585265
 30
0.0
 11
1642.61746
 21
750.0
 31
0.0
  0
LINE
  5
612
330
5FF
100
AcDbEntity
  8
LC-009-003-----0
 62
     7
370
    25
100
AcDbLine
 10
1642.61746
 20
750.0
 30
0.0
 11
1624.275729
 21
752.414735
 31
0.0
  0
LINE
  5
613
330
5FF
100
AcDbEntity
  8
LC-009-003-----0
 62
     7
370
    25
100
AcDbLine
 10
1624.220121
 20
748.433686
 30
0.0
 11
1636.11746
 21
750.0
 31
0.0
  0
LINE
  5
614
330
5FF
100
AcDbEntity
  8
LC-009-003-----0
 62
     7
370
    25
100
AcDbLine
 10
1636.11746
 20
750.0
 30
0.0
 11
1624.220121
 21
751.566314
 31
0.0
  0
LINE
  5
615
330
5FF
100
AcDbEntity
  8
LC-009-003-----0
 62
     7
370
    25
100
AcDbLine
 10
1624.164513
 20
749.282106
 30
0.0
 11
1629.617459
 21
750.0
 31
0.0
  0
LINE
  5
616
330
5FF
100
AcDbEntity
  8
LC-009-003-----0
 62
     7
370
    25
100
AcDbLine
 10
1629.617459
 20
750.0
 30
0.0
 11
1624.164513
 21
750.717894
 31
0.0
  0
TEXT
  5
617
330
5FF
100
AcDbEntity
  8
LC-009-003-----0
 62
     7
370
    25
100
AcDbText
 10
1411.110167
 20
765.0
 30
0.0
 40
25.0
  1
845
 41
0.7
  7
LCTX0-400-0-0pDIN-Schrift
 72
     1
 11
1436.110167
 21
765.0
 31
0.0
100
AcDbText
  0
ENDBLK
  5
601
330
5FF
100
AcDbEntity
  8
0
100
AcDbBlockEnd
  0
BLOCK
  5
61A
330
619
100
AcDbEntity
  8
0
100
AcDbBlockBegin
  2
LCDIM15
 70
     0
 71
     0
 10
0.0
 20
0.0
 30
0.0
  3
LCDIM15
  1

  4
LCDIM15
  0
LINE
  5
61C
330
619
100
AcDbEntity
  8
LC-007-003-MTH-0
 62
     7
370
    25
100
AcDbLine
 10
1629.11746
 20
807.478317
 30
0.0
 11
1765.0
 21
807.478317
 31
0.0
  0
LINE
  5
61D
330
619
100
AcDbEntity
  8
LC-007-003-MTH-0
 62
     7
370
    25
100
AcDbLine
 10
1629.11746
 20
1049.978317
 30
0.0
 11
1765.0
 21
1049.978317
 31
0.0
  0
LINE
  5
61E
330
619
100
AcDbEntity
  8
LC-008-003-MTG-0
 62
     7
370
    25
100
AcDbLine
 10
1750.0
 20
807.478317
 30
0.0
 11
1750.0
 21
1049.978317
 31
0.0
  0
LINE
  5
61F
330
619
100
AcDbEntity
  8
LC-009-003-----0
 62
     7
370
    25
100
AcDbLine
 10
1746.736845
 20
832.264439
 30
0.0
 11
1750.0
 21
807.478317
 31
0.0
  0
LINE
  5
620
330
619
100
AcDbEntity
  8
LC-009-003-----0
 62
     7
370
    25
100
AcDbLine
 10
1750.0
 20
807.478317
 30
0.0
 11
1753.263155
 21
832.264439
 31
0.0
  0
LINE
  5
621
330
619
100
AcDbEntity
  8
LC-009-003-----0
 62
     7
370
    25
100
AcDbLine
 10
1753.263155
 20
832.264439
 30
0.0
 11
1746.736845
 21
832.264439
 31
0.0
  0
LINE
  5
622
330
619
100
AcDbEntity
  8
LC-009-003-----0
 62
     7
370
    25
100
AcDbLine
 10
1747.585265
 20
832.320047
 30
0.0
 11
1750.0
 21
813.978317
 31
0.0
  0
LINE
  5
623
330
619
100
AcDbEntity
  8
LC-009-003-----0
 62
     7
370
    25
100
AcDbLine
 10
1750.0
 20
813.978317
 30
0.0
 11
1752.414735
 21
832.320047
 31
0.0
  0
LINE
  5
624
330
619
100
AcDbEntity
  8
LC-009-003-----0
 62
     7
370
    25
100
AcDbLine
 10
1748.433686
 20
832.375656
 30
0.0
 11
1750.0
 21
820.478317
 31
0.0
  0
LINE
  5
625
330
619
100
AcDbEntity
  8
LC-009-003-----0
 62
     7
370
    25
100
AcDbLine
 10
1750.0
 20
820.478317
 30
0.0
 11
1751.566314
 21
832.375656
 31
0.0
  0
LINE
  5
626
330
619
100
AcDbEntity
  8
LC-009-003-----0
 62
     7
370
    25
100
AcDbLine
 10
1749.282106
 20
832.431264
 30
0.0
 11
1750.0
 21
826.978317
 31
0.0
  0
LINE
  5
627
330
619
100
AcDbEntity
  8
LC-009-003-----0
 62
     7
370
    25
100
AcDbLine
 10
1750.0
 20
826.978317
 30
0.0
 11
1750.717894
 21
832.431264
 31
0.0
  0
LINE
  5
628
330
619
100
AcDbEntity
  8
LC-009-003-----0
 62
     7
370
    25
100
AcDbLine
 10
1753.263155
 20
1025.192195
 30
0.0
 11
1750.0
 21
1049.978317
 31
0.0
  0
LINE
  5
629
330
619
100
AcDbEntity
  8
LC-009-003-----0
 62
     7
370
    25
100
AcDbLine
 10
1750.0
 20
1049.978317
 30
0.0
 11
1746.736845
 21
1025.192195
 31
0.0
  0
LINE
  5
62A
330
619
100
AcDbEntity
  8
LC-009-003-----0
 62
     7
370
    25
100
AcDbLine
 10
1746.736845
 20
1025.192195
 30
0.0
 11
1753.263155
 21
1025.192195
 31
0.0
  0
LINE
  5
62B
330
619
100
AcDbEntity
  8
LC-009-003-----0
 62
     7
370
    25
100
AcDbLine
 10
1752.414735
 20
1025.136587
 30
0.0
 11
1750.0
 21
1043.478317
 31
0.0
  0
LINE
  5
62C
330
619
100
AcDbEntity
  8
LC-009-003-----0
 62
     7
370
    25
100
AcDbLine
 10
1750.0
 20
1043.478317
 30
0.0
 11
1747.585265
 21
1025.136587
 31
0.0
  0
LINE
  5
62D
330
619
100
AcDbEntity
  8
LC-009-003-----0
 62
     7
370
    25
100
AcDbLine
 10
1751.566314
 20
1025.080978
 30
0.0
 11
1750.0
 21
1036.978317
 31
0.0
  0
LINE
  5
62E
330
619
100
AcDbEntity
  8
LC-009-003-----0
 62
     7
370
    25
100
AcDbLine
 10
1750.0
 20
1036.978317
 30
0.0
 11
1748.433686
 21
1025.080978
 31
0.0
  0
LINE
  5
62F
330
619
100
AcDbEntity
  8
LC-009-003-----0
 62
     7
370
    25
100
AcDbLine
 10
1750.717894
 20
1025.02537
 30
0.0
 11
1750.0
 21
1030.478317
 31
0.0
  0
LINE
  5
630
330
619
100
AcDbEntity
  8
LC-009-003-----0
 62
     7
370
    25
100
AcDbLine
 10
1750.0
 20
1030.478317
 30
0.0
 11
1749.282106
 21
1025.02537
 31
0.0
  0
TEXT
  5
631
330
619
100
AcDbEntity
  8
LC-009-003-----0
 62
     7
370
    25
100
AcDbText
 10
1735.0
 20
904.022568
 30
0.0
 40
25.0
  1
485
 50
90.0
 41
0.7
  7
LCTX0-400-0-0pDIN-Schrift
 72
     1
 11
1735.0
 21
929.022568
 31
0.0
100
AcDbText
  0
ENDBLK
  5
61B
330
619
100
AcDbEntity
  8
0
100
AcDbBlockEnd
  0
BLOCK
  5
634
330
633
100
AcDbEntity
  8
0
100
AcDbBlockBegin
  2
LCDIM16
 70
     0
 71
     0
 10
0.0
 20
0.0
 30
0.0
  3
LCDIM16
  1

  4
LCDIM16
  0
TEXT
  5
636
330
633
100
AcDbEntity
  8
LC-009-003-----0
 62
     7
370
    25
100
AcDbText
 10
1285.652944
 20
1009.377711
 30
0.0
 40
25.0
  1
R40
 50
312.310211
 41
0.7
  7
LCTX0-400-0-0pDIN-Schrift
100
AcDbText
  0
LINE
  5
637
330
633
100
AcDbEntity
  8
LC-008-003-MTG-0
 62
     7
370
    25
100
AcDbLine
 10
1300.740943
 20
970.518669
 30
0.0
 11
1233.154576
 21
1044.768543
 31
0.0
  0
LINE
  5
638
330
633
100
AcDbEntity
  8
LC-009-003-----0
 62
     7
370
    25
100
AcDbLine
 10
1252.252351
 20
1028.635502
 30
0.0
 11
1233.154576
 21
1044.768543
 31
0.0
  0
LINE
  5
639
330
633
100
AcDbEntity
  8
LC-009-003-----0
 62
     7
370
    25
100
AcDbLine
 10
1233.154576
 20
1044.768543
 30
0.0
 11
1247.426072
 21
1024.242354
 31
0.0
  0
LINE
  5
63A
330
633
100
AcDbEntity
  8
LC-009-003-----0
 62
     7
370
    25
100
AcDbLine
 10
1247.426072
 20
1024.242354
 30
0.0
 11
1252.252351
 21
1028.635502
 31
0.0
  0
LINE
  5
63B
330
633
100
AcDbEntity
  8
LC-009-003-----0
 62
     7
370
    25
100
AcDbLine
 10
1251.662367
 20
1028.02327
 30
0.0
 11
1237.530014
 21
1039.96172
 31
0.0
  0
LINE
  5
63C
330
633
100
AcDbEntity
  8
LC-009-003-----0
 62
     7
370
    25
100
AcDbLine
 10
1237.530014
 20
1039.96172
 30
0.0
 11
1248.090921
 21
1024.77234
 31
0.0
  0
LINE
  5
63D
330
633
100
AcDbEntity
  8
LC-009-003-----0
 62
     7
370
    25
100
AcDbLine
 10
1251.072384
 20
1027.411037
 30
0.0
 11
1241.905452
 21
1035.154897
 31
0.0
  0
LINE
  5
63E
330
633
100
AcDbEntity
  8
LC-009-003-----0
 62
     7
370
    25
100
AcDbLine
 10
1241.905452
 20
1035.154897
 30
0.0
 11
1248.75577
 21
1025.302327
 31
0.0
  0
LINE
  5
63F
330
633
100
AcDbEntity
  8
LC-009-003-----0
 62
     7
370
    25
100
AcDbLine
 10
1250.4824
 20
1026.798805
 30
0.0
 11
1246.280889
 21
1030.348074
 31
0.0
  0
LINE
  5
640
330
633
100
AcDbEntity
  8
LC-009-003-----0
 62
     7
370
    25
100
AcDbLine
 10
1246.280889
 20
1030.348074
 30
0.0
 11
1249.420618
 21
1025.832313
 31
0.0
  0
ENDBLK
  5
635
330
633
100
AcDbEntity
  8
0
100
AcDbBlockEnd
  0
ENDSEC
  0
SECTION
  2
ENTITIES
  0
INSERT
  5
102
330
1F
100
AcDbEntity
  8
LC-003-230-ZVN-0
 62
     7
370
   211
100
AcDbBlockReference
  2
SYM1
 10
0.0
 20
0.0
 30
0.0
  0
LINE
  5
103
102
{ACAD_REACTORS
330
644
102
}
330
1F
100
AcDbEntity
  8
LC-002-002-----0
 62
     7
370
    50
100
AcDbLine
 10
1320.695399
 20
2675.85
 30
0.0
 11
1304.195399
 21
2675.85
 31
0.0
  0
LINE
  5
104
102
{ACAD_REACTORS
330
644
102
}
330
1F
100
AcDbEntity
  8
LC-002-002-----0
 62
     7
370
    50
100
AcDbLine
 10
1104.97254
 20
2471.389289
 30
0.0
 11
1247.625226
 21
2481.364541
 31
0.0
  0
ARC
  5
106
102
{ACAD_REACTORS
330
644
102
}
330
1F
100
AcDbEntity
  8
LC-004-002-RND-0
 62
     7
370
    50
100
AcDbCircle
 10
1239.639769
 20
2513.886726
 30
0.0
 40
24.99999999999987
100
AcDbArc
 50
274.000002
 51
354.0
  0
LINE
  5
107
102
{ACAD_REACTORS
330
644
102
}
330
1F
100
AcDbEntity
  8
LC-002-002-----0
 62
     7
370
    25
100
AcDbLine
 10
378.223051
 20
2675.85
 30
0.0
 11
375.412994
 21
2656.318438
 31
0.0
  0
LINE
  5
108
102
{ACAD_REACTORS
330
644
102
}
330
1F
100
AcDbEntity
  8
LC-002-002-----0
 62
     7
370
    25
100
AcDbLine
 10
980.445399
 20
2478.85
 30
0.0
 11
1096.945399
 21
2478.85
 31
0.0
  0
LINE
  5
109
102
{ACAD_REACTORS
330
644
102
}
330
1F
100
AcDbEntity
  8
LC-002-002-----0
 62
     7
370
    50
100
AcDbLine
 10
1084.56364
 20
2474.697615
 30
0.0
 11
1096.014752
 21
2476.716755
 31
0.0
  0
LINE
  5
10A
102
{ACAD_REACTORS
330
644
102
}
330
1F
100
AcDbEntity
  8
LC-002-002-----0
 62
     7
370
    50
100
AcDbLine
 10
1101.387862
 20
2468.434309
 30
0.0
 11
1101.092597
 21
2467.332362
 31
0.0
  0
ARC
  5
10B
102
{ACAD_REACTORS
330
644
102
}
330
1F
100
AcDbEntity
  8
LC-004-002-RND-0
 62
     7
370
    50
100
AcDbCircle
 10
981.549694
 20
2477.701563
 30
0.0
 40
0.9999999999998799
100
AcDbArc
 50
185.0
 51
260.0
  0
LINE
  5
10C
102
{ACAD_REACTORS
330
644
102
}
330
1F
100
AcDbEntity
  8
LC-002-002-----0
 62
     7
370
    50
100
AcDbLine
 10
470.695399
 20
2675.85
 30
0.0
 11
470.695399
 21
2637.85
 31
0.0
  0
ARC
  5
10D
102
{ACAD_REACTORS
330
644
102
}
330
1F
100
AcDbEntity
  8
LC-004-002-RND-0
 62
     7
370
    50
100
AcDbCircle
 10
979.523642
 20
2477.912014
 30
0.0
 40
0.9999999999998799
100
AcDbArc
 50
5.0
 51
86.0
  0
ARC
  5
10E
102
{ACAD_REACTORS
330
644
102
}
330
1F
100
AcDbEntity
  8
LC-004-002-RND-0
 62
     7
370
    50
100
AcDbCircle
 10
1097.867156
 20
2477.912014
 30
0.0
 40
0.9999999999995273
100
AcDbArc
 50
94.0
 51
175.0
  0
LINE
  5
10F
102
{ACAD_REACTORS
330
644
102
}
330
1F
100
AcDbEntity
  8
LC-002-002-----0
 62
     7
370
    50
100
AcDbLine
 10
1096.837299
 20
2477.614407
 30
0.0
 11
1096.870961
 21
2477.999169
 31
0.0
  0
ARC
  5
110
102
{ACAD_REACTORS
330
644
102
}
330
1F
100
AcDbEntity
  8
LC-004-002-RND-0
 62
     7
370
    50
100
AcDbCircle
 10
1099.160745
 20
2467.85
 30
0.0
 40
2.0
100
AcDbArc
 50
270.0
 51
345.0
  0
ARC
  5
111
102
{ACAD_REACTORS
330
644
102
}
330
1F
100
AcDbEntity
  8
LC-004-002-RND-0
 62
     7
370
    50
100
AcDbCircle
 10
1105.251566
 20
2467.399033
 30
0.0
 40
3.999999999999916
100
AcDbArc
 50
94.000002
 51
165.0
  0
ARC
  5
112
102
{ACAD_REACTORS
330
644
102
}
330
1F
100
AcDbEntity
  8
LC-004-002-RND-0
 62
     7
370
    50
100
AcDbCircle
 10
1095.841104
 20
2477.701563
 30
0.0
 40
1.000000000000125
100
AcDbArc
 50
280.0
 51
355.0
  0
ARC
  5
113
102
{ACAD_REACTORS
330
644
102
}
330
1F
100
AcDbEntity
  8
LC-004-002-RND-0
 62
     7
370
    50
100
AcDbCircle
 10
1085.431881
 20
2469.773576
 30
0.0
 40
4.999999999999531
100
AcDbArc
 50
100.0
 51
110.322037
  0
LINE
  5
114
102
{ACAD_REACTORS
330
644
102
}
330
1F
100
AcDbEntity
  8
LC-002-002-----0
 62
     7
370
    50
100
AcDbLine
 10
992.827158
 20
2474.697615
 30
0.0
 11
981.376046
 21
2476.716755
 31
0.0
  0
ARC
  5
115
102
{ACAD_REACTORS
330
644
102
}
330
1F
100
AcDbEntity
  8
LC-004-002-RND-0
 62
     7
370
    50
100
AcDbCircle
 10
991.958917
 20
2469.773576
 30
0.0
 40
4.999999999999561
100
AcDbArc
 50
69.677963
 51
80.0
  0
LINE
  5
116
102
{ACAD_REACTORS
330
644
102
}
330
1F
100
AcDbEntity
  8
LC-002-002-----0
 62
     7
370
    50
100
AcDbLine
 10
978.230053
 20
2465.85
 30
0.0
 11
993.695399
 21
2465.85
 31
0.0
  0
ARC
  5
117
102
{ACAD_REACTORS
330
644
102
}
330
1F
100
AcDbEntity
  8
LC-004-002-RND-0
 62
     7
370
    50
100
AcDbCircle
 10
978.230053
 20
2467.85
 30
0.0
 40
2.000000000000002
100
AcDbArc
 50
195.0
 51
270.0
  0
LINE
  5
118
102
{ACAD_REACTORS
330
644
102
}
330
1F
100
AcDbEntity
  8
LC-002-002-----0
 62
     7
370
    50
100
AcDbLine
 10
976.002935
 20
2468.434309
 30
0.0
 11
976.298201
 21
2467.332362
 31
0.0
  0
ARC
  5
119
102
{ACAD_REACTORS
330
644
102
}
330
1F
100
AcDbEntity
  8
LC-004-002-RND-0
 62
     7
370
    50
100
AcDbCircle
 10
972.139232
 20
2467.399033
 30
0.0
 40
4.000000000000004
100
AcDbArc
 50
15.0
 51
85.999998
  0
LINE
  5
11A
102
{ACAD_REACTORS
330
644
102
}
330
1F
100
AcDbEntity
  8
LC-002-002-----0
 62
     7
370
    50
100
AcDbLine
 10
470.695399
 20
2675.85
 30
0.0
 11
378.223051
 21
2675.85
 31
0.0
  0
LINE
  5
11B
102
{ACAD_REACTORS
330
644
102
}
330
1F
100
AcDbEntity
  8
LC-002-002-----0
 62
     7
370
    50
100
AcDbLine
 10
993.695399
 20
2465.85
 30
0.0
 11
993.695399
 21
2474.462354
 31
0.0
  0
LINE
  5
11C
102
{ACAD_REACTORS
330
644
102
}
330
1F
100
AcDbEntity
  8
LC-002-002-----0
 62
     7
370
    50
100
AcDbLine
 10
1083.695399
 20
2465.85
 30
0.0
 11
1083.695399
 21
2474.462353
 31
0.0
  0
LINE
  5
11D
102
{ACAD_REACTORS
330
644
102
}
330
1F
100
AcDbEntity
  8
LC-002-002-----0
 62
     7
370
    50
100
AcDbLine
 10
980.553499
 20
2477.614407
 30
0.0
 11
980.519837
 21
2477.999169
 31
0.0
  0
LINE
  5
11E
102
{ACAD_REACTORS
330
644
102
}
330
1F
100
AcDbEntity
  8
LC-002-002-----0
 62
     7
370
    50
100
AcDbLine
 10
928.349887
 20
2674.90598
 30
0.0
 11
490.068563
 21
2679.495819
 31
0.0
  0
LINE
  5
11F
102
{ACAD_REACTORS
330
644
102
}
330
1F
100
AcDbEntity
  8
LC-002-002-----0
 62
     7
370
    50
100
AcDbLine
 10
1099.160745
 20
2465.85
 30
0.0
 11
1083.695399
 21
2465.85
 31
0.0
  0
LINE
  5
120
102
{ACAD_REACTORS
330
644
102
}
330
1F
100
AcDbEntity
  8
LC-002-002-----0
 62
     7
370
    50
100
AcDbLine
 10
979.593399
 20
2478.909578
 30
0.0
 11
975.13449
 21
2479.221375
 31
0.0
  0
LINE
  5
121
102
{ACAD_REACTORS
330
644
102
}
330
1F
100
AcDbEntity
  8
LC-002-002-----0
 62
     7
370
    50
100
AcDbLine
 10
486.585388
 20
2680.960011
 30
0.0
 11
484.281185
 21
2683.264214
 31
0.0
  0
LINE
  5
122
102
{ACAD_REACTORS
330
644
102
}
330
1F
100
AcDbEntity
  8
LC-002-002-----0
 62
     7
370
    50
100
AcDbLine
 10
972.418258
 20
2471.389289
 30
0.0
 11
968.787327
 21
2471.643189
 31
0.0
  0
LINE
  5
123
102
{ACAD_REACTORS
330
644
102
}
330
1F
100
AcDbEntity
  8
LC-002-002-----0
 62
     7
370
    50
100
AcDbLine
 10
470.695399
 20
2637.85
 30
0.0
 11
378.223051
 21
2637.85
 31
0.0
  0
LINE
  5
124
102
{ACAD_REACTORS
330
644
102
}
330
1F
100
AcDbEntity
  8
LC-002-002-----0
 62
     7
370
    25
100
AcDbLine
 10
375.412994
 20
2656.318438
 30
0.0
 11
378.223051
 21
2637.85
 31
0.0
  0
LINE
  5
127
102
{ACAD_REACTORS
330
644
102
}
330
1F
100
AcDbEntity
  8
LC-005-006-MLN-0
 62
     7
370
    25
100
AcDbLine
 10
928.059454
 20
2632.804715
 30
0.0
 11
940.988238
 21
2634.163585
 31
0.0
  0
LINE
  5
128
102
{ACAD_REACTORS
330
644
102
}
330
1F
100
AcDbEntity
  8
LC-002-002-----0
 62
     7
370
    50
100
AcDbLine
 10
993.695399
 20
2474.462353
 30
0.0
 11
1083.695399
 21
2474.462353
 31
0.0
  0
LINE
  5
129
102
{ACAD_REACTORS
330
648
102
}
330
1F
100
AcDbEntity
  8
LC-002-002-----0
 62
     7
370
    50
100
AcDbLine
 10
1618.377752
 20
1868.06
 30
0.0
 11
1618.377752
 21
1778.06
 31
0.0
  0
LINE
  5
12A
102
{ACAD_REACTORS
330
64D
102
}
330
1F
100
AcDbEntity
  8
LC-002-002-----0
 62
     7
370
    25
100
AcDbLine
 10
1492.185636
 20
1961.091008
 30
0.0
 11
1575.928603
 21
1981.532944
 31
0.0
  0
ARC
  5
12B
102
{ACAD_REACTORS
330
644
102
}
330
1F
100
AcDbEntity
  8
LC-004-002-RND-0
 62
     7
370
    50
100
AcDbCircle
 10
501.607469
 20
2668.374376
 30
0.0
 40
3.000000000000029
100
AcDbArc
 50
89.4
 51
153.0
  0
ARC
  5
12C
102
{ACAD_REACTORS
330
644
102
}
330
1F
100
AcDbEntity
  8
LC-004-002-RND-0
 62
     7
370
    50
100
AcDbCircle
 10
489.479952
 20
2684.502257
 30
0.0
 40
12.99999999999992
100
AcDbArc
 50
241.215218
 51
269.4
  0
ARC
  5
12D
102
{ACAD_REACTORS
330
644
102
}
330
1F
100
AcDbEntity
  8
LC-004-002-RND-0
 62
     7
370
    50
100
AcDbCircle
 10
1287.097823
 20
2668.85
 30
0.0
 40
6.0
100
AcDbArc
 50
90.0
 51
174.0
  0
ARC
  5
12E
102
{ACAD_REACTORS
330
644
102
}
330
1F
100
AcDbEntity
  8
LC-004-002-RND-0
 62
     7
370
    50
100
AcDbCircle
 10
1245.881313
 20
2506.303642
 30
0.0
 40
24.99999999999987
100
AcDbArc
 50
274.000002
 51
354.0
  0
LINE
  5
12F
102
{ACAD_REACTORS
330
64D
102
}
330
1F
100
AcDbEntity
  8
LC-002-002-----0
 62
     7
370
    25
100
AcDbLine
 10
1496.017975
 20
1945.391348
 30
0.0
 11
1579.760942
 21
1965.833284
 31
0.0
  0
LINE
  5
130
102
{ACAD_REACTORS
330
643
102
}
330
1F
100
AcDbEntity
  8
LC-002-002-----0
 62
     7
370
    25
100
AcDbLine
 10
1264.505399
 20
1974.06
 30
0.0
 11
1264.505399
 21
1672.06
 31
0.0
  0
ARC
  5
131
102
{ACAD_REACTORS
330
643
102
}
330
1F
100
AcDbEntity
  8
LC-002-002-----0
 62
     7
370
    25
100
AcDbCircle
 10
1221.695399
 20
1672.06
 30
0.0
 40
42.80999999999995
100
AcDbArc
 50
270.0
 51
0.0
  0
LINE
  5
132
102
{ACAD_REACTORS
330
643
102
}
330
1F
100
AcDbEntity
  8
LC-002-002-----0
 62
     7
370
    25
100
AcDbLine
 10
1221.695399
 20
1629.25
 30
0.0
 11
1038.695399
 21
1629.25
 31
0.0
  0
ARC
  5
133
102
{ACAD_REACTORS
330
643
102
}
330
1F
100
AcDbEntity
  8
LC-002-002-----0
 62
     7
370
    25
100
AcDbCircle
 10
1038.695399
 20
1717.06
 30
0.0
 40
87.80999999999995
100
AcDbArc
 50
180.0
 51
270.0
  0
LINE
  5
134
102
{ACAD_REACTORS
330
643
102
}
330
1F
100
AcDbEntity
  8
LC-002-002-----0
 62
     7
370
    25
100
AcDbLine
 10
950.885399
 20
1717.06
 30
0.0
 11
950.885399
 21
1929.06
 31
0.0
  0
ARC
  5
135
102
{ACAD_REACTORS
330
643
102
}
330
1F
100
AcDbEntity
  8
LC-002-002-----0
 62
     7
370
    25
100
AcDbCircle
 10
1038.695399
 20
1929.06
 30
0.0
 40
87.80999999999995
100
AcDbArc
 50
90.0
 51
180.0
  0
LINE
  5
136
102
{ACAD_REACTORS
330
643
102
}
330
1F
100
AcDbEntity
  8
LC-002-002-----0
 62
     7
370
    25
100
AcDbLine
 10
1038.695399
 20
2016.87
 30
0.0
 11
1221.695399
 21
2016.87
 31
0.0
  0
ARC
  5
137
102
{ACAD_REACTORS
330
643
102
}
330
1F
100
AcDbEntity
  8
LC-002-002-----0
 62
     7
370
    25
100
AcDbCircle
 10
1221.695399
 20
1974.06
 30
0.0
 40
42.80999999999995
100
AcDbArc
 50
0.0
 51
90.0
  0
ARC
  5
138
102
{ACAD_REACTORS
330
644
102
}
330
1F
100
AcDbEntity
  8
LC-004-002-RND-0
 62
     7
370
    50
100
AcDbCircle
 10
970.531239
 20
2496.58229
 30
0.0
 40
24.99999999999979
100
AcDbArc
 50
186.0
 51
265.999998
  0
ARC
  5
139
102
{ACAD_REACTORS
330
644
102
}
330
1F
100
AcDbEntity
  8
LC-004-002-RND-0
 62
     7
370
    50
100
AcDbCircle
 10
928.287056
 20
2668.906309
 30
0.0
 40
6.000000000000056
100
AcDbArc
 50
6.0
 51
89.4
  0
ARC
  5
13A
102
{ACAD_REACTORS
330
644
102
}
330
1F
100
AcDbEntity
  8
LC-004-002-RND-0
 62
     7
370
    50
100
AcDbCircle
 10
976.878402
 20
2504.160476
 30
0.0
 40
24.99999999999988
100
AcDbArc
 50
186.0
 51
266.0
  0
ARC
  5
13B
102
{ACAD_REACTORS
330
644
102
}
330
1F
100
AcDbEntity
  8
LC-004-002-RND-0
 62
     7
370
    50
100
AcDbCircle
 10
1289.612495
 20
2679.85
 30
0.0
 40
5.0
100
AcDbArc
 50
270.0
 51
329.999997
  0
ARC
  5
13C
102
{ACAD_REACTORS
330
644
102
}
330
1F
100
AcDbEntity
  8
LC-004-002-RND-0
 62
     7
370
    50
100
AcDbCircle
 10
1287.856542
 20
2656.935182
 30
0.0
 40
0.999999999999897
100
AcDbArc
 50
27.0
 51
174.0
  0
LINE
  5
13E
102
{ACAD_REACTORS
330
64C
102
}
330
1F
100
AcDbEntity
  8
LC-002-002-----0
  6
DASHDOT
 62
     7
370
    25
100
AcDbLine
 10
819.591949
 20
780.145824
 30
0.0
 11
819.591949
 21
1077.389257
 31
0.0
  0
ARC
  5
13F
102
{ACAD_REACTORS
330
644
102
}
330
1F
100
AcDbEntity
  8
LC-002-002-----0
 62
     7
370
    50
100
AcDbCircle
 10
1289.612495
 20
2679.85
 30
0.0
 40
12.50000000000025
100
AcDbArc
 50
276.776381
 51
326.514623
  0
LINE
  5
140
102
{ACAD_REACTORS
330
644
102
}
330
1F
100
AcDbEntity
  8
LC-002-002-----0
 62
     7
370
    50
100
AcDbLine
 10
1303.195399
 20
2673.85
 30
0.0
 11
1301.705881
 21
2673.85
 31
0.0
  0
LINE
  5
141
102
{ACAD_REACTORS
330
644
102
}
330
1F
100
AcDbEntity
  8
LC-002-002-----0
 62
     7
370
    50
100
AcDbLine
 10
1320.695399
 20
2675.85
 30
0.0
 11
1320.266082
 21
2681.989513
 31
0.0
  0
ARC
  5
142
102
{ACAD_REACTORS
330
644
102
}
330
1F
100
AcDbEntity
  8
LC-004-002-RND-0
 62
     7
370
    50
100
AcDbCircle
 10
1318.270954
 20
2681.85
 30
0.0
 40
2.000000000000025
100
AcDbArc
 50
4.0
 51
90.0
  0
LINE
  5
144
102
{ACAD_REACTORS
330
644
102
}
330
1F
100
AcDbEntity
  8
LC-006-002-___-0
 62
     7
370
    50
100
AcDbLine
 10
1303.195399
 20
2673.85
 30
0.0
 11
1303.195399
 21
2672.570236
 31
0.0
  0
LINE
  5
145
102
{ACAD_REACTORS
330
64C
102
}
330
1F
100
AcDbEntity
  8
LC-002-002-----0
  6
DASHDOT
 62
     7
370
    25
100
AcDbLine
 10
810.091949
 20
780.145824
 30
0.0
 11
810.091949
 21
1077.389257
 31
0.0
  0
ARC
  5
146
102
{ACAD_REACTORS
330
643
102
}
330
1F
100
AcDbEntity
  8
LC-004-002-RND-0
 62
     7
370
    50
100
AcDbCircle
 10
1272.695399
 20
2025.06
 30
0.0
 40
25.0
100
AcDbArc
 50
0.0
 51
90.0
  0
ARC
  5
147
102
{ACAD_REACTORS
330
643
102
}
330
1F
100
AcDbEntity
  8
LC-004-002-RND-0
 62
     7
370
    25
100
AcDbCircle
 10
794.695399
 20
1929.06
 30
0.0
 40
104.9999999999998
100
AcDbArc
 50
12.455793
 51
17.104635
  0
ARC
  5
148
102
{ACAD_REACTORS
330
644
102
}
330
1F
100
AcDbEntity
  8
LC-004-002-RND-0
 62
     7
370
    50
100
AcDbCircle
 10
1300.195399
 20
2672.570236
 30
0.0
 40
2.999999999999496
100
AcDbArc
 50
333.0
 51
0.0
  0
ARC
  5
149
102
{ACAD_REACTORS
330
643
102
}
330
1F
100
AcDbEntity
  8
LC-004-002-RND-0
 62
     7
370
    50
100
AcDbCircle
 10
1272.695399
 20
1621.06
 30
0.0
 40
25.0
100
AcDbArc
 50
270.0
 51
0.0
  0
LINE
  5
14A
102
{ACAD_REACTORS
330
644
102
}
330
1F
100
AcDbEntity
  8
LC-002-002-----0
 62
     7
370
    50
100
AcDbLine
 10
1289.612495
 20
2674.85
 30
0.0
 11
933.695399
 21
2674.85
 31
0.0
  0
ARC
  5
14B
102
{ACAD_REACTORS
330
644
102
}
330
1F
100
AcDbEntity
  8
LC-004-002-RND-0
 62
     7
370
    50
100
AcDbCircle
 10
1301.705881
 20
2671.85
 30
0.0
 40
2.0
100
AcDbArc
 50
90.0
 51
146.514623
  0
LINE
  5
14C
102
{ACAD_REACTORS
330
644
102
}
330
1F
100
AcDbEntity
  8
LC-002-002-----0
 62
     7
370
    50
100
AcDbLine
 10
1287.581319
 20
2663.883379
 30
0.0
 11
1270.74436
 21
2503.690431
 31
0.0
  0
ARC
  5
14D
102
{ACAD_REACTORS
330
644
102
}
330
1F
100
AcDbEntity
  8
LC-004-002-RND-0
 62
     7
370
    50
100
AcDbCircle
 10
1291.559406
 20
2663.465265
 30
0.0
 40
4.000000000000355
100
AcDbArc
 50
96.776381
 51
174.0
  0
LINE
  5
14E
102
{ACAD_REACTORS
330
644
102
}
330
1F
100
AcDbEntity
  8
LC-002-002-----0
 62
     7
370
    50
100
AcDbLine
 10
1303.195399
 20
2674.85
 30
0.0
 11
1303.195399
 21
2673.85
 31
0.0
  0
ARC
  5
14F
102
{ACAD_REACTORS
330
643
102
}
330
1F
100
AcDbEntity
  8
LC-006-002-___-0
 62
     7
370
    25
100
AcDbCircle
 10
555.695399
 20
1974.06
 30
0.0
 40
60.00000000000252
100
AcDbArc
 50
170.91528
 51
178.994759
  0
ARC
  5
150
102
{ACAD_REACTORS
330
643
102
}
330
1F
100
AcDbEntity
  8
LC-004-002-RND-0
 62
     7
370
    25
100
AcDbCircle
 10
555.695399
 20
1974.06
 30
0.0
 40
59.99999999999977
100
AcDbArc
 50
90.0
 51
120.722791
  0
ARC
  5
151
102
{ACAD_REACTORS
330
643
102
}
330
1F
100
AcDbEntity
  8
LC-004-002-RND-0
 62
     7
370
    25
100
AcDbCircle
 10
509.219599
 20
2007.06
 30
0.0
 40
3.0
100
AcDbArc
 50
90.0
 51
144.62346
  0
ARC
  5
152
102
{ACAD_REACTORS
330
643
102
}
330
1F
100
AcDbEntity
  8
LC-004-002-RND-0
 62
     7
370
    25
100
AcDbCircle
 10
504.470405
 20
1999.06
 30
0.0
 40
3.000000000000022
100
AcDbArc
 50
153.985634
 51
270.0
  0
ARC
  5
153
102
{ACAD_REACTORS
330
643
102
}
330
1F
100
AcDbEntity
  8
LC-004-002-RND-0
 62
     7
370
    25
100
AcDbCircle
 10
794.695399
 20
1929.06
 30
0.0
 40
105.0
100
AcDbArc
 50
0.0
 51
3.372287
  0
LINE
  5
154
102
{ACAD_REACTORS
330
643
102
}
330
1F
100
AcDbEntity
  8
LC-002-002-----0
 62
     7
370
    25
100
AcDbLine
 10
899.695399
 20
1927.06
 30
0.0
 11
899.695399
 21
1929.06
 31
0.0
  0
ARC
  5
155
102
{ACAD_REACTORS
330
643
102
}
330
1F
100
AcDbEntity
  8
LC-004-002-RND-0
 62
     7
370
    25
100
AcDbCircle
 10
896.518775
 20
1935.06
 30
0.0
 40
3.000000000000015
100
AcDbArc
 50
3.372287
 51
90.0
  0
ARC
  5
156
102
{ACAD_REACTORS
330
643
102
}
330
1F
100
AcDbEntity
  8
LC-004-002-RND-0
 62
     7
370
    25
100
AcDbCircle
 10
896.695399
 20
1927.06
 30
0.0
 40
3.0
100
AcDbArc
 50
270.0
 51
0.0
  0
ARC
  5
157
102
{ACAD_REACTORS
330
643
102
}
330
1F
100
AcDbEntity
  8
LC-006-002-___-0
 62
     7
370
    25
100
AcDbCircle
 10
499.41041
 20
1983.06
 30
0.0
 40
3.0
100
AcDbArc
 50
90.0
 51
170.91528
  0
ARC
  5
158
102
{ACAD_REACTORS
330
643
102
}
330
1F
100
AcDbEntity
  8
LC-004-002-RND-0
 62
     7
370
    25
100
AcDbCircle
 10
498.704172
 20
1975.06
 30
0.0
 40
2.999999999999944
100
AcDbArc
 50
178.994759
 51
270.0
  0
LINE
  5
159
102
{ACAD_REACTORS
330
643
102
}
330
1F
100
AcDbEntity
  8
LC-002-002-----0
 62
     7
370
    25
100
AcDbLine
 10
498.695399
 20
1924.06
 30
0.0
 11
896.695399
 21
1924.06
 31
0.0
  0
LINE
  5
15A
102
{ACAD_REACTORS
330
643
102
}
330
1F
100
AcDbEntity
  8
LC-002-002-----0
 62
     7
370
    25
100
AcDbLine
 10
896.518775
 20
1938.06
 30
0.0
 11
498.695399
 21
1938.06
 31
0.0
  0
ARC
  5
15B
102
{ACAD_REACTORS
330
643
102
}
330
1F
100
AcDbEntity
  8
LC-004-002-RND-0
 62
     7
370
    25
100
AcDbCircle
 10
794.695399
 20
1929.06
 30
0.0
 40
105.0
100
AcDbArc
 50
26.806602
 51
31.965719
  0
ARC
  5
15C
102
{ACAD_REACTORS
330
643
102
}
330
1F
100
AcDbEntity
  8
LC-004-002-RND-0
 62
     7
370
    25
100
AcDbCircle
 10
892.18386
 20
1959.06
 30
0.0
 40
2.999999999999922
100
AcDbArc
 50
17.104635
 51
90.0
  0
ARC
  5
15D
102
{ACAD_REACTORS
330
643
102
}
330
1F
100
AcDbEntity
  8
LC-004-002-RND-0
 62
     7
370
    25
100
AcDbCircle
 10
894.294596
 20
1951.06
 30
0.0
 40
3.000000000000227
100
AcDbArc
 50
270.0
 51
12.455793
  0
ARC
  5
15E
102
{ACAD_REACTORS
330
643
102
}
330
1F
100
AcDbEntity
  8
LC-002-002-----0
 62
     7
370
    25
100
AcDbCircle
 10
498.695399
 20
1927.06
 30
0.0
 40
3.0
100
AcDbArc
 50
180.0
 51
270.0
  0
LINE
  5
15F
102
{ACAD_REACTORS
330
643
102
}
330
1F
100
AcDbEntity
  8
LC-002-002-----0
 62
     7
370
    25
100
AcDbLine
 10
495.695399
 20
1927.06
 30
0.0
 11
495.695399
 21
1935.06
 31
0.0
  0
ARC
  5
160
102
{ACAD_REACTORS
330
643
102
}
330
1F
100
AcDbEntity
  8
LC-002-002-----0
 62
     7
370
    25
100
AcDbCircle
 10
498.695399
 20
1935.06
 30
0.0
 40
3.0
100
AcDbArc
 50
90.0
 51
180.0
  0
LINE
  5
161
102
{ACAD_REACTORS
330
643
102
}
330
1F
100
AcDbEntity
  8
LC-002-002-----0
 62
     7
370
    25
100
AcDbLine
 10
498.695399
 20
1900.06
 30
0.0
 11
896.695399
 21
1900.06
 31
0.0
  0
LINE
  5
162
102
{ACAD_REACTORS
330
644
102
}
330
1F
100
AcDbEntity
  8
LC-002-002-----0
 62
     7
370
    50
100
AcDbLine
 10
1302.868419
 20
2671.208265
 30
0.0
 11
1294.069407
 21
2653.939232
 31
0.0
  0
ARC
  5
163
102
{ACAD_REACTORS
330
643
102
}
330
1F
100
AcDbEntity
  8
LC-004-002-RND-0
 62
     7
370
    50
100
AcDbCircle
 10
508.695399
 20
2025.06
 30
0.0
 40
25.0
100
AcDbArc
 50
90.0
 51
180.0
  0
ARC
  5
164
102
{ACAD_REACTORS
330
644
102
}
330
1F
100
AcDbEntity
  8
LC-004-002-RND-0
 62
     7
370
    50
100
AcDbCircle
 10
1292.287394
 20
2654.847213
 30
0.0
 40
2.000000000069759
100
AcDbArc
 50
207.0
 51
333.0
  0
ARC
  5
165
102
{ACAD_REACTORS
330
643
102
}
330
1F
100
AcDbEntity
  8
LC-004-002-RND-0
 62
     7
370
    50
100
AcDbCircle
 10
508.695399
 20
1621.06
 30
0.0
 40
25.0
100
AcDbArc
 50
180.0
 51
270.0
  0
ARC
  5
166
102
{ACAD_REACTORS
330
643
102
}
330
1F
100
AcDbEntity
  8
LC-004-002-RND-0
 62
     7
370
    25
100
AcDbCircle
 10
794.695399
 20
1717.06
 30
0.0
 40
105.0000000000016
100
AcDbArc
 50
270.0
 51
292.843507
  0
LINE
  5
167
102
{ACAD_REACTORS
330
643
102
}
330
1F
100
AcDbEntity
  8
LC-002-002-----0
 62
     7
370
    25
100
AcDbLine
 10
498.695399
 20
1914.06
 30
0.0
 11
896.695399
 21
1914.06
 31
0.0
  0
ARC
  5
168
102
{ACAD_REACTORS
330
643
102
}
330
1F
100
AcDbEntity
  8
LC-002-002-----0
 62
     7
370
    25
100
AcDbCircle
 10
896.695399
 20
1903.06
 30
0.0
 40
3.0
100
AcDbArc
 50
270.0
 51
0.0
  0
ARC
  5
169
102
{ACAD_REACTORS
330
644
102
}
330
1F
100
AcDbEntity
  8
LC-002-002-----0
 62
     7
370
    50
100
AcDbCircle
 10
1304.195399
 20
2674.85
 30
0.0
 40
1.0
100
AcDbArc
 50
90.0
 51
180.0
  0
ARC
  5
16A
102
{ACAD_REACTORS
330
643
102
}
330
1F
100
AcDbEntity
  8
LC-004-002-RND-0
 62
     7
370
    25
100
AcDbCircle
 10
794.695399
 20
1929.06
 30
0.0
 40
104.9999999999957
100
AcDbArc
 50
43.335923
 51
49.880833
  0
ARC
  5
16B
102
{ACAD_REACTORS
330
643
102
}
330
1F
100
AcDbEntity
  8
LC-004-002-RND-0
 62
     7
370
    50
100
AcDbCircle
 10
1038.695399
 20
1717.06
 30
0.0
 40
105.0
100
AcDbArc
 50
180.0
 51
270.0
  0
ARC
  5
16C
102
{ACAD_REACTORS
330
643
102
}
330
1F
100
AcDbEntity
  8
LC-004-002-RND-0
 62
     7
370
    25
100
AcDbCircle
 10
881.22863
 20
1983.06
 30
0.0
 40
3.000000000000097
100
AcDbArc
 50
31.965719
 51
90.0
  0
ARC
  5
16D
102
{ACAD_REACTORS
330
643
102
}
330
1F
100
AcDbEntity
  8
LC-004-002-RND-0
 62
     7
370
    50
100
AcDbCircle
 10
1038.695399
 20
1929.06
 30
0.0
 40
105.0
100
AcDbArc
 50
90.0
 51
180.0
  0
LINE
  5
16E
102
{ACAD_REACTORS
330
643
102
}
330
1F
100
AcDbEntity
  8
LC-002-002-----0
 62
     7
370
    25
100
AcDbLine
 10
899.695399
 20
1903.06
 30
0.0
 11
899.695399
 21
1911.06
 31
0.0
  0
ARC
  5
16F
102
{ACAD_REACTORS
330
643
102
}
330
1F
100
AcDbEntity
  8
LC-002-002-----0
 62
     7
370
    25
100
AcDbCircle
 10
896.695399
 20
1911.06
 30
0.0
 40
3.0
100
AcDbArc
 50
0.0
 51
90.0
  0
ARC
  5
170
102
{ACAD_REACTORS
330
643
102
}
330
1F
100
AcDbEntity
  8
LC-002-002-----0
 62
     7
370
    25
100
AcDbCircle
 10
498.695399
 20
1903.06
 30
0.0
 40
3.0
100
AcDbArc
 50
180.0
 51
270.0
  0
LINE
  5
171
102
{ACAD_REACTORS
330
643
102
}
330
1F
100
AcDbEntity
  8
LC-002-002-----0
 62
     7
370
    25
100
AcDbLine
 10
495.695399
 20
1903.06
 30
0.0
 11
495.695399
 21
1911.06
 31
0.0
  0
ARC
  5
172
102
{ACAD_REACTORS
330
643
102
}
330
1F
100
AcDbEntity
  8
LC-002-002-----0
 62
     7
370
    25
100
AcDbCircle
 10
498.695399
 20
1911.06
 30
0.0
 40
3.0
100
AcDbArc
 50
90.0
 51
180.0
  0
LINE
  5
173
102
{ACAD_REACTORS
330
643
102
}
330
1F
100
AcDbEntity
  8
LC-002-002-----0
 62
     7
370
    25
100
AcDbLine
 10
498.695399
 20
1876.06
 30
0.0
 11
896.695399
 21
1876.06
 31
0.0
  0
LINE
  5
174
102
{ACAD_REACTORS
330
643
102
}
330
1F
100
AcDbEntity
  8
LC-002-002-----0
 62
     7
370
    25
100
AcDbLine
 10
498.695399
 20
1890.06
 30
0.0
 11
896.695399
 21
1890.06
 31
0.0
  0
ARC
  5
175
102
{ACAD_REACTORS
330
643
102
}
330
1F
100
AcDbEntity
  8
LC-002-002-----0
 62
     7
370
    25
100
AcDbCircle
 10
896.695399
 20
1879.06
 30
0.0
 40
3.0
100
AcDbArc
 50
270.0
 51
0.0
  0
LINE
  5
176
102
{ACAD_REACTORS
330
643
102
}
330
1F
100
AcDbEntity
  8
LC-002-002-----0
 62
     7
370
    25
100
AcDbLine
 10
899.695399
 20
1879.06
 30
0.0
 11
899.695399
 21
1887.06
 31
0.0
  0
ARC
  5
177
102
{ACAD_REACTORS
330
643
102
}
330
1F
100
AcDbEntity
  8
LC-002-002-----0
 62
     7
370
    25
100
AcDbCircle
 10
896.695399
 20
1887.06
 30
0.0
 40
3.0
100
AcDbArc
 50
0.0
 51
90.0
  0
ARC
  5
178
102
{ACAD_REACTORS
330
643
102
}
330
1F
100
AcDbEntity
  8
LC-002-002-----0
 62
     7
370
    25
100
AcDbCircle
 10
498.695399
 20
1879.06
 30
0.0
 40
3.0
100
AcDbArc
 50
180.0
 51
270.0
  0
LINE
  5
179
102
{ACAD_REACTORS
330
643
102
}
330
1F
100
AcDbEntity
  8
LC-002-002-----0
 62
     7
370
    25
100
AcDbLine
 10
495.695399
 20
1879.06
 30
0.0
 11
495.695399
 21
1887.06
 31
0.0
  0
ARC
  5
17A
102
{ACAD_REACTORS
330
643
102
}
330
1F
100
AcDbEntity
  8
LC-002-002-----0
 62
     7
370
    25
100
AcDbCircle
 10
498.695399
 20
1887.06
 30
0.0
 40
3.0
100
AcDbArc
 50
90.0
 51
180.0
  0
LINE
  5
17B
102
{ACAD_REACTORS
330
643
102
}
330
1F
100
AcDbEntity
  8
LC-002-002-----0
 62
     7
370
    25
100
AcDbLine
 10
498.695399
 20
1852.06
 30
0.0
 11
896.695399
 21
1852.06
 31
0.0
  0
LINE
  5
17C
102
{ACAD_REACTORS
330
643
102
}
330
1F
100
AcDbEntity
  8
LC-002-002-----0
 62
     7
370
    25
100
AcDbLine
 10
498.695399
 20
1866.06
 30
0.0
 11
668.676092
 21
1866.06
 31
0.0
  0
ARC
  5
17D
102
{ACAD_REACTORS
330
643
102
}
330
1F
100
AcDbEntity
  8
LC-002-002-----0
 62
     7
370
    25
100
AcDbCircle
 10
896.695399
 20
1855.06
 30
0.0
 40
3.0
100
AcDbArc
 50
270.0
 51
0.0
  0
LINE
  5
17E
102
{ACAD_REACTORS
330
643
102
}
330
1F
100
AcDbEntity
  8
LC-002-002-----0
 62
     7
370
    25
100
AcDbLine
 10
899.695399
 20
1855.06
 30
0.0
 11
899.695399
 21
1863.06
 31
0.0
  0
ARC
  5
17F
102
{ACAD_REACTORS
330
643
102
}
330
1F
100
AcDbEntity
  8
LC-002-002-----0
 62
     7
370
    25
100
AcDbCircle
 10
896.695399
 20
1863.06
 30
0.0
 40
3.0
100
AcDbArc
 50
0.0
 51
90.0
  0
ARC
  5
180
102
{ACAD_REACTORS
330
643
102
}
330
1F
100
AcDbEntity
  8
LC-002-002-----0
 62
     7
370
    25
100
AcDbCircle
 10
498.695399
 20
1855.06
 30
0.0
 40
3.0
100
AcDbArc
 50
180.0
 51
270.0
  0
LINE
  5
181
102
{ACAD_REACTORS
330
643
102
}
330
1F
100
AcDbEntity
  8
LC-002-002-----0
 62
     7
370
    25
100
AcDbLine
 10
495.695399
 20
1855.06
 30
0.0
 11
495.695399
 21
1863.06
 31
0.0
  0
ARC
  5
182
102
{ACAD_REACTORS
330
643
102
}
330
1F
100
AcDbEntity
  8
LC-002-002-----0
 62
     7
370
    25
100
AcDbCircle
 10
498.695399
 20
1863.06
 30
0.0
 40
3.0
100
AcDbArc
 50
90.0
 51
180.0
  0
LINE
  5
183
102
{ACAD_REACTORS
330
643
102
}
330
1F
100
AcDbEntity
  8
LC-002-002-----0
 62
     7
370
    25
100
AcDbLine
 10
498.695399
 20
1828.06
 30
0.0
 11
896.695399
 21
1828.06
 31
0.0
  0
LINE
  5
184
102
{ACAD_REACTORS
330
643
102
}
330
1F
100
AcDbEntity
  8
LC-002-002-----0
 62
     7
370
    25
100
AcDbLine
 10
498.695399
 20
1842.06
 30
0.0
 11
896.695399
 21
1842.06
 31
0.0
  0
ARC
  5
185
102
{ACAD_REACTORS
330
643
102
}
330
1F
100
AcDbEntity
  8
LC-002-002-----0
 62
     7
370
    25
100
AcDbCircle
 10
896.695399
 20
1831.06
 30
0.0
 40
3.0
100
AcDbArc
 50
270.0
 51
0.0
  0
LINE
  5
186
102
{ACAD_REACTORS
330
643
102
}
330
1F
100
AcDbEntity
  8
LC-002-002-----0
 62
     7
370
    25
100
AcDbLine
 10
899.695399
 20
1831.06
 30
0.0
 11
899.695399
 21
1839.06
 31
0.0
  0
ARC
  5
187
102
{ACAD_REACTORS
330
643
102
}
330
1F
100
AcDbEntity
  8
LC-002-002-----0
 62
     7
370
    25
100
AcDbCircle
 10
896.695399
 20
1839.06
 30
0.0
 40
3.0
100
AcDbArc
 50
0.0
 51
90.0
  0
ARC
  5
188
102
{ACAD_REACTORS
330
643
102
}
330
1F
100
AcDbEntity
  8
LC-002-002-----0
 62
     7
370
    25
100
AcDbCircle
 10
498.695399
 20
1831.06
 30
0.0
 40
3.0
100
AcDbArc
 50
180.0
 51
270.0
  0
LINE
  5
189
102
{ACAD_REACTORS
330
643
102
}
330
1F
100
AcDbEntity
  8
LC-002-002-----0
 62
     7
370
    25
100
AcDbLine
 10
495.695399
 20
1831.06
 30
0.0
 11
495.695399
 21
1839.06
 31
0.0
  0
ARC
  5
18A
102
{ACAD_REACTORS
330
643
102
}
330
1F
100
AcDbEntity
  8
LC-002-002-----0
 62
     7
370
    25
100
AcDbCircle
 10
498.695399
 20
1839.06
 30
0.0
 40
3.0
100
AcDbArc
 50
90.0
 51
180.0
  0
LINE
  5
18B
102
{ACAD_REACTORS
330
644
102
}
330
1F
100
AcDbEntity
  8
LC-002-002-----0
 62
     7
370
    50
100
AcDbLine
 10
460.695399
 20
2675.85
 30
0.0
 11
461.124716
 21
2681.989513
 31
0.0
  0
LINE
  5
18C
102
{ACAD_REACTORS
330
644
102
}
330
1F
100
AcDbEntity
  8
LC-002-002-----0
 62
     7
370
    50
100
AcDbLine
 10
478.195399
 20
2673.85
 30
0.0
 11
480.331054
 21
2673.85
 31
0.0
  0
LINE
  5
18D
102
{ACAD_REACTORS
330
644
102
}
330
1F
100
AcDbEntity
  8
LC-002-002-----0
 62
     7
370
    50
100
AcDbLine
 10
460.695399
 20
2675.85
 30
0.0
 11
477.195399
 21
2675.85
 31
0.0
  0
LINE
  5
18E
102
{ACAD_REACTORS
330
644
102
}
330
1F
100
AcDbEntity
  8
LC-006-002-___-0
 62
     7
370
    50
100
AcDbLine
 10
478.195399
 20
2673.85
 30
0.0
 11
478.195399
 21
2672.570236
 31
0.0
  0
ARC
  5
18F
102
{ACAD_REACTORS
330
644
102
}
330
1F
100
AcDbEntity
  8
LC-004-002-RND-0
 62
     7
370
    50
100
AcDbCircle
 10
481.195399
 20
2672.570236
 30
0.0
 40
2.999999999999318
100
AcDbArc
 50
180.0
 51
207.0
  0
LINE
  5
190
102
{ACAD_REACTORS
330
644
102
}
330
1F
100
AcDbEntity
  8
LC-002-002-----0
 62
     7
370
    50
100
AcDbLine
 10
478.195399
 20
2674.85
 30
0.0
 11
478.195399
 21
2673.85
 31
0.0
  0
ARC
  5
191
102
{ACAD_REACTORS
330
644
102
}
330
1F
100
AcDbEntity
  8
LC-002-002-----0
 62
     7
370
    50
100
AcDbCircle
 10
477.195399
 20
2674.85
 30
0.0
 40
1.0
100
AcDbArc
 50
0.0
 51
90.0
  0
LINE
  5
192
102
{ACAD_REACTORS
330
644
102
}
330
1F
100
AcDbEntity
  8
LC-002-002-----0
 62
     7
370
    50
100
AcDbLine
 10
480.233501
 20
2667.85
 30
0.0
 11
487.321391
 21
2653.939232
 31
0.0
  0
LINE
  5
193
102
{ACAD_REACTORS
330
644
102
}
330
1F
100
AcDbEntity
  8
LC-002-002-----0
 62
     7
370
    50
100
AcDbLine
 10
498.93445
 20
2669.736348
 30
0.0
 11
490.885417
 21
2653.939232
 31
0.0
  0
LINE
  5
194
102
{ACAD_REACTORS
330
644
102
}
330
1F
100
AcDbEntity
  8
LC-002-002-----0
 62
     7
370
    50
100
AcDbLine
 10
1288.747548
 20
2657.389173
 30
0.0
 11
1290.505381
 21
2653.939232
 31
0.0
  0
LINE
  5
195
102
{ACAD_REACTORS
330
643
102
}
330
1F
100
AcDbEntity
  8
LC-002-002-----0
 62
     7
370
    50
100
AcDbLine
 10
1281.695399
 20
1672.06
 30
0.0
 11
1281.695399
 21
1974.06
 31
0.0
  0
LINE
  5
196
102
{ACAD_REACTORS
330
643
102
}
330
1F
100
AcDbEntity
  8
LC-002-002-----0
 62
     7
370
    50
100
AcDbLine
 10
508.695399
 20
2050.06
 30
0.0
 11
1272.695399
 21
2050.06
 31
0.0
  0
LINE
  5
197
102
{ACAD_REACTORS
330
643
102
}
330
1F
100
AcDbEntity
  8
LC-002-002-----0
 62
     7
370
    50
100
AcDbLine
 10
1038.695399
 20
2034.06
 30
0.0
 11
1221.695399
 21
2034.06
 31
0.0
  0
LINE
  5
198
102
{ACAD_REACTORS
330
643
102
}
330
1F
100
AcDbEntity
  8
LC-002-002-----0
 62
     7
370
    50
100
AcDbLine
 10
1221.695399
 20
1612.06
 30
0.0
 11
1038.695399
 21
1612.06
 31
0.0
  0
ARC
  5
199
102
{ACAD_REACTORS
330
643
102
}
330
1F
100
AcDbEntity
  8
LC-004-002-RND-0
 62
     7
370
    50
100
AcDbCircle
 10
1221.695399
 20
1974.06
 30
0.0
 40
60.0
100
AcDbArc
 50
0.0
 51
90.0
  0
ARC
  5
19A
102
{ACAD_REACTORS
330
643
102
}
330
1F
100
AcDbEntity
  8
LC-004-002-RND-0
 62
     7
370
    50
100
AcDbCircle
 10
1221.695399
 20
1672.06
 30
0.0
 40
60.0
100
AcDbArc
 50
270.0
 51
0.0
  0
ARC
  5
19B
102
{ACAD_REACTORS
330
643
102
}
330
1F
100
AcDbEntity
  8
LC-004-002-RND-0
 62
     7
370
    25
100
AcDbCircle
 10
885.733852
 20
1975.06
 30
0.0
 40
3.0
100
AcDbArc
 50
270.0
 51
26.806602
  0
ARC
  5
19C
102
{ACAD_REACTORS
330
643
102
}
330
1F
100
AcDbEntity
  8
LC-004-002-RND-0
 62
     7
370
    25
100
AcDbCircle
 10
794.695399
 20
1929.06
 30
0.0
 40
105.0000000000018
100
AcDbArc
 50
67.156493
 51
90.0
  0
LINE
  5
19D
102
{ACAD_REACTORS
330
643
102
}
330
1F
100
AcDbEntity
  8
LC-002-002-----0
 62
     7
370
    50
100
AcDbLine
 10
1297.695399
 20
2025.06
 30
0.0
 11
1297.695399
 21
1621.06
 31
0.0
  0
LINE
  5
19E
102
{ACAD_REACTORS
330
643
102
}
330
1F
100
AcDbEntity
  8
LC-002-002-----0
 62
     7
370
    50
100
AcDbLine
 10
1272.695399
 20
1596.06
 30
0.0
 11
508.695399
 21
1596.06
 31
0.0
  0
LINE
  5
19F
102
{ACAD_REACTORS
330
643
102
}
330
1F
100
AcDbEntity
  8
LC-002-002-----0
 62
     7
370
    50
100
AcDbLine
 10
483.695399
 20
1621.06
 30
0.0
 11
483.695399
 21
2025.06
 31
0.0
  0
ARC
  5
1A0
102
{ACAD_REACTORS
330
643
102
}
330
1F
100
AcDbEntity
  8
LC-004-002-RND-0
 62
     7
370
    25
100
AcDbCircle
 10
860.422106
 20
2007.06
 30
0.0
 40
2.999999999999975
100
AcDbArc
 50
49.880833
 51
90.0
  0
LINE
  5
1A1
102
{ACAD_REACTORS
330
643
102
}
330
1F
100
AcDbEntity
  8
LC-002-002-----0
 62
     7
370
    25
100
AcDbLine
 10
794.695399
 20
2034.06
 30
0.0
 11
555.695399
 21
2034.06
 31
0.0
  0
LINE
  5
1A2
102
{ACAD_REACTORS
330
644
102
}
330
1F
100
AcDbEntity
  8
LC-002-002-----0
 62
     7
370
    50
100
AcDbLine
 10
478.522379
 20
2671.208265
 30
0.0
 11
480.233501
 21
2667.85
 31
0.0
  0
ARC
  5
1A3
102
{ACAD_REACTORS
330
644
102
}
330
1F
100
AcDbEntity
  8
LC-004-002-RND-0
 62
     7
370
    50
100
AcDbCircle
 10
489.103404
 20
2654.847213
 30
0.0
 40
2.000000000069763
100
AcDbArc
 50
207.0
 51
333.0
  0
LINE
  5
1A4
102
{ACAD_REACTORS
330
64C
102
}
330
1F
100
AcDbEntity
  8
LC-002-002-----0
  6
DASHDOT
 62
     7
370
    25
100
AcDbLine
 10
594.591949
 20
780.145824
 30
0.0
 11
594.591949
 21
1077.389257
 31
0.0
  0
ARC
  5
1A5
102
{ACAD_REACTORS
330
644
102
}
330
1F
100
AcDbEntity
  8
LC-004-002-RND-0
 62
     7
370
    50
100
AcDbCircle
 10
480.331054
 20
2667.85
 30
0.0
 40
5.999999999999989
100
AcDbArc
 50
61.215218
 51
90.0
  0
ARC
  5
1A6
102
{ACAD_REACTORS
330
644
102
}
330
1F
100
AcDbEntity
  8
LC-004-002-RND-0
 62
     7
370
    50
100
AcDbCircle
 10
482.866972
 20
2681.85
 30
0.0
 40
2.000000000000096
100
AcDbArc
 50
45.0
 51
90.0
  0
ARC
  5
1A7
102
{ACAD_REACTORS
330
643
102
}
330
1F
100
AcDbEntity
  8
LC-004-002-RND-0
 62
     7
370
    25
100
AcDbCircle
 10
868.884347
 20
1999.06
 30
0.0
 40
3.0
100
AcDbArc
 50
270.0
 51
43.335923
  0
ARC
  5
1A8
102
{ACAD_REACTORS
330
643
102
}
330
1F
100
AcDbEntity
  8
LC-004-002-RND-0
 62
     7
370
    25
100
AcDbCircle
 10
526.574959
 20
2023.06
 30
0.0
 40
3.000000000000074
100
AcDbArc
 50
120.722791
 51
270.0
  0
ARC
  5
1A9
102
{ACAD_REACTORS
330
643
102
}
330
1F
100
AcDbEntity
  8
LC-004-002-RND-0
 62
     7
370
    25
100
AcDbCircle
 10
834.293379
 20
2023.06
 30
0.0
 40
3.000000000000227
100
AcDbArc
 50
270.0
 51
67.156493
  0
ARC
  5
1AA
102
{ACAD_REACTORS
330
643
102
}
330
1F
100
AcDbEntity
  8
LC-004-002-RND-0
 62
     7
370
    25
100
AcDbCircle
 10
834.293379
 20
1623.06
 30
0.0
 40
2.999999999999914
100
AcDbArc
 50
292.843507
 51
90.0
  0
ARC
  5
1AB
102
{ACAD_REACTORS
330
643
102
}
330
1F
100
AcDbEntity
  8
LC-004-002-RND-0
 62
     7
370
    25
100
AcDbCircle
 10
794.695399
 20
1717.06
 30
0.0
 40
104.9999999999957
100
AcDbArc
 50
310.119167
 51
316.664077
  0
ARC
  5
1AC
102
{ACAD_REACTORS
330
643
102
}
330
1F
100
AcDbEntity
  8
LC-004-002-RND-0
 62
     7
370
    25
100
AcDbCircle
 10
860.422106
 20
1639.06
 30
0.0
 40
3.000000000000227
100
AcDbArc
 50
270.0
 51
310.119167
  0
ARC
  5
1AD
102
{ACAD_REACTORS
330
643
102
}
330
1F
100
AcDbEntity
  8
LC-004-002-RND-0
 62
     7
370
    25
100
AcDbCircle
 10
868.884347
 20
1647.06
 30
0.0
 40
3.000000000000152
100
AcDbArc
 50
316.664077
 51
90.0
  0
ARC
  5
1AE
102
{ACAD_REACTORS
330
643
102
}
330
1F
100
AcDbEntity
  8
LC-004-002-RND-0
 62
     7
370
    25
100
AcDbCircle
 10
794.695399
 20
1717.06
 30
0.0
 40
104.9999999999996
100
AcDbArc
 50
328.034281
 51
333.193398
  0
ARC
  5
1AF
102
{ACAD_REACTORS
330
643
102
}
330
1F
100
AcDbEntity
  8
LC-004-002-RND-0
 62
     7
370
    25
100
AcDbCircle
 10
881.22863
 20
1663.06
 30
0.0
 40
3.0
100
AcDbArc
 50
270.0
 51
328.034281
  0
ARC
  5
1B0
102
{ACAD_REACTORS
330
643
102
}
330
1F
100
AcDbEntity
  8
LC-004-002-RND-0
 62
     7
370
    25
100
AcDbCircle
 10
885.733852
 20
1671.06
 30
0.0
 40
2.999999999999881
100
AcDbArc
 50
333.193398
 51
90.0
  0
ARC
  5
1B1
102
{ACAD_REACTORS
330
643
102
}
330
1F
100
AcDbEntity
  8
LC-004-002-RND-0
 62
     7
370
    25
100
AcDbCircle
 10
794.695399
 20
1717.06
 30
0.0
 40
104.9999999999999
100
AcDbArc
 50
342.895365
 51
347.544207
  0
ARC
  5
1B2
102
{ACAD_REACTORS
330
643
102
}
330
1F
100
AcDbEntity
  8
LC-004-002-RND-0
 62
     7
370
    25
100
AcDbCircle
 10
892.18386
 20
1687.06
 30
0.0
 40
3.0
100
AcDbArc
 50
270.0
 51
342.895365
  0
ARC
  5
1B3
102
{ACAD_REACTORS
330
643
102
}
330
1F
100
AcDbEntity
  8
LC-004-002-RND-0
 62
     7
370
    25
100
AcDbCircle
 10
894.294596
 20
1695.06
 30
0.0
 40
3.000000000000082
100
AcDbArc
 50
347.544207
 51
90.0
  0
ARC
  5
1B4
102
{ACAD_REACTORS
330
643
102
}
330
1F
100
AcDbEntity
  8
LC-004-002-RND-0
 62
     7
370
    25
100
AcDbCircle
 10
794.695399
 20
1717.06
 30
0.0
 40
104.9999999999998
100
AcDbArc
 50
356.627713
 51
0.0
  0
LINE
  5
1B5
102
{ACAD_REACTORS
330
643
102
}
330
1F
100
AcDbEntity
  8
LC-002-002-----0
 62
     7
370
    25
100
AcDbLine
 10
899.695399
 20
1719.06
 30
0.0
 11
899.695399
 21
1717.06
 31
0.0
  0
ARC
  5
1B6
102
{ACAD_REACTORS
330
643
102
}
330
1F
100
AcDbEntity
  8
LC-004-002-RND-0
 62
     7
370
    25
100
AcDbCircle
 10
896.518775
 20
1711.06
 30
0.0
 40
3.0
100
AcDbArc
 50
270.0
 51
356.627713
  0
ARC
  5
1B7
102
{ACAD_REACTORS
330
643
102
}
330
1F
100
AcDbEntity
  8
LC-004-002-RND-0
 62
     7
370
    25
100
AcDbCircle
 10
896.695399
 20
1719.06
 30
0.0
 40
3.0
100
AcDbArc
 50
0.0
 51
90.0
  0
LINE
  5
1B8
102
{ACAD_REACTORS
330
64C
102
}
330
1F
100
AcDbEntity
  8
LC-002-002-----0
  6
DASHDOT
 62
     7
370
    25
100
AcDbLine
 10
604.091949
 20
780.145824
 30
0.0
 11
604.091949
 21
1077.389257
 31
0.0
  0
LINE
  5
1B9
102
{ACAD_REACTORS
330
642
102
}
330
1F
100
AcDbEntity
  8
LC-002-002-----0
 62
     7
370
    25
100
AcDbLine
 10
860.695399
 20
2553.737349
 30
0.0
 11
872.320365
 21
2550.383119
 31
0.0
  0
LINE
  5
1BA
102
{ACAD_REACTORS
330
644
102
}
330
1F
100
AcDbEntity
  8
LC-002-002-----0
 62
     7
370
    50
100
AcDbLine
 10
951.911399
 20
2501.536338
 30
0.0
 11
934.254188
 21
2669.53348
 31
0.0
  0
LINE
  5
1BB
102
{ACAD_REACTORS
330
642
102
}
330
1F
100
AcDbEntity
  8
LC-002-002-----0
 62
     7
370
    25
100
AcDbLine
 10
872.320365
 20
2550.383119
 30
0.0
 11
879.695399
 21
2553.737349
 31
0.0
  0
LINE
  5
1BC
102
{ACAD_REACTORS
330
644
102
}
330
1F
100
AcDbEntity
  8
LC-002-002-----0
 62
     7
370
    50
100
AcDbLine
 10
945.668192
 20
2493.969078
 30
0.0
 11
927.863418
 21
2663.37019
 31
0.0
  0
LINE
  5
1BD
102
{ACAD_REACTORS
330
642
102
}
330
1F
100
AcDbEntity
  8
LC-002-002-----0
 62
     7
370
    25
100
AcDbLine
 10
1291.695399
 20
2553.737349
 30
0.0
 11
1303.11954
 21
2550.886627
 31
0.0
  0
ARC
  5
1BE
102
{ACAD_REACTORS
330
644
102
}
330
1F
100
AcDbEntity
  8
LC-004-002-RND-0
 62
     7
370
    50
100
AcDbCircle
 10
490.120922
 20
2684.495545
 30
0.0
 40
4.999999999999799
100
AcDbArc
 50
225.0
 51
269.4
  0
LINE
  5
1BF
102
{ACAD_REACTORS
330
644
102
}
330
1F
100
AcDbEntity
  8
LC-002-002-----0
 62
     7
370
    50
100
AcDbLine
 10
923.927217
 20
2666.951857
 30
0.0
 11
489.343818
 21
2671.50297
 31
0.0
  0
ARC
  5
1C0
102
{ACAD_REACTORS
330
644
102
}
330
1F
100
AcDbEntity
  8
LC-004-002-RND-0
 62
     7
370
    50
100
AcDbCircle
 10
923.88533
 20
2662.952077
 30
0.0
 40
4.000000000000145
100
AcDbArc
 50
6.0
 51
89.4
  0
LINE
  5
1C1
102
{ACAD_REACTORS
330
644
102
}
330
1F
100
AcDbEntity
  8
LC-002-002-----0
 62
     7
370
    50
100
AcDbLine
 10
936.436746
 20
2648.767828
 30
0.0
 11
929.475092
 21
2648.036129
 31
0.0
  0
ARC
  5
1C2
102
{ACAD_REACTORS
330
643
102
}
330
1F
100
AcDbEntity
  8
LC-006-002-___-0
 62
     7
370
    25
100
AcDbCircle
 10
555.695399
 20
1672.06
 30
0.0
 40
60.00000000000247
100
AcDbArc
 50
181.005241
 51
189.08472
  0
ARC
  5
1C3
102
{ACAD_REACTORS
330
643
102
}
330
1F
100
AcDbEntity
  8
LC-004-002-RND-0
 62
     7
370
    25
100
AcDbCircle
 10
555.695399
 20
1672.06
 30
0.0
 40
60.00000000000013
100
AcDbArc
 50
239.277209
 51
270.0
  0
ARC
  5
1C4
102
{ACAD_REACTORS
330
643
102
}
330
1F
100
AcDbEntity
  8
LC-004-002-RND-0
 62
     7
370
    25
100
AcDbCircle
 10
509.219599
 20
1639.06
 30
0.0
 40
3.000000000000002
100
AcDbArc
 50
215.37654
 51
270.0
  0
ARC
  5
1C5
102
{ACAD_REACTORS
330
643
102
}
330
1F
100
AcDbEntity
  8
LC-004-002-RND-0
 62
     7
370
    25
100
AcDbCircle
 10
504.470405
 20
1647.06
 30
0.0
 40
3.0
100
AcDbArc
 50
90.0
 51
206.014366
  0
ARC
  5
1C6
102
{ACAD_REACTORS
330
643
102
}
330
1F
100
AcDbEntity
  8
LC-006-002-___-0
 62
     7
370
    25
100
AcDbCircle
 10
555.695399
 20
1672.06
 30
0.0
 40
60.00000000000217
100
AcDbArc
 50
206.014366
 51
215.37654
  0
ARC
  5
1C7
102
{ACAD_REACTORS
330
643
102
}
330
1F
100
AcDbEntity
  8
LC-006-002-___-0
 62
     7
370
    25
100
AcDbCircle
 10
499.41041
 20
1663.06
 30
0.0
 40
3.000000000000044
100
AcDbArc
 50
189.08472
 51
270.0
  0
ARC
  5
1C8
102
{ACAD_REACTORS
330
643
102
}
330
1F
100
AcDbEntity
  8
LC-004-002-RND-0
 62
     7
370
    25
100
AcDbCircle
 10
498.704172
 20
1671.06
 30
0.0
 40
3.0
100
AcDbArc
 50
90.0
 51
181.005241
  0
LINE
  5
1C9
102
{ACAD_REACTORS
330
643
102
}
330
1F
100
AcDbEntity
  8
LC-002-002-----0
 62
     7
370
    25
100
AcDbLine
 10
498.695399
 20
1722.06
 30
0.0
 11
896.695399
 21
1722.06
 31
0.0
  0
LINE
  5
1CA
102
{ACAD_REACTORS
330
643
102
}
330
1F
100
AcDbEntity
  8
LC-002-002-----0
 62
     7
370
    25
100
AcDbLine
 10
498.695399
 20
1708.06
 30
0.0
 11
896.518775
 21
1708.06
 31
0.0
  0
ARC
  5
1CB
102
{ACAD_REACTORS
330
643
102
}
330
1F
100
AcDbEntity
  8
LC-002-002-----0
 62
     7
370
    25
100
AcDbCircle
 10
498.695399
 20
1719.06
 30
0.0
 40
3.0
100
AcDbArc
 50
90.0
 51
180.0
  0
LINE
  5
1CC
102
{ACAD_REACTORS
330
643
102
}
330
1F
100
AcDbEntity
  8
LC-002-002-----0
 62
     7
370
    25
100
AcDbLine
 10
495.695399
 20
1719.06
 30
0.0
 11
495.695399
 21
1711.06
 31
0.0
  0
ARC
  5
1CD
102
{ACAD_REACTORS
330
643
102
}
330
1F
100
AcDbEntity
  8
LC-002-002-----0
 62
     7
370
    25
100
AcDbCircle
 10
498.695399
 20
1711.06
 30
0.0
 40
3.0
100
AcDbArc
 50
180.0
 51
270.0
  0
LINE
  5
1CE
102
{ACAD_REACTORS
330
643
102
}
330
1F
100
AcDbEntity
  8
LC-002-002-----0
 62
     7
370
    25
100
AcDbLine
 10
498.695399
 20
1746.06
 30
0.0
 11
896.695399
 21
1746.06
 31
0.0
  0
LINE
  5
1CF
102
{ACAD_REACTORS
330
643
102
}
330
1F
100
AcDbEntity
  8
LC-002-002-----0
 62
     7
370
    25
100
AcDbLine
 10
498.695399
 20
1732.06
 30
0.0
 11
896.695399
 21
1732.06
 31
0.0
  0
ARC
  5
1D0
102
{ACAD_REACTORS
330
643
102
}
330
1F
100
AcDbEntity
  8
LC-002-002-----0
 62
     7
370
    25
100
AcDbCircle
 10
896.695399
 20
1743.06
 30
0.0
 40
3.0
100
AcDbArc
 50
0.0
 51
90.0
  0
LINE
  5
1D1
102
{ACAD_REACTORS
330
643
102
}
330
1F
100
AcDbEntity
  8
LC-002-002-----0
 62
     7
370
    25
100
AcDbLine
 10
899.695399
 20
1743.06
 30
0.0
 11
899.695399
 21
1735.06
 31
0.0
  0
ARC
  5
1D2
102
{ACAD_REACTORS
330
643
102
}
330
1F
100
AcDbEntity
  8
LC-002-002-----0
 62
     7
370
    25
100
AcDbCircle
 10
896.695399
 20
1735.06
 30
0.0
 40
3.0
100
AcDbArc
 50
270.0
 51
0.0
  0
ARC
  5
1D3
102
{ACAD_REACTORS
330
643
102
}
330
1F
100
AcDbEntity
  8
LC-002-002-----0
 62
     7
370
    25
100
AcDbCircle
 10
498.695399
 20
1743.06
 30
0.0
 40
3.0
100
AcDbArc
 50
90.0
 51
180.0
  0
LINE
  5
1D4
102
{ACAD_REACTORS
330
643
102
}
330
1F
100
AcDbEntity
  8
LC-002-002-----0
 62
     7
370
    25
100
AcDbLine
 10
495.695399
 20
1743.06
 30
0.0
 11
495.695399
 21
1735.06
 31
0.0
  0
ARC
  5
1D5
102
{ACAD_REACTORS
330
643
102
}
330
1F
100
AcDbEntity
  8
LC-002-002-----0
 62
     7
370
    25
100
AcDbCircle
 10
498.695399
 20
1735.06
 30
0.0
 40
3.0
100
AcDbArc
 50
180.0
 51
270.0
  0
LINE
  5
1D6
102
{ACAD_REACTORS
330
643
102
}
330
1F
100
AcDbEntity
  8
LC-002-002-----0
 62
     7
370
    25
100
AcDbLine
 10
498.695399
 20
1770.06
 30
0.0
 11
896.695399
 21
1770.06
 31
0.0
  0
LINE
  5
1D7
102
{ACAD_REACTORS
330
643
102
}
330
1F
100
AcDbEntity
  8
LC-002-002-----0
 62
     7
370
    25
100
AcDbLine
 10
498.695399
 20
1756.06
 30
0.0
 11
896.695399
 21
1756.06
 31
0.0
  0
ARC
  5
1D8
102
{ACAD_REACTORS
330
643
102
}
330
1F
100
AcDbEntity
  8
LC-002-002-----0
 62
     7
370
    25
100
AcDbCircle
 10
896.695399
 20
1767.06
 30
0.0
 40
3.0
100
AcDbArc
 50
0.0
 51
90.0
  0
LINE
  5
1D9
102
{ACAD_REACTORS
330
643
102
}
330
1F
100
AcDbEntity
  8
LC-002-002-----0
 62
     7
370
    25
100
AcDbLine
 10
899.695399
 20
1767.06
 30
0.0
 11
899.695399
 21
1759.06
 31
0.0
  0
ARC
  5
1DA
102
{ACAD_REACTORS
330
643
102
}
330
1F
100
AcDbEntity
  8
LC-002-002-----0
 62
     7
370
    25
100
AcDbCircle
 10
896.695399
 20
1759.06
 30
0.0
 40
3.0
100
AcDbArc
 50
270.0
 51
0.0
  0
ARC
  5
1DB
102
{ACAD_REACTORS
330
643
102
}
330
1F
100
AcDbEntity
  8
LC-002-002-----0
 62
     7
370
    25
100
AcDbCircle
 10
498.695399
 20
1767.06
 30
0.0
 40
3.0
100
AcDbArc
 50
90.0
 51
180.0
  0
LINE
  5
1DC
102
{ACAD_REACTORS
330
643
102
}
330
1F
100
AcDbEntity
  8
LC-002-002-----0
 62
     7
370
    25
100
AcDbLine
 10
495.695399
 20
1767.06
 30
0.0
 11
495.695399
 21
1759.06
 31
0.0
  0
ARC
  5
1DD
102
{ACAD_REACTORS
330
643
102
}
330
1F
100
AcDbEntity
  8
LC-002-002-----0
 62
     7
370
    25
100
AcDbCircle
 10
498.695399
 20
1759.06
 30
0.0
 40
3.0
100
AcDbArc
 50
180.0
 51
270.0
  0
LINE
  5
1DE
102
{ACAD_REACTORS
330
643
102
}
330
1F
100
AcDbEntity
  8
LC-002-002-----0
 62
     7
370
    25
100
AcDbLine
 10
498.695399
 20
1794.06
 30
0.0
 11
896.695399
 21
1794.06
 31
0.0
  0
LINE
  5
1DF
102
{ACAD_REACTORS
330
643
102
}
330
1F
100
AcDbEntity
  8
LC-002-002-----0
 62
     7
370
    25
100
AcDbLine
 10
498.695399
 20
1780.06
 30
0.0
 11
896.695399
 21
1780.06
 31
0.0
  0
ARC
  5
1E0
102
{ACAD_REACTORS
330
643
102
}
330
1F
100
AcDbEntity
  8
LC-002-002-----0
 62
     7
370
    25
100
AcDbCircle
 10
896.695399
 20
1791.06
 30
0.0
 40
3.0
100
AcDbArc
 50
0.0
 51
90.0
  0
LINE
  5
1E1
102
{ACAD_REACTORS
330
643
102
}
330
1F
100
AcDbEntity
  8
LC-002-002-----0
 62
     7
370
    25
100
AcDbLine
 10
899.695399
 20
1791.06
 30
0.0
 11
899.695399
 21
1783.06
 31
0.0
  0
ARC
  5
1E2
102
{ACAD_REACTORS
330
643
102
}
330
1F
100
AcDbEntity
  8
LC-002-002-----0
 62
     7
370
    25
100
AcDbCircle
 10
896.695399
 20
1783.06
 30
0.0
 40
3.0
100
AcDbArc
 50
270.0
 51
0.0
  0
ARC
  5
1E3
102
{ACAD_REACTORS
330
643
102
}
330
1F
100
AcDbEntity
  8
LC-002-002-----0
 62
     7
370
    25
100
AcDbCircle
 10
498.695399
 20
1791.06
 30
0.0
 40
3.0
100
AcDbArc
 50
90.0
 51
180.0
  0
LINE
  5
1E4
102
{ACAD_REACTORS
330
643
102
}
330
1F
100
AcDbEntity
  8
LC-002-002-----0
 62
     7
370
    25
100
AcDbLine
 10
495.695399
 20
1791.06
 30
0.0
 11
495.695399
 21
1783.06
 31
0.0
  0
ARC
  5
1E5
102
{ACAD_REACTORS
330
643
102
}
330
1F
100
AcDbEntity
  8
LC-002-002-----0
 62
     7
370
    25
100
AcDbCircle
 10
498.695399
 20
1783.06
 30
0.0
 40
3.0
100
AcDbArc
 50
180.0
 51
270.0
  0
LINE
  5
1E6
102
{ACAD_REACTORS
330
643
102
}
330
1F
100
AcDbEntity
  8
LC-002-002-----0
 62
     7
370
    25
100
AcDbLine
 10
498.695399
 20
1818.06
 30
0.0
 11
896.695399
 21
1818.06
 31
0.0
  0
LINE
  5
1E7
102
{ACAD_REACTORS
330
643
102
}
330
1F
100
AcDbEntity
  8
LC-002-002-----0
 62
     7
370
    25
100
AcDbLine
 10
498.695399
 20
1804.06
 30
0.0
 11
896.695399
 21
1804.06
 31
0.0
  0
ARC
  5
1E8
102
{ACAD_REACTORS
330
643
102
}
330
1F
100
AcDbEntity
  8
LC-002-002-----0
 62
     7
370
    25
100
AcDbCircle
 10
896.695399
 20
1815.06
 30
0.0
 40
3.0
100
AcDbArc
 50
0.0
 51
90.0
  0
LINE
  5
1E9
102
{ACAD_REACTORS
330
643
102
}
330
1F
100
AcDbEntity
  8
LC-002-002-----0
 62
     7
370
    25
100
AcDbLine
 10
899.695399
 20
1815.06
 30
0.0
 11
899.695399
 21
1807.06
 31
0.0
  0
ARC
  5
1EA
102
{ACAD_REACTORS
330
643
102
}
330
1F
100
AcDbEntity
  8
LC-002-002-----0
 62
     7
370
    25
100
AcDbCircle
 10
896.695399
 20
1807.06
 30
0.0
 40
3.0
100
AcDbArc
 50
270.0
 51
0.0
  0
ARC
  5
1EB
102
{ACAD_REACTORS
330
643
102
}
330
1F
100
AcDbEntity
  8
LC-002-002-----0
 62
     7
370
    25
100
AcDbCircle
 10
498.695399
 20
1815.06
 30
0.0
 40
3.0
100
AcDbArc
 50
90.0
 51
180.0
  0
LINE
  5
1EC
102
{ACAD_REACTORS
330
643
102
}
330
1F
100
AcDbEntity
  8
LC-002-002-----0
 62
     7
370
    25
100
AcDbLine
 10
495.695399
 20
1815.06
 30
0.0
 11
495.695399
 21
1807.06
 31
0.0
  0
ARC
  5
1ED
102
{ACAD_REACTORS
330
643
102
}
330
1F
100
AcDbEntity
  8
LC-002-002-----0
 62
     7
370
    25
100
AcDbCircle
 10
498.695399
 20
1807.06
 30
0.0
 40
3.0
100
AcDbArc
 50
180.0
 51
270.0
  0
LINE
  5
1EE
102
{ACAD_REACTORS
330
643
102
}
330
1F
100
AcDbEntity
  8
LC-002-002-----0
 62
     7
370
    25
100
AcDbLine
 10
794.695399
 20
1612.06
 30
0.0
 11
555.695399
 21
1612.06
 31
0.0
  0
ARC
  5
1EF
102
{ACAD_REACTORS
330
643
102
}
330
1F
100
AcDbEntity
  8
LC-004-002-RND-0
 62
     7
370
    25
100
AcDbCircle
 10
526.574959
 20
1623.06
 30
0.0
 40
3.0
100
AcDbArc
 50
90.0
 51
239.277209
  0
LINE
  5
1F0
102
{ACAD_REACTORS
330
642
102
}
330
1F
100
AcDbEntity
  8
LC-002-002-----0
 62
     7
370
    25
100
AcDbLine
 10
1303.11954
 20
2550.886627
 30
0.0
 11
1310.695399
 21
2553.737349
 31
0.0
  0
LINE
  5
1F1
102
{ACAD_REACTORS
330
643
102
}
330
1F
100
AcDbEntity
  8
LC-002-002-----0
 62
     7
370
    25
100
AcDbLine
 10
526.574959
 20
1626.06
 30
0.0
 11
834.293379
 21
1626.06
 31
0.0
  0
LINE
  5
1F2
102
{ACAD_REACTORS
330
643
102
}
330
1F
100
AcDbEntity
  8
LC-002-002-----0
 62
     7
370
    25
100
AcDbLine
 10
498.695399
 20
1698.06
 30
0.0
 11
894.294596
 21
1698.06
 31
0.0
  0
LINE
  5
1F3
102
{ACAD_REACTORS
330
643
102
}
330
1F
100
AcDbEntity
  8
LC-002-002-----0
 62
     7
370
    25
100
AcDbLine
 10
498.695399
 20
1684.06
 30
0.0
 11
892.18386
 21
1684.06
 31
0.0
  0
LINE
  5
1F4
102
{ACAD_REACTORS
330
643
102
}
330
1F
100
AcDbEntity
  8
LC-002-002-----0
 62
     7
370
    25
100
AcDbLine
 10
498.704172
 20
1674.06
 30
0.0
 11
885.733852
 21
1674.06
 31
0.0
  0
ARC
  5
1F5
102
{ACAD_REACTORS
330
643
102
}
330
1F
100
AcDbEntity
  8
LC-002-002-----0
 62
     7
370
    25
100
AcDbCircle
 10
498.695399
 20
1695.06
 30
0.0
 40
3.0
100
AcDbArc
 50
90.0
 51
180.0
  0
LINE
  5
1F6
102
{ACAD_REACTORS
330
643
102
}
330
1F
100
AcDbEntity
  8
LC-002-002-----0
 62
     7
370
    25
100
AcDbLine
 10
495.695399
 20
1695.06
 30
0.0
 11
495.695399
 21
1687.06
 31
0.0
  0
ARC
  5
1F7
102
{ACAD_REACTORS
330
643
102
}
330
1F
100
AcDbEntity
  8
LC-002-002-----0
 62
     7
370
    25
100
AcDbCircle
 10
498.695399
 20
1687.06
 30
0.0
 40
3.0
100
AcDbArc
 50
180.0
 51
270.0
  0
LINE
  5
1F8
102
{ACAD_REACTORS
330
643
102
}
330
1F
100
AcDbEntity
  8
LC-002-002-----0
 62
     7
370
    25
100
AcDbLine
 10
509.219599
 20
1636.06
 30
0.0
 11
860.422106
 21
1636.06
 31
0.0
  0
LINE
  5
1F9
102
{ACAD_REACTORS
330
643
102
}
330
1F
100
AcDbEntity
  8
LC-002-002-----0
 62
     7
370
    25
100
AcDbLine
 10
504.470405
 20
1650.06
 30
0.0
 11
868.884347
 21
1650.06
 31
0.0
  0
LINE
  5
1FA
102
{ACAD_REACTORS
330
643
102
}
330
1F
100
AcDbEntity
  8
LC-002-002-----0
 62
     7
370
    25
100
AcDbLine
 10
499.41041
 20
1660.06
 30
0.0
 11
881.22863
 21
1660.06
 31
0.0
  0
LINE
  5
1FB
102
{ACAD_REACTORS
330
652
102
}
330
1F
100
AcDbEntity
  8
LC-002-002-----0
 62
     7
370
    25
100
AcDbLine
 10
959.195399
 20
2443.6
 30
0.0
 11
970.945411
 21
2443.6
 31
0.0
  0
CIRCLE
  5
1FC
102
{ACAD_REACTORS
330
643
102
}
330
1F
100
AcDbEntity
  8
LC-002-002-----0
  6
DASHED
 62
     7
370
    25
100
AcDbCircle
 10
912.695399
 20
1640.06
 30
0.0
 40
17.5
  0
LINE
  5
1FD
102
{ACAD_REACTORS
330
644
102
}
330
1F
100
AcDbEntity
  8
LC-002-002-----0
 62
     7
370
    50
100
AcDbLine
 10
939.5726
 20
2618.932172
 30
0.0
 11
932.610946
 21
2618.200472
 31
0.0
  0
ELLIPSE
  5
1FE
102
{ACAD_REACTORS
330
643
102
}
330
1F
100
AcDbEntity
  8
LC-002-002-----0
 62
     7
370
    25
100
AcDbEllipse
 10
938.004673
 20
1823.06
 30
0.0
 11
0.0
 21
-14.99999999749672
 31
0.0
210
0.0
220
0.0
230
1.0
 40
0.104528
 41
0.0
 42
6.283185307179586
  0
ARC
  5
1FF
102
{ACAD_REACTORS
330
643
102
}
330
1F
100
AcDbEntity
  8
LC-006-002-___-0
 62
     7
370
    25
100
AcDbCircle
 10
555.695399
 20
1974.06
 30
0.0
 40
59.99999999999531
100
AcDbArc
 50
144.62346
 51
153.985634
  0
LINE
  5
200
102
{ACAD_REACTORS
330
643
102
}
330
1F
100
AcDbEntity
  8
LC-002-002-----0
 62
     7
370
    25
100
AcDbLine
 10
722.371799
 20
1866.06
 30
0.0
 11
896.695399
 21
1866.06
 31
0.0
  0
LINE
  5
201
102
{ACAD_REACTORS
330
643
102
}
330
1F
100
AcDbEntity
  8
LC-002-002-----0
 62
     7
370
    25
100
AcDbLine
 10
504.470405
 20
1996.06
 30
0.0
 11
657.372958
 21
1996.06
 31
0.0
  0
LINE
  5
202
102
{ACAD_REACTORS
330
643
102
}
330
1F
100
AcDbEntity
  8
LC-002-002-----0
 62
     7
370
    25
100
AcDbLine
 10
717.318574
 20
1996.06
 30
0.0
 11
868.884347
 21
1996.06
 31
0.0
  0
LINE
  5
203
102
{ACAD_REACTORS
330
643
102
}
330
1F
100
AcDbEntity
  8
LC-002-002-----0
 62
     7
370
    25
100
AcDbLine
 10
499.41041
 20
1986.06
 30
0.0
 11
658.374688
 21
1986.06
 31
0.0
  0
LINE
  5
204
102
{ACAD_REACTORS
330
643
102
}
330
1F
100
AcDbEntity
  8
LC-002-002-----0
 62
     7
370
    25
100
AcDbLine
 10
715.789618
 20
1986.06
 30
0.0
 11
881.22863
 21
1986.06
 31
0.0
  0
LINE
  5
205
102
{ACAD_REACTORS
330
644
102
}
330
1F
100
AcDbEntity
  8
LC-002-002-----0
 62
     7
370
    50
100
AcDbLine
 10
1281.130692
 20
2669.477171
 30
0.0
 11
1264.502817
 21
2511.273514
 31
0.0
  0
ARC
  5
206
102
{ACAD_REACTORS
330
644
102
}
330
1F
100
AcDbEntity
  8
LC-002-002-----0
 62
     7
370
    50
100
AcDbCircle
 10
1298.8501
 20
2681.85
 30
0.0
 40
2.0
100
AcDbArc
 50
90.0
 51
150.0
  0
LINE
  5
207
102
{ACAD_REACTORS
330
644
102
}
330
1F
100
AcDbEntity
  8
LC-002-002-----0
 62
     7
370
    50
100
AcDbLine
 10
1318.270954
 20
2683.85
 30
0.0
 11
463.119844
 21
2683.85
 31
0.0
  0
LINE
  5
208
102
{ACAD_REACTORS
330
644
102
}
330
1F
100
AcDbEntity
  8
LC-002-002-----0
 62
     7
370
    50
100
AcDbLine
 10
1293.942622
 20
2677.35
 30
0.0
 11
1297.118049
 21
2682.85
 31
0.0
  0
ARC
  5
209
102
{ACAD_REACTORS
330
644
102
}
330
1F
100
AcDbEntity
  8
LC-002-002-----0
 62
     7
370
    50
100
AcDbCircle
 10
463.119844
 20
2681.85
 30
0.0
 40
1.999999999999545
100
AcDbArc
 50
90.0
 51
175.0
  0
LINE
  5
20A
102
{ACAD_REACTORS
330
644
102
}
330
1F
100
AcDbEntity
  8
LC-002-002-----0
 62
     7
370
    50
100
AcDbLine
 10
1097.832975
 20
2478.909577
 30
0.0
 11
1241.383682
 21
2488.947625
 31
0.0
  0
LINE
  5
20B
102
{ACAD_REACTORS
330
643
102
}
330
1F
100
AcDbEntity
  8
LC-002-002-----0
 62
     7
370
    50
100
AcDbLine
 10
465.695399
 20
2073.06
 30
0.0
 11
1315.695399
 21
2073.06
 31
0.0
  0
LINE
  5
20C
102
{ACAD_REACTORS
330
643
102
}
330
1F
100
AcDbEntity
  8
LC-002-002-----0
 62
     7
370
    50
100
AcDbLine
 10
1320.695399
 20
2068.06
 30
0.0
 11
1320.695399
 21
1578.06
 31
0.0
  0
ARC
  5
20D
102
{ACAD_REACTORS
330
643
102
}
330
1F
100
AcDbEntity
  8
LC-002-002-----0
 62
     7
370
    50
100
AcDbCircle
 10
1315.695399
 20
1578.06
 30
0.0
 40
5.0
100
AcDbArc
 50
270.0
 51
0.0
  0
ARC
  5
20E
102
{ACAD_REACTORS
330
643
102
}
330
1F
100
AcDbEntity
  8
LC-002-002-----0
 62
     7
370
    50
100
AcDbCircle
 10
1315.695399
 20
2068.06
 30
0.0
 40
5.0
100
AcDbArc
 50
0.0
 51
90.0
  0
CIRCLE
  5
20F
102
{ACAD_REACTORS
330
643
102
}
330
1F
100
AcDbEntity
  8
LC-002-002-----0
 62
     7
370
    50
100
AcDbCircle
 10
1038.695399
 20
1823.06
 30
0.0
 40
58.25
  0
CIRCLE
  5
210
102
{ACAD_REACTORS
330
643
102
}
330
1F
100
AcDbEntity
  8
LC-002-002-----0
 62
     7
370
    50
100
AcDbCircle
 10
1038.695399
 20
1823.06
 30
0.0
 40
45.0
  0
LINE
  5
211
102
{ACAD_REACTORS
330
643
102
}
330
1F
100
AcDbEntity
  8
LC-002-002-----0
 62
     7
370
    50
100
AcDbLine
 10
933.695399
 20
1929.06
 30
0.0
 11
933.695399
 21
1717.06
 31
0.0
  0
CIRCLE
  5
212
102
{ACAD_REACTORS
330
643
102
}
330
1F
100
AcDbEntity
  8
LC-002-002-----0
  6
DASHED
 62
     7
370
    25
100
AcDbCircle
 10
912.695399
 20
2006.06
 30
0.0
 40
17.5
  0
LINE
  5
213
102
{ACAD_REACTORS
330
643
102
}
330
1F
100
AcDbEntity
  8
LC-002-002-----0
 62
     7
370
    25
100
AcDbLine
 10
526.574959
 20
2020.06
 30
0.0
 11
834.293379
 21
2020.06
 31
0.0
  0
LINE
  5
214
102
{ACAD_REACTORS
330
643
102
}
330
1F
100
AcDbEntity
  8
LC-002-002-----0
 62
     7
370
    25
100
AcDbLine
 10
894.294596
 20
1948.06
 30
0.0
 11
498.695399
 21
1948.06
 31
0.0
  0
LINE
  5
215
102
{ACAD_REACTORS
330
643
102
}
330
1F
100
AcDbEntity
  8
LC-002-002-----0
 62
     7
370
    25
100
AcDbLine
 10
498.695399
 20
1962.06
 30
0.0
 11
892.18386
 21
1962.06
 31
0.0
  0
LINE
  5
216
102
{ACAD_REACTORS
330
643
102
}
330
1F
100
AcDbEntity
  8
LC-002-002-----0
 62
     7
370
    25
100
AcDbLine
 10
498.704172
 20
1972.06
 30
0.0
 11
885.733852
 21
1972.06
 31
0.0
  0
ARC
  5
217
102
{ACAD_REACTORS
330
643
102
}
330
1F
100
AcDbEntity
  8
LC-002-002-----0
 62
     7
370
    25
100
AcDbCircle
 10
498.695399
 20
1951.06
 30
0.0
 40
3.0
100
AcDbArc
 50
180.0
 51
270.0
  0
LINE
  5
218
102
{ACAD_REACTORS
330
643
102
}
330
1F
100
AcDbEntity
  8
LC-002-002-----0
 62
     7
370
    25
100
AcDbLine
 10
495.695399
 20
1951.06
 30
0.0
 11
495.695399
 21
1959.06
 31
0.0
  0
ARC
  5
219
102
{ACAD_REACTORS
330
643
102
}
330
1F
100
AcDbEntity
  8
LC-002-002-----0
 62
     7
370
    25
100
AcDbCircle
 10
498.695399
 20
1959.06
 30
0.0
 40
3.0
100
AcDbArc
 50
90.0
 51
180.0
  0
LINE
  5
21A
102
{ACAD_REACTORS
330
643
102
}
330
1F
100
AcDbEntity
  8
LC-002-002-----0
 62
     7
370
    50
100
AcDbLine
 10
460.695399
 20
1578.06
 30
0.0
 11
460.695399
 21
2068.06
 31
0.0
  0
LINE
  5
21B
102
{ACAD_REACTORS
330
643
102
}
330
1F
100
AcDbEntity
  8
LC-002-002-----0
 62
     7
370
    50
100
AcDbLine
 10
460.695399
 20
2068.06
 30
0.0
 11
460.695399
 21
1578.06
 31
0.0
  0
ARC
  5
21C
102
{ACAD_REACTORS
330
643
102
}
330
1F
100
AcDbEntity
  8
LC-002-002-----0
 62
     7
370
    50
100
AcDbCircle
 10
465.695399
 20
1578.06
 30
0.0
 40
5.0
100
AcDbArc
 50
180.0
 51
270.0
  0
ARC
  5
21D
102
{ACAD_REACTORS
330
643
102
}
330
1F
100
AcDbEntity
  8
LC-002-002-----0
 62
     7
370
    50
100
AcDbCircle
 10
465.695399
 20
2068.06
 30
0.0
 40
5.0
100
AcDbArc
 50
90.0
 51
180.0
  0
LINE
  5
21E
102
{ACAD_REACTORS
330
643
102
}
330
1F
100
AcDbEntity
  8
LC-002-002-----0
 62
     7
370
    25
100
AcDbLine
 10
509.219599
 20
2010.06
 30
0.0
 11
860.422106
 21
2010.06
 31
0.0
  0
ARC
  5
21F
102
{ACAD_REACTORS
330
649
102
}
330
1F
100
AcDbEntity
  8
LC-004-002-RND-0
 62
     7
370
    50
100
AcDbCircle
 10
1246.61746
 20
1029.978317
 30
0.0
 40
20.0
100
AcDbArc
 50
90.0
 51
180.0
  0
ARC
  5
220
102
{ACAD_REACTORS
330
649
102
}
330
1F
100
AcDbEntity
  8
LC-004-002-RND-0
 62
     7
370
    50
100
AcDbCircle
 10
1246.61746
 20
827.478317
 30
0.0
 40
20.0
100
AcDbArc
 50
180.0
 51
270.0
  0
ARC
  5
221
102
{ACAD_REACTORS
330
649
102
}
330
1F
100
AcDbEntity
  8
LC-004-002-RND-0
 62
     7
370
    50
100
AcDbCircle
 10
1629.11746
 20
827.478317
 30
0.0
 40
20.0
100
AcDbArc
 50
270.0
 51
0.0
  0
ARC
  5
222
102
{ACAD_REACTORS
330
649
102
}
330
1F
100
AcDbEntity
  8
LC-004-002-RND-0
 62
     7
370
    50
100
AcDbCircle
 10
1629.11746
 20
1029.978317
 30
0.0
 40
20.0
100
AcDbArc
 50
0.0
 51
90.0
  0
LINE
  5
223
102
{ACAD_REACTORS
330
644
102
}
330
1F
100
AcDbEntity
  8
LC-002-002-----0
 62
     7
370
    50
100
AcDbLine
 10
1083.695399
 20
2465.85
 30
0.0
 11
993.695399
 21
2465.85
 31
0.0
  0
LINE
  5
224
102
{ACAD_REACTORS
330
643
102
}
330
1F
100
AcDbEntity
  8
LC-002-002-----0
 62
     7
370
    25
100
AcDbLine
 10
717.318574
 20
1996.06
 30
0.0
 11
657.372958
 21
1996.06
 31
0.0
  0
LINE
  5
225
102
{ACAD_REACTORS
330
643
102
}
330
1F
100
AcDbEntity
  8
LC-002-002-----0
 62
     7
370
    25
100
AcDbLine
 10
658.374688
 20
1986.06
 30
0.0
 11
715.789618
 21
1986.06
 31
0.0
  0
LINE
  5
226
102
{ACAD_REACTORS
330
643
102
}
330
1F
100
AcDbEntity
  8
LC-002-002-----0
 62
     7
370
    25
100
AcDbLine
 10
722.371799
 20
1866.06
 30
0.0
 11
668.676092
 21
1866.06
 31
0.0
  0
LINE
  5
227
102
{ACAD_REACTORS
330
643
102
}
330
1F
100
AcDbEntity
  8
LC-002-002-----0
 62
     7
370
    50
100
AcDbLine
 10
1315.695399
 20
1573.06
 30
0.0
 11
465.695399
 21
1573.06
 31
0.0
  0
LINE
  5
228
102
{ACAD_REACTORS
330
648
102
}
330
1F
100
AcDbEntity
  8
LC-002-002-----0
 62
     7
370
    50
100
AcDbLine
 10
1819.765399
 20
1573.06
 30
0.0
 11
1819.765399
 21
1589.56
 31
0.0
  0
LINE
  5
229
102
{ACAD_REACTORS
330
648
102
}
330
1F
100
AcDbEntity
  8
LC-002-002-----0
 62
     7
370
    50
100
AcDbLine
 10
1615.304688
 20
1756.782859
 30
0.0
 11
1623.025713
 21
1646.367102
 31
0.0
  0
LINE
  5
22A
102
{ACAD_REACTORS
330
648
102
}
330
1F
100
AcDbEntity
  8
LC-002-002-----0
 62
     7
370
    25
100
AcDbLine
 10
1622.765399
 20
1881.31
 30
0.0
 11
1622.765399
 21
1764.81
 31
0.0
  0
LINE
  5
22B
102
{ACAD_REACTORS
330
648
102
}
330
1F
100
AcDbEntity
  8
LC-002-002-----0
 62
     7
370
    50
100
AcDbLine
 10
1618.613014
 20
1777.191759
 30
0.0
 11
1620.632154
 21
1765.740647
 31
0.0
  0
LINE
  5
22C
102
{ACAD_REACTORS
330
648
102
}
330
1F
100
AcDbEntity
  8
LC-002-002-----0
 62
     7
370
    50
100
AcDbLine
 10
1612.349708
 20
1760.367536
 30
0.0
 11
1611.247761
 21
1760.662802
 31
0.0
  0
ARC
  5
22D
102
{ACAD_REACTORS
330
648
102
}
330
1F
100
AcDbEntity
  8
LC-004-002-RND-0
 62
     7
370
    50
100
AcDbCircle
 10
1621.827412
 20
1763.888243
 30
0.0
 40
0.9999999999995273
100
AcDbArc
 50
4.0
 51
85.0
  0
LINE
  5
22E
102
{ACAD_REACTORS
330
648
102
}
330
1F
100
AcDbEntity
  8
LC-002-002-----0
 62
     7
370
    50
100
AcDbLine
 10
1621.529806
 20
1764.9181
 30
0.0
 11
1621.914568
 21
1764.884438
 31
0.0
  0
ARC
  5
22F
102
{ACAD_REACTORS
330
648
102
}
330
1F
100
AcDbEntity
  8
LC-004-002-RND-0
 62
     7
370
    50
100
AcDbCircle
 10
1611.765399
 20
1762.594654
 30
0.0
 40
2.0
100
AcDbArc
 50
180.0
 51
255.0
  0
ARC
  5
230
102
{ACAD_REACTORS
330
648
102
}
330
1F
100
AcDbEntity
  8
LC-004-002-RND-0
 62
     7
370
    50
100
AcDbCircle
 10
1611.314431
 20
1756.503833
 30
0.0
 40
3.999999999999916
100
AcDbArc
 50
4.000002
 51
75.0
  0
ARC
  5
231
102
{ACAD_REACTORS
330
648
102
}
330
1F
100
AcDbEntity
  8
LC-004-002-RND-0
 62
     7
370
    50
100
AcDbCircle
 10
1621.616961
 20
1765.914295
 30
0.0
 40
1.000000000000125
100
AcDbArc
 50
190.0
 51
265.0
  0
ARC
  5
232
102
{ACAD_REACTORS
330
648
102
}
330
1F
100
AcDbEntity
  8
LC-004-002-RND-0
 62
     7
370
    50
100
AcDbCircle
 10
1613.688975
 20
1776.323518
 30
0.0
 40
4.999999999999491
100
AcDbArc
 50
10.0
 51
20.322037
  0
LINE
  5
233
102
{ACAD_REACTORS
330
648
102
}
330
1F
100
AcDbEntity
  8
LC-002-002-----0
 62
     7
370
    50
100
AcDbLine
 10
1609.765399
 20
1778.06
 30
0.0
 11
1618.377752
 21
1778.06
 31
0.0
  0
LINE
  5
234
102
{ACAD_REACTORS
330
648
102
}
330
1F
100
AcDbEntity
  8
LC-002-002-----0
 62
     7
370
    50
100
AcDbLine
 10
1609.765399
 20
1762.594654
 30
0.0
 11
1609.765399
 21
1778.06
 31
0.0
  0
ARC
  5
235
102
{ACAD_REACTORS
330
648
102
}
330
1F
100
AcDbEntity
  8
LC-004-002-RND-0
 62
     7
370
    50
100
AcDbCircle
 10
1812.765399
 20
1606.657576
 30
0.0
 40
6.0
100
AcDbArc
 50
360.0
 51
84.0
  0
ARC
  5
236
102
{ACAD_REACTORS
330
648
102
}
330
1F
100
AcDbEntity
  8
LC-004-002-RND-0
 62
     7
370
    50
100
AcDbCircle
 10
1823.765399
 20
1604.142904
 30
0.0
 40
5.0
100
AcDbArc
 50
180.0
 51
239.999997
  0
ARC
  5
237
102
{ACAD_REACTORS
330
648
102
}
330
1F
100
AcDbEntity
  8
LC-002-002-----0
 62
     7
370
    50
100
AcDbCircle
 10
1823.765399
 20
1604.142904
 30
0.0
 40
12.50000000000022
100
AcDbArc
 50
186.776381
 51
236.514623
  0
LINE
  5
238
102
{ACAD_REACTORS
330
648
102
}
330
1F
100
AcDbEntity
  8
LC-002-002-----0
 62
     7
370
    50
100
AcDbLine
 10
1817.765399
 20
1590.56
 30
0.0
 11
1817.765399
 21
1592.049518
 31
0.0
  0
LINE
  5
239
102
{ACAD_REACTORS
330
648
102
}
330
1F
100
AcDbEntity
  8
LC-002-002-----0
 62
     7
370
    50
100
AcDbLine
 10
1819.765399
 20
1573.06
 30
0.0
 11
1825.904912
 21
1573.489317
 31
0.0
  0
ARC
  5
23A
102
{ACAD_REACTORS
330
648
102
}
330
1F
100
AcDbEntity
  8
LC-004-002-RND-0
 62
     7
370
    50
100
AcDbCircle
 10
1825.765399
 20
1575.484445
 30
0.0
 40
2.000000000000025
100
AcDbArc
 50
274.0
 51
0.0
  0
LINE
  5
23B
102
{ACAD_REACTORS
330
648
102
}
330
1F
100
AcDbEntity
  8
LC-002-002-----0
 62
     7
370
    50
100
AcDbLine
 10
1818.765399
 20
1604.142904
 30
0.0
 11
1818.765399
 21
2041.977096
 31
0.0
  0
ARC
  5
23C
102
{ACAD_REACTORS
330
648
102
}
330
1F
100
AcDbEntity
  8
LC-004-002-RND-0
 62
     7
370
    50
100
AcDbCircle
 10
1815.765399
 20
1592.049518
 30
0.0
 40
2.0
100
AcDbArc
 50
0.0
 51
56.514623
  0
LINE
  5
23D
102
{ACAD_REACTORS
330
648
102
}
330
1F
100
AcDbEntity
  8
LC-002-002-----0
 62
     7
370
    50
100
AcDbLine
 10
1807.798778
 20
1606.17408
 30
0.0
 11
1645.351603
 21
1623.247967
 31
0.0
  0
ARC
  5
23E
102
{ACAD_REACTORS
330
648
102
}
330
1F
100
AcDbEntity
  8
LC-004-002-RND-0
 62
     7
370
    50
100
AcDbCircle
 10
1807.380664
 20
1602.195993
 30
0.0
 40
4.000000000000382
100
AcDbArc
 50
6.776381
 51
84.0
  0
LINE
  5
23F
102
{ACAD_REACTORS
330
648
102
}
330
1F
100
AcDbEntity
  8
LC-002-002-----0
 62
     7
370
    50
100
AcDbLine
 10
1818.765399
 20
1590.56
 30
0.0
 11
1817.765399
 21
1590.56
 31
0.0
  0
ARC
  5
240
102
{ACAD_REACTORS
330
648
102
}
330
1F
100
AcDbEntity
  8
LC-002-002-----0
 62
     7
370
    50
100
AcDbCircle
 10
1818.765399
 20
1589.56
 30
0.0
 40
1.0
100
AcDbArc
 50
0.0
 51
90.0
  0
LINE
  5
241
102
{ACAD_REACTORS
330
648
102
}
330
1F
100
AcDbEntity
  8
LC-002-002-----0
 62
     7
370
    50
100
AcDbLine
 10
1813.392569
 20
1612.624707
 30
0.0
 11
1652.934686
 21
1629.489511
 31
0.0
  0
ARC
  5
242
102
{ACAD_REACTORS
330
648
102
}
330
1F
100
AcDbEntity
  8
LC-002-002-----0
 62
     7
370
    50
100
AcDbCircle
 10
1825.765399
 20
1594.905299
 30
0.0
 40
2.0
100
AcDbArc
 50
0.0
 51
60.0
  0
LINE
  5
243
102
{ACAD_REACTORS
330
648
102
}
330
1F
100
AcDbEntity
  8
LC-002-002-----0
 62
     7
370
    50
100
AcDbLine
 10
1821.265398
 20
1599.812777
 30
0.0
 11
1826.765399
 21
1596.63735
 31
0.0
  0
LINE
  5
244
102
{ACAD_REACTORS
330
648
102
}
330
1F
100
AcDbEntity
  8
LC-002-002-----0
 62
     7
370
    50
100
AcDbLine
 10
1622.824976
 20
1763.922424
 30
0.0
 11
1630.608797
 21
1652.608646
 31
0.0
  0
LINE
  5
245
102
{ACAD_REACTORS
330
648
102
}
330
1F
100
AcDbEntity
  8
LC-002-002-----0
 62
     7
370
    50
100
AcDbLine
 10
1609.765399
 20
1778.06
 30
0.0
 11
1609.765399
 21
1868.06
 31
0.0
  0
LINE
  5
246
102
{ACAD_REACTORS
330
648
102
}
330
1F
100
AcDbEntity
  8
LC-002-002-----0
 62
     7
370
    50
100
AcDbLine
 10
1827.765399
 20
1575.484445
 30
0.0
 11
1827.765399
 21
2070.635555
 31
0.0
  0
ARC
  5
247
102
{ACAD_REACTORS
330
648
102
}
330
1F
100
AcDbEntity
  8
LC-004-002-RND-0
 62
     7
370
    50
100
AcDbCircle
 10
1655.547898
 20
1654.352559
 30
0.0
 40
24.99999999999987
100
AcDbArc
 50
184.000002
 51
264.0
  0
ARC
  5
248
102
{ACAD_REACTORS
330
648
102
}
330
1F
100
AcDbEntity
  8
LC-004-002-RND-0
 62
     7
370
    50
100
AcDbCircle
 10
1647.964814
 20
1648.111015
 30
0.0
 40
24.99999999999987
100
AcDbArc
 50
184.000002
 51
264.0
  0
LINE
  5
249
102
{ACAD_REACTORS
330
648
102
}
330
1F
100
AcDbEntity
  8
LC-002-002-----0
 62
     7
370
    50
100
AcDbLine
 10
1819.765399
 20
2073.06
 30
0.0
 11
1819.765399
 21
2056.56
 31
0.0
  0
LINE
  5
24A
102
{ACAD_REACTORS
330
648
102
}
330
1F
100
AcDbEntity
  8
LC-002-002-----0
 62
     7
370
    50
100
AcDbLine
 10
1615.304688
 20
1889.337141
 30
0.0
 11
1623.025713
 21
1999.752898
 31
0.0
  0
LINE
  5
24B
102
{ACAD_REACTORS
330
648
102
}
330
1F
100
AcDbEntity
  8
LC-002-002-----0
 62
     7
370
    50
100
AcDbLine
 10
1618.613014
 20
1868.928241
 30
0.0
 11
1620.632154
 21
1880.379353
 31
0.0
  0
LINE
  5
24C
102
{ACAD_REACTORS
330
648
102
}
330
1F
100
AcDbEntity
  8
LC-002-002-----0
 62
     7
370
    50
100
AcDbLine
 10
1612.349708
 20
1885.752464
 30
0.0
 11
1611.247761
 21
1885.457198
 31
0.0
  0
ARC
  5
24D
102
{ACAD_REACTORS
330
648
102
}
330
1F
100
AcDbEntity
  8
LC-004-002-RND-0
 62
     7
370
    50
100
AcDbCircle
 10
1621.827412
 20
1882.231757
 30
0.0
 40
0.9999999999994268
100
AcDbArc
 50
275.0
 51
356.0
  0
LINE
  5
24E
102
{ACAD_REACTORS
330
648
102
}
330
1F
100
AcDbEntity
  8
LC-002-002-----0
 62
     7
370
    50
100
AcDbLine
 10
1621.529806
 20
1881.2019
 30
0.0
 11
1621.914568
 21
1881.235562
 31
0.0
  0
ARC
  5
24F
102
{ACAD_REACTORS
330
648
102
}
330
1F
100
AcDbEntity
  8
LC-004-002-RND-0
 62
     7
370
    50
100
AcDbCircle
 10
1611.765399
 20
1883.525346
 30
0.0
 40
2.000000000000002
100
AcDbArc
 50
105.0
 51
180.0
  0
ARC
  5
250
102
{ACAD_REACTORS
330
648
102
}
330
1F
100
AcDbEntity
  8
LC-004-002-RND-0
 62
     7
370
    50
100
AcDbCircle
 10
1611.314431
 20
1889.616167
 30
0.0
 40
4.000000000000004
100
AcDbArc
 50
285.0
 51
355.999998
  0
ARC
  5
251
102
{ACAD_REACTORS
330
648
102
}
330
1F
100
AcDbEntity
  8
LC-004-002-RND-0
 62
     7
370
    50
100
AcDbCircle
 10
1621.616961
 20
1880.205705
 30
0.0
 40
1.000000000000027
100
AcDbArc
 50
95.0
 51
170.0
  0
ARC
  5
252
102
{ACAD_REACTORS
330
648
102
}
330
1F
100
AcDbEntity
  8
LC-004-002-RND-0
 62
     7
370
    50
100
AcDbCircle
 10
1613.688975
 20
1869.796482
 30
0.0
 40
4.999999999999672
100
AcDbArc
 50
339.677963
 51
350.0
  0
LINE
  5
253
102
{ACAD_REACTORS
330
648
102
}
330
1F
100
AcDbEntity
  8
LC-002-002-----0
 62
     7
370
    50
100
AcDbLine
 10
1609.765399
 20
1868.06
 30
0.0
 11
1618.377752
 21
1868.06
 31
0.0
  0
LINE
  5
254
102
{ACAD_REACTORS
330
648
102
}
330
1F
100
AcDbEntity
  8
LC-002-002-----0
 62
     7
370
    50
100
AcDbLine
 10
1609.765399
 20
1883.525346
 30
0.0
 11
1609.765399
 21
1868.06
 31
0.0
  0
ARC
  5
255
102
{ACAD_REACTORS
330
648
102
}
330
1F
100
AcDbEntity
  8
LC-004-002-RND-0
 62
     7
370
    50
100
AcDbCircle
 10
1812.765399
 20
2039.462424
 30
0.0
 40
6.000000000000068
100
AcDbArc
 50
276.0
 51
0.0
  0
ARC
  5
256
102
{ACAD_REACTORS
330
648
102
}
330
1F
100
AcDbEntity
  8
LC-004-002-RND-0
 62
     7
370
    50
100
AcDbCircle
 10
1823.765399
 20
2041.977096
 30
0.0
 40
5.000000000000052
100
AcDbArc
 50
120.000003
 51
180.0
  0
ARC
  5
257
102
{ACAD_REACTORS
330
648
102
}
330
1F
100
AcDbEntity
  8
LC-002-002-----0
 62
     7
370
    50
100
AcDbCircle
 10
1823.765399
 20
2041.977096
 30
0.0
 40
12.50000000000013
100
AcDbArc
 50
123.485377
 51
173.223619
  0
LINE
  5
258
102
{ACAD_REACTORS
330
648
102
}
330
1F
100
AcDbEntity
  8
LC-002-002-----0
 62
     7
370
    50
100
AcDbLine
 10
1817.765399
 20
2055.56
 30
0.0
 11
1817.765399
 21
2054.070482
 31
0.0
  0
LINE
  5
259
102
{ACAD_REACTORS
330
648
102
}
330
1F
100
AcDbEntity
  8
LC-002-002-----0
 62
     7
370
    50
100
AcDbLine
 10
1819.765399
 20
2073.06
 30
0.0
 11
1825.904912
 21
2072.630683
 31
0.0
  0
ARC
  5
25A
102
{ACAD_REACTORS
330
648
102
}
330
1F
100
AcDbEntity
  8
LC-004-002-RND-0
 62
     7
370
    50
100
AcDbCircle
 10
1825.765399
 20
2070.635555
 30
0.0
 40
2.0
100
AcDbArc
 50
0.0
 51
86.0
  0
ARC
  5
25B
102
{ACAD_REACTORS
330
648
102
}
330
1F
100
AcDbEntity
  8
LC-004-002-RND-0
 62
     7
370
    50
100
AcDbCircle
 10
1815.765399
 20
2054.070482
 30
0.0
 40
1.999999999999936
100
AcDbArc
 50
303.485377
 51
0.0
  0
LINE
  5
25C
102
{ACAD_REACTORS
330
648
102
}
330
1F
100
AcDbEntity
  8
LC-002-002-----0
 62
     7
370
    50
100
AcDbLine
 10
1807.798778
 20
2039.94592
 30
0.0
 11
1645.351603
 21
2022.872033
 31
0.0
  0
ARC
  5
25D
102
{ACAD_REACTORS
330
648
102
}
330
1F
100
AcDbEntity
  8
LC-004-002-RND-0
 62
     7
370
    50
100
AcDbCircle
 10
1807.380664
 20
2043.924007
 30
0.0
 40
4.000000000000422
100
AcDbArc
 50
276.0
 51
353.223619
  0
LINE
  5
25E
102
{ACAD_REACTORS
330
648
102
}
330
1F
100
AcDbEntity
  8
LC-002-002-----0
 62
     7
370
    50
100
AcDbLine
 10
1818.765399
 20
2055.56
 30
0.0
 11
1817.765399
 21
2055.56
 31
0.0
  0
ARC
  5
25F
102
{ACAD_REACTORS
330
648
102
}
330
1F
100
AcDbEntity
  8
LC-002-002-----0
 62
     7
370
    50
100
AcDbCircle
 10
1818.765399
 20
2056.56
 30
0.0
 40
1.0
100
AcDbArc
 50
270.0
 51
0.0
  0
LINE
  5
260
102
{ACAD_REACTORS
330
648
102
}
330
1F
100
AcDbEntity
  8
LC-002-002-----0
 62
     7
370
    50
100
AcDbLine
 10
1813.392569
 20
2033.495293
 30
0.0
 11
1652.934686
 21
2016.630489
 31
0.0
  0
ARC
  5
261
102
{ACAD_REACTORS
330
648
102
}
330
1F
100
AcDbEntity
  8
LC-002-002-----0
 62
     7
370
    50
100
AcDbCircle
 10
1825.765399
 20
2051.214701
 30
0.0
 40
1.99999999999977
100
AcDbArc
 50
300.0
 51
0.0
  0
LINE
  5
262
102
{ACAD_REACTORS
330
648
102
}
330
1F
100
AcDbEntity
  8
LC-002-002-----0
 62
     7
370
    50
100
AcDbLine
 10
1821.265398
 20
2046.307223
 30
0.0
 11
1826.765399
 21
2049.48265
 31
0.0
  0
LINE
  5
263
102
{ACAD_REACTORS
330
648
102
}
330
1F
100
AcDbEntity
  8
LC-002-002-----0
 62
     7
370
    50
100
AcDbLine
 10
1622.824976
 20
1882.197576
 30
0.0
 11
1630.608797
 21
1993.511354
 31
0.0
  0
ARC
  5
264
102
{ACAD_REACTORS
330
648
102
}
330
1F
100
AcDbEntity
  8
LC-004-002-RND-0
 62
     7
370
    50
100
AcDbCircle
 10
1655.547898
 20
1991.767441
 30
0.0
 40
24.99999999999987
100
AcDbArc
 50
96.0
 51
175.999998
  0
ARC
  5
265
102
{ACAD_REACTORS
330
648
102
}
330
1F
100
AcDbEntity
  8
LC-004-002-RND-0
 62
     7
370
    50
100
AcDbCircle
 10
1647.964814
 20
1998.008985
 30
0.0
 40
24.99999999999982
100
AcDbArc
 50
96.0
 51
175.999998
  0
INSERT
  5
282
102
{ACAD_REACTORS
330
648
102
}
330
1F
100
AcDbEntity
  8
LC-009-003-----0
 62
     7
370
    25
100
AcDbBlockReference
  2
LCDIM1
 10
0.0
 20
0.0
 30
0.0
  0
INSERT
  5
29C
102
{ACAD_REACTORS
330
643
102
}
330
1F
100
AcDbEntity
  8
LC-009-003-----0
 62
     7
370
    25
100
AcDbBlockReference
  2
LCDIM2
 10
0.0
 20
0.0
 30
0.0
  0
INSERT
  5
2B6
102
{ACAD_REACTORS
330
643
102
}
330
1F
100
AcDbEntity
  8
LC-009-003-----0
 62
     7
370
    25
100
AcDbBlockReference
  2
LCDIM3
 10
0.0
 20
0.0
 30
0.0
  0
LINE
  5
2B7
102
{ACAD_REACTORS
330
648
102
}
330
1F
100
AcDbEntity
  8
LC-005-006-MLN-0
 62
     7
370
    25
100
AcDbLine
 10
1606.765399
 20
1823.06
 30
0.0
 11
1625.765399
 21
1823.06
 31
0.0
  0
LINE
  5
2B8
102
{ACAD_REACTORS
330
644
102
}
330
1F
100
AcDbEntity
  8
LC-002-002-----0
 62
     7
370
    50
100
AcDbLine
 10
1310.695399
 20
2675.85
 30
0.0
 11
1310.695399
 21
2640.85
 31
0.0
  0
LINE
  5
2B9
102
{ACAD_REACTORS
330
644
102
}
330
1F
100
AcDbEntity
  8
LC-002-002-----0
 62
     7
370
    50
100
AcDbLine
 10
1310.695399
 20
2675.85
 30
0.0
 11
1416.87212
 21
2675.85
 31
0.0
  0
LINE
  5
2BA
102
{ACAD_REACTORS
330
644
102
}
330
1F
100
AcDbEntity
  8
LC-002-002-----0
 62
     7
370
    50
100
AcDbLine
 10
1310.695399
 20
2640.85
 30
0.0
 11
1416.87212
 21
2640.85
 31
0.0
  0
LINE
  5
2BB
102
{ACAD_REACTORS
330
642
102
}
330
1F
100
AcDbEntity
  8
LC-002-002-----0
 62
     7
370
    50
100
AcDbLine
 10
1310.695399
 20
2640.85
 30
0.0
 11
1310.695399
 21
2553.737349
 31
0.0
  0
LINE
  5
2BC
102
{ACAD_REACTORS
330
642
102
}
330
1F
100
AcDbEntity
  8
LC-002-002-----0
 62
     7
370
    50
100
AcDbLine
 10
1291.695399
 20
2640.85
 30
0.0
 11
1291.695399
 21
2553.737349
 31
0.0
  0
LINE
  5
2BD
102
{ACAD_REACTORS
330
642
102
}
330
1F
100
AcDbEntity
  8
LC-002-002-----0
 62
     7
370
    50
100
AcDbLine
 10
1291.695399
 20
2640.85
 30
0.0
 11
1310.695399
 21
2640.85
 31
0.0
  0
LINE
  5
2BE
102
{ACAD_REACTORS
330
642
102
}
330
1F
100
AcDbEntity
  8
LC-002-002-----0
 62
     7
370
    50
100
AcDbLine
 10
860.695399
 20
2640.85
 30
0.0
 11
860.695399
 21
2553.737349
 31
0.0
  0
LINE
  5
2BF
102
{ACAD_REACTORS
330
642
102
}
330
1F
100
AcDbEntity
  8
LC-002-002-----0
 62
     7
370
    50
100
AcDbLine
 10
879.695399
 20
2640.85
 30
0.0
 11
879.695399
 21
2553.737349
 31
0.0
  0
LINE
  5
2C0
102
{ACAD_REACTORS
330
642
102
}
330
1F
100
AcDbEntity
  8
LC-002-002-----0
 62
     7
370
    50
100
AcDbLine
 10
860.695399
 20
2640.85
 30
0.0
 11
879.695399
 21
2640.85
 31
0.0
  0
LINE
  5
2C1
102
{ACAD_REACTORS
330
644
102
}
330
1F
100
AcDbEntity
  8
LC-002-002-----0
 62
     7
370
    25
100
AcDbLine
 10
1416.87212
 20
2675.85
 30
0.0
 11
1419.525861
 21
2657.096759
 31
0.0
  0
LINE
  5
2C2
102
{ACAD_REACTORS
330
644
102
}
330
1F
100
AcDbEntity
  8
LC-002-002-----0
 62
     7
370
    25
100
AcDbLine
 10
1419.525861
 20
2657.096759
 30
0.0
 11
1416.87212
 21
2640.85
 31
0.0
  0
INSERT
  5
2CB
102
{ACAD_REACTORS
330
644
102
}
330
1F
100
AcDbEntity
  8
LC-010-005-----0
 62
     7
370
    25
100
AcDbBlockReference
  2
*X15
 10
0.0
 20
0.0
 30
0.0
  0
INSERT
  5
2E5
102
{ACAD_REACTORS
330
642
102
}
330
1F
100
AcDbEntity
  8
LC-009-003-----0
 62
     7
370
    25
100
AcDbBlockReference
  2
LCDIM4
 10
0.0
 20
0.0
 30
0.0
  0
LINE
  5
2E6
102
{ACAD_REACTORS
330
644
102
}
330
1F
100
AcDbEntity
  8
LC-005-006-MLN-0
 62
     7
370
    25
100
AcDbLine
 10
1038.695399
 20
2462.85
 30
0.0
 11
1038.695399
 21
2481.85
 31
0.0
  0
INSERT
  5
300
102
{ACAD_REACTORS
330
644
102
}
330
1F
100
AcDbEntity
  8
LC-009-003-----0
 62
     7
370
    25
100
AcDbBlockReference
  2
LCDIM5
 10
0.0
 20
0.0
 30
0.0
  0
INSERT
  5
31A
102
{ACAD_REACTORS
330
644
102
}
330
1F
100
AcDbEntity
  8
LC-009-003-----0
 62
     7
370
    25
100
AcDbBlockReference
  2
LCDIM6
 10
0.0
 20
0.0
 30
0.0
  0
LINE
  5
31B
102
{ACAD_REACTORS
330
64C
102
}
330
1F
100
AcDbEntity
  8
LC-002-002-----0
 62
     7
370
    50
100
AcDbLine
 10
399.591949
 20
814.609991
 30
0.0
 11
399.591949
 21
1044.609991
 31
0.0
  0
LINE
  5
31C
102
{ACAD_REACTORS
330
64C
102
}
330
1F
100
AcDbEntity
  8
LC-002-002-----0
 62
     7
370
    50
100
AcDbLine
 10
404.591949
 20
1049.609991
 30
0.0
 11
814.591949
 21
1049.609991
 31
0.0
  0
LINE
  5
31D
102
{ACAD_REACTORS
330
64C
102
}
330
1F
100
AcDbEntity
  8
LC-002-002-----0
 62
     7
370
    50
100
AcDbLine
 10
819.591949
 20
1044.609991
 30
0.0
 11
819.591949
 21
814.609991
 31
0.0
  0
LINE
  5
31E
102
{ACAD_REACTORS
330
64C
102
}
330
1F
100
AcDbEntity
  8
LC-002-002-----0
 62
     7
370
    50
100
AcDbLine
 10
814.591949
 20
809.609991
 30
0.0
 11
404.591949
 21
809.609991
 31
0.0
  0
ARC
  5
31F
102
{ACAD_REACTORS
330
64C
102
}
330
1F
100
AcDbEntity
  8
LC-004-002-RND-0
 62
     7
370
    50
100
AcDbCircle
 10
404.591949
 20
1044.609991
 30
0.0
 40
5.0
100
AcDbArc
 50
90.0
 51
180.0
  0
ARC
  5
320
102
{ACAD_REACTORS
330
64C
102
}
330
1F
100
AcDbEntity
  8
LC-004-002-RND-0
 62
     7
370
    50
100
AcDbCircle
 10
404.591949
 20
814.609991
 30
0.0
 40
5.0
100
AcDbArc
 50
180.0
 51
270.0
  0
ARC
  5
321
102
{ACAD_REACTORS
330
64C
102
}
330
1F
100
AcDbEntity
  8
LC-004-002-RND-0
 62
     7
370
    50
100
AcDbCircle
 10
814.591949
 20
1044.609991
 30
0.0
 40
5.0
100
AcDbArc
 50
0.0
 51
90.0
  0
ARC
  5
322
102
{ACAD_REACTORS
330
64C
102
}
330
1F
100
AcDbEntity
  8
LC-004-002-RND-0
 62
     7
370
    50
100
AcDbCircle
 10
814.591949
 20
814.609991
 30
0.0
 40
5.0
100
AcDbArc
 50
270.0
 51
0.0
  0
INSERT
  5
33C
102
{ACAD_REACTORS
330
64C
102
}
330
1F
100
AcDbEntity
  8
LC-009-003-----0
 62
     7
370
    25
100
AcDbBlockReference
  2
LCDIM7
 10
0.0
 20
0.0
 30
0.0
  0
INSERT
  5
356
102
{ACAD_REACTORS
330
64C
102
}
330
1F
100
AcDbEntity
  8
LC-009-003-----0
 62
     7
370
    25
100
AcDbBlockReference
  2
LCDIM8
 10
0.0
 20
0.0
 30
0.0
  0
INSERT
  5
365
102
{ACAD_REACTORS
330
64C
102
}
330
1F
100
AcDbEntity
  8
LC-009-003-----0
 62
     7
370
    25
100
AcDbBlockReference
  2
LCDIM9
 10
0.0
 20
0.0
 30
0.0
  0
TEXT
  5
367
102
{ACAD_REACTORS
330
64C
102
}
330
1F
100
AcDbEntity
  8
LC-011-004-----0
 62
     7
370
    35
100
AcDbText
 10
414.152129
 20
1173.466422
 30
0.0
 40
35.0
  1
Ausschnitt übergreifend  1:20
 41
0.7
  7
LCTX0-400-0-0pDIN-Schrift
100
AcDbText
  0
INSERT
  5
381
102
{ACAD_REACTORS
330
643
102
}
330
1F
100
AcDbEntity
  8
LC-009-003-----0
 62
     7
370
    25
100
AcDbBlockReference
  2
LCDIM10
 10
0.0
 20
0.0
 30
0.0
  0
INSERT
  5
38A
102
{ACAD_REACTORS
330
644
102
}
330
1F
100
AcDbEntity
  8
LC-010-005-----0
 62
     7
370
    25
100
AcDbBlockReference
  2
*X213
 10
0.0
 20
0.0
 30
0.0
  0
LINE
  5
38B
102
{ACAD_REACTORS
330
652
102
}
330
1F
100
AcDbEntity
  8
LC-002-002-----0
 62
     7
370
    25
100
AcDbLine
 10
983.695399
 20
2465.85
 30
0.0
 11
1093.695399
 21
2465.85
 31
0.0
  0
LINE
  5
38C
102
{ACAD_REACTORS
330
652
102
}
330
1F
100
AcDbEntity
  8
LC-002-002-----0
 62
     7
370
    25
100
AcDbLine
 10
1093.695399
 20
2461.85
 30
0.0
 11
1093.695399
 21
2465.85
 31
0.0
  0
LINE
  5
38D
102
{ACAD_REACTORS
330
652
102
}
330
1F
100
AcDbEntity
  8
LC-002-002-----0
 62
     7
370
    25
100
AcDbLine
 10
1076.195399
 20
2423.207319
 30
0.0
 11
1001.195399
 21
2423.207319
 31
0.0
  0
LINE
  5
38E
102
{ACAD_REACTORS
330
652
102
}
330
1F
100
AcDbEntity
  8
LC-002-002-----0
 62
     7
370
    25
100
AcDbLine
 10
1078.200363
 20
2425.707319
 30
0.0
 11
1076.195399
 21
2425.707319
 31
0.0
  0
LINE
  5
38F
102
{ACAD_REACTORS
330
652
102
}
330
1F
100
AcDbEntity
  8
LC-002-002-----0
 62
     7
370
    25
100
AcDbLine
 10
978.44067
 20
2428.455
 30
0.0
 11
978.695399
 21
2428.455
 31
0.0
  0
LINE
  5
390
102
{ACAD_REACTORS
330
652
102
}
330
1F
100
AcDbEntity
  8
LC-002-002-----0
 62
     7
370
    25
100
AcDbLine
 10
978.695399
 20
2428.5
 30
0.0
 11
997.592799
 21
2428.5
 31
0.0
  0
LINE
  5
391
102
{ACAD_REACTORS
330
651
102
}
330
1F
100
AcDbEntity
  8
LC-002-002-----0
 62
     7
370
    25
100
AcDbLine
 10
959.195399
 20
2431.1
 30
0.0
 11
932.094292
 21
2431.1
 31
0.0
  0
LINE
  5
392
102
{ACAD_REACTORS
330
64E
102
}
330
1F
100
AcDbEntity
  8
LC-002-002-----0
 62
     7
370
    25
100
AcDbLine
 10
913.795223
 20
2646.820891
 30
0.0
 11
910.188912
 21
2607.946038
 31
0.0
  0
LINE
  5
393
102
{ACAD_REACTORS
330
651
102
}
330
1F
100
AcDbEntity
  8
LC-002-002-----0
 62
     7
370
    25
100
AcDbLine
 10
918.897308
 20
2463.572441
 30
0.0
 11
919.594761
 21
2443.59999
 31
0.0
  0
LINE
  5
394
102
{ACAD_REACTORS
330
651
102
}
330
1F
100
AcDbEntity
  8
LC-002-002-----0
 62
     7
370
    25
100
AcDbLine
 10
912.094761
 20
2478.6
 30
0.0
 11
912.094761
 21
2484.6
 31
0.0
  0
LINE
  5
395
102
{ACAD_REACTORS
330
650
102
}
330
1F
100
AcDbEntity
  8
LC-002-002-----0
 62
     7
370
    25
100
AcDbLine
 10
912.398509
 20
2547.412666
 30
0.0
 11
918.341045
 21
2490.873212
 31
0.0
  0
LINE
  5
396
102
{ACAD_REACTORS
330
64F
102
}
330
1F
100
AcDbEntity
  8
LC-002-002-----0
 62
     7
370
    25
100
AcDbLine
 10
912.371988
 20
2560.110388
 30
0.0
 11
912.729186
 21
2568.191997
 31
0.0
  0
LINE
  5
397
102
{ACAD_REACTORS
330
651
102
}
330
1F
100
AcDbEntity
  8
LC-002-002-----0
 62
     7
370
    25
100
AcDbLine
 10
959.195399
 20
2456.1
 30
0.0
 11
945.03127
 21
2456.1
 31
0.0
  0
LINE
  5
398
102
{ACAD_REACTORS
330
652
102
}
330
1F
100
AcDbEntity
  8
LC-002-002-----0
 62
     7
370
    25
100
AcDbLine
 10
978.695399
 20
2458.7
 30
0.0
 11
983.712812
 21
2458.7
 31
0.0
  0
LINE
  5
399
102
{ACAD_REACTORS
330
652
102
}
330
1F
100
AcDbEntity
  8
LC-002-002-----0
 62
     7
370
    25
100
AcDbLine
 10
978.44067
 20
2458.745
 30
0.0
 11
978.695399
 21
2458.745
 31
0.0
  0
LINE
  5
39A
102
{ACAD_REACTORS
330
64E
102
}
330
1F
100
AcDbEntity
  8
LC-002-002-----0
 62
     7
370
    25
100
AcDbLine
 10
910.904576
 20
2599.328153
 30
0.0
 11
911.148108
 21
2598.191068
 31
0.0
  0
LINE
  5
39B
102
{ACAD_REACTORS
330
64F
102
}
330
1F
100
AcDbEntity
  8
LC-002-002-----0
 62
     7
370
    25
100
AcDbLine
 10
913.640015
 20
2548.045908
 30
0.0
 11
912.371988
 21
2560.110388
 31
0.0
  0
LINE
  5
39C
102
{ACAD_REACTORS
330
64F
102
}
330
1F
100
AcDbEntity
  8
LC-002-002-----0
 62
     7
370
    25
100
AcDbLine
 10
909.63522
 20
2597.62912
 30
0.0
 11
912.729186
 21
2568.191997
 31
0.0
  0
LINE
  5
39D
102
{ACAD_REACTORS
330
64E
102
}
330
1F
100
AcDbEntity
  8
LC-002-002-----0
 62
     7
370
    25
100
AcDbLine
 10
910.190707
 20
2607.650847
 30
0.0
 11
911.0637
 21
2599.344878
 31
0.0
  0
LINE
  5
39E
102
{ACAD_REACTORS
330
64E
102
}
330
1F
100
AcDbEntity
  8
LC-002-002-----0
 62
     7
370
    25
100
AcDbLine
 10
929.12242
 20
2600.080244
 30
0.0
 11
929.124217
 21
2601.243115
 31
0.0
  0
LINE
  5
39F
102
{ACAD_REACTORS
330
651
102
}
330
1F
100
AcDbEntity
  8
LC-002-002-----0
 62
     7
370
    25
100
AcDbLine
 10
912.094761
 20
2484.6
 30
0.0
 11
952.094761
 21
2484.6
 31
0.0
  0
LINE
  5
3A0
102
{ACAD_REACTORS
330
64E
102
}
330
1F
100
AcDbEntity
  8
LC-002-002-----0
 62
     7
370
    25
100
AcDbLine
 10
925.964464
 20
2615.425321
 30
0.0
 11
922.273056
 21
2650.546719
 31
0.0
  0
LINE
  5
3A1
102
{ACAD_REACTORS
330
64E
102
}
330
1F
100
AcDbEntity
  8
LC-002-002-----0
 62
     7
370
    25
100
AcDbLine
 10
928.965094
 20
2601.22639
 30
0.0
 11
927.684617
 21
2613.409313
 31
0.0
  0
LINE
  5
3A2
102
{ACAD_REACTORS
330
64F
102
}
330
1F
100
AcDbEntity
  8
LC-002-002-----0
 62
     7
370
    25
100
AcDbLine
 10
934.649272
 20
2562.451825
 30
0.0
 11
933.813044
 21
2570.408
 31
0.0
  0
LINE
  5
3A3
102
{ACAD_REACTORS
330
64F
102
}
330
1F
100
AcDbEntity
  8
LC-002-002-----0
 62
     7
370
    25
100
AcDbLine
 10
935.917306
 20
2550.387345
 30
0.0
 11
934.649278
 21
2562.451826
 31
0.0
  0
LINE
  5
3A4
102
{ACAD_REACTORS
330
64F
102
}
330
1F
100
AcDbEntity
  8
LC-002-002-----0
 62
     7
370
    25
100
AcDbLine
 10
933.81305
 20
2570.408001
 30
0.0
 11
930.719055
 21
2599.845402
 31
0.0
  0
LINE
  5
3A5
102
{ACAD_REACTORS
330
650
102
}
330
1F
100
AcDbEntity
  8
LC-002-002-----0
 62
     7
370
    25
100
AcDbLine
 10
937.261556
 20
2550.025878
 30
0.0
 11
943.204092
 21
2493.486423
 31
0.0
  0
LINE
  5
3A6
102
{ACAD_REACTORS
330
64E
102
}
330
1F
100
AcDbEntity
  8
LC-002-002-----0
 62
     7
370
    25
100
AcDbLine
 10
930.668186
 20
2613.722869
 30
0.0
 11
926.64384
 21
2652.011962
 31
0.0
  0
LINE
  5
3A7
102
{ACAD_REACTORS
330
651
102
}
330
1F
100
AcDbEntity
  8
LC-002-002-----0
 62
     7
370
    25
100
AcDbLine
 10
952.094761
 20
2478.6
 30
0.0
 11
952.094761
 21
2484.6
 31
0.0
  0
LINE
  5
3A8
102
{ACAD_REACTORS
330
651
102
}
330
1F
100
AcDbEntity
  8
LC-002-002-----0
 62
     7
370
    25
100
AcDbLine
 10
945.292214
 20
2463.572441
 30
0.0
 11
945.031178
 21
2456.097372
 31
0.0
  0
LINE
  5
3A9
102
{ACAD_REACTORS
330
650
102
}
330
1F
100
AcDbEntity
  8
LC-002-002-----0
 62
     7
370
    25
100
AcDbLine
 10
943.204092
 20
2493.486423
 30
0.0
 11
918.341045
 21
2490.873212
 31
0.0
  0
LINE
  5
3AA
102
{ACAD_REACTORS
330
652
102
}
330
1F
100
AcDbEntity
  8
LC-002-002-----0
 62
     7
370
    25
100
AcDbLine
 10
973.818034
 20
2428.455
 30
0.0
 11
974.588447
 21
2426.975052
 31
0.0
  0
LINE
  5
3AB
102
{ACAD_REACTORS
330
652
102
}
330
1F
100
AcDbEntity
  8
LC-002-002-----0
 62
     7
370
    25
100
AcDbLine
 10
975.358913
 20
2428.455
 30
0.0
 11
976.129325
 21
2426.975052
 31
0.0
  0
LINE
  5
3AC
102
{ACAD_REACTORS
330
652
102
}
330
1F
100
AcDbEntity
  8
LC-002-002-----0
 62
     7
370
    25
100
AcDbLine
 10
976.899791
 20
2428.455
 30
0.0
 11
977.670204
 21
2426.975052
 31
0.0
  0
LINE
  5
3AD
102
{ACAD_REACTORS
330
650
102
}
330
1F
100
AcDbEntity
  8
LC-002-002-----0
 62
     7
370
    25
100
AcDbLine
 10
936.712031
 20
2550.470874
 30
0.0
 11
912.843505
 21
2547.962191
 31
0.0
  0
LINE
  5
3AE
102
{ACAD_REACTORS
330
652
102
}
330
1F
100
AcDbEntity
  8
LC-002-002-----0
 62
     7
370
    25
100
AcDbLine
 10
974.5885
 20
2460.224948
 30
0.0
 11
975.358913
 21
2458.745
 31
0.0
  0
LINE
  5
3AF
102
{ACAD_REACTORS
330
652
102
}
330
1F
100
AcDbEntity
  8
LC-002-002-----0
 62
     7
370
    25
100
AcDbLine
 10
976.129379
 20
2460.224948
 30
0.0
 11
976.899791
 21
2458.745
 31
0.0
  0
LINE
  5
3B0
102
{ACAD_REACTORS
330
652
102
}
330
1F
100
AcDbEntity
  8
LC-002-002-----0
 62
     7
370
    25
100
AcDbLine
 10
977.670257
 20
2460.224948
 30
0.0
 11
978.44067
 21
2458.745
 31
0.0
  0
LINE
  5
3B1
102
{ACAD_REACTORS
330
652
102
}
330
1F
100
AcDbEntity
  8
LC-002-002-----0
 62
     7
370
    25
100
AcDbLine
 10
983.695399
 20
2458.636832
 30
0.0
 11
983.695399
 21
2461.85
 31
0.0
  0
LINE
  5
3B2
102
{ACAD_REACTORS
330
652
102
}
330
1F
100
AcDbEntity
  8
LC-002-002-----0
 62
     7
370
    25
100
AcDbLine
 10
973.818034
 20
2458.745
 30
0.0
 11
974.588447
 21
2460.224948
 31
0.0
  0
LINE
  5
3B3
102
{ACAD_REACTORS
330
652
102
}
330
1F
100
AcDbEntity
  8
LC-002-002-----0
 62
     7
370
    25
100
AcDbLine
 10
975.358913
 20
2458.745
 30
0.0
 11
976.129325
 21
2460.224948
 31
0.0
  0
LINE
  5
3B4
102
{ACAD_REACTORS
330
652
102
}
330
1F
100
AcDbEntity
  8
LC-002-002-----0
 62
     7
370
    25
100
AcDbLine
 10
976.899791
 20
2458.745
 30
0.0
 11
977.670204
 21
2460.224948
 31
0.0
  0
LINE
  5
3B5
102
{ACAD_REACTORS
330
64F
102
}
330
1F
100
AcDbEntity
  8
LC-002-002-----0
 62
     7
370
    25
100
AcDbLine
 10
912.371988
 20
2560.110388
 30
0.0
 11
934.649263
 21
2562.451969
 31
0.0
  0
LINE
  5
3B6
102
{ACAD_REACTORS
330
64F
102
}
330
1F
100
AcDbEntity
  8
LC-002-002-----0
 62
     7
370
    25
100
AcDbLine
 10
933.81305
 20
2570.408001
 30
0.0
 11
912.729186
 21
2568.191997
 31
0.0
  0
LINE
  5
3B7
102
{ACAD_REACTORS
330
652
102
}
330
1F
100
AcDbEntity
  8
LC-002-002-----0
 62
     7
370
    25
100
AcDbLine
 10
1001.195399
 20
2425.707319
 30
0.0
 11
1001.195399
 21
2423.207319
 31
0.0
  0
LINE
  5
3B8
102
{ACAD_REACTORS
330
652
102
}
330
1F
100
AcDbEntity
  8
LC-002-002-----0
 62
     7
370
    25
100
AcDbLine
 10
974.5885
 20
2426.975052
 30
0.0
 11
975.358913
 21
2428.455
 31
0.0
  0
LINE
  5
3B9
102
{ACAD_REACTORS
330
652
102
}
330
1F
100
AcDbEntity
  8
LC-002-002-----0
 62
     7
370
    25
100
AcDbLine
 10
976.129379
 20
2426.975052
 30
0.0
 11
976.899791
 21
2428.455
 31
0.0
  0
LINE
  5
3BA
102
{ACAD_REACTORS
330
652
102
}
330
1F
100
AcDbEntity
  8
LC-002-002-----0
 62
     7
370
    25
100
AcDbLine
 10
977.670257
 20
2426.975052
 30
0.0
 11
978.44067
 21
2428.455
 31
0.0
  0
LINE
  5
3BB
102
{ACAD_REACTORS
330
64F
102
}
330
1F
100
AcDbEntity
  8
LC-002-002-----0
 62
     7
370
    25
100
AcDbLine
 10
930.179841
 20
2600.191383
 30
0.0
 11
910.090671
 21
2598.079927
 31
0.0
  0
LINE
  5
3BC
102
{ACAD_REACTORS
330
64E
102
}
330
1F
100
AcDbEntity
  8
LC-002-002-----0
 62
     7
370
    25
100
AcDbLine
 10
929.124217
 20
2601.243115
 30
0.0
 11
928.965094
 21
2601.22639
 31
0.0
  0
LINE
  5
3BD
102
{ACAD_REACTORS
330
64E
102
}
330
1F
100
AcDbEntity
  8
LC-002-002-----0
 62
     7
370
    25
100
AcDbLine
 10
930.668186
 20
2613.722869
 30
0.0
 11
927.68462
 21
2613.409284
 31
0.0
  0
LINE
  5
3BE
102
{ACAD_REACTORS
330
64E
102
}
330
1F
100
AcDbEntity
  8
LC-002-002-----0
 62
     7
370
    25
100
AcDbLine
 10
930.589789
 20
2614.46876
 30
0.0
 11
932.976796
 21
2614.719645
 31
0.0
  0
LINE
  5
3BF
102
{ACAD_REACTORS
330
652
102
}
330
1F
100
AcDbEntity
  8
LC-002-002-----0
 62
     7
370
    25
100
AcDbLine
 10
1081.444789
 20
2430.037093
 30
0.0
 11
1083.194764
 21
2431.047442
 31
0.0
  0
LINE
  5
3C0
102
{ACAD_REACTORS
330
64E
102
}
330
1F
100
AcDbEntity
  8
LC-002-002-----0
 62
     7
370
    25
100
AcDbLine
 10
921.461423
 20
2648.70212
 30
0.0
 11
914.996567
 21
2648.022636
 31
0.0
  0
LINE
  5
3C1
102
{ACAD_REACTORS
330
64E
102
}
330
1F
100
AcDbEntity
  8
LC-002-002-----0
 62
     7
370
    25
100
AcDbLine
 10
926.722236
 20
2651.26607
 30
0.0
 11
929.109243
 21
2651.516955
 31
0.0
  0
LINE
  5
3C2
102
{ACAD_REACTORS
330
64E
102
}
330
1F
100
AcDbEntity
  8
LC-002-002-----0
 62
     7
370
    25
100
AcDbLine
 10
926.64384
 20
2652.011962
 30
0.0
 11
923.163013
 21
2651.646112
 31
0.0
  0
LINE
  5
3C3
102
{ACAD_REACTORS
330
652
102
}
330
1F
100
AcDbEntity
  8
LC-002-002-----0
 62
     7
370
    25
100
AcDbLine
 10
1076.195399
 20
2425.707319
 30
0.0
 11
1076.195399
 21
2423.207319
 31
0.0
  0
LINE
  5
3C4
102
{ACAD_REACTORS
330
652
102
}
330
1F
100
AcDbEntity
  8
LC-002-002-----0
 62
     7
370
    25
100
AcDbLine
 10
1086.195399
 20
2436.243961
 30
0.0
 11
1086.195399
 21
2451.707319
 31
0.0
  0
LINE
  5
3C5
102
{ACAD_REACTORS
330
652
102
}
330
1F
100
AcDbEntity
  8
LC-002-002-----0
 62
     7
370
    25
100
AcDbLine
 10
1093.695399
 20
2461.389777
 30
0.0
 11
1093.695399
 21
2461.85
 31
0.0
  0
ARC
  5
3C6
102
{ACAD_REACTORS
330
652
102
}
330
1F
100
AcDbEntity
  8
LC-002-002-----0
 62
     7
370
    25
100
AcDbCircle
 10
1090.195399
 20
2451.707319
 30
0.0
 40
3.999999999999812
100
AcDbArc
 50
104.492147
 51
180.0
  0
ARC
  5
3C7
102
{ACAD_REACTORS
330
652
102
}
330
1F
100
AcDbEntity
  8
LC-002-002-----0
 62
     7
370
    25
100
AcDbCircle
 10
1087.695399
 20
2461.389777
 30
0.0
 40
5.999999999999658
100
AcDbArc
 50
284.469452
 51
0.0
  0
ARC
  5
3C8
102
{ACAD_REACTORS
330
652
102
}
330
1F
100
AcDbEntity
  8
LC-002-002-----0
 62
     7
370
    25
100
AcDbCircle
 10
1080.195399
 20
2436.243961
 30
0.0
 40
5.999999999999977
100
AcDbArc
 50
299.988476
 51
0.0
  0
ARC
  5
3C9
102
{ACAD_REACTORS
330
652
102
}
330
1F
100
AcDbEntity
  8
LC-002-002-----0
 62
     7
370
    25
100
AcDbCircle
 10
1083.945399
 20
2425.707319
 30
0.0
 40
4.999999999999906
100
AcDbArc
 50
120.016153
 51
172.072225
  0
ARC
  5
3CA
102
{ACAD_REACTORS
330
652
102
}
330
1F
100
AcDbEntity
  8
LC-002-002-----0
 62
     7
370
    25
100
AcDbCircle
 10
993.445399
 20
2425.707319
 30
0.0
 40
4.999999999999969
100
AcDbArc
 50
7.927775
 51
33.954632
  0
ARC
  5
3CB
102
{ACAD_REACTORS
330
652
102
}
330
1F
100
AcDbEntity
  8
LC-002-002-----0
 62
     7
370
    25
100
AcDbCircle
 10
1078.200836
 20
2426.507319
 30
0.0
 40
0.8000000000001819
100
AcDbArc
 50
270.0
 51
352.062606
  0
ARC
  5
3CC
102
{ACAD_REACTORS
330
652
102
}
330
1F
100
AcDbEntity
  8
LC-002-002-----0
 62
     7
370
    25
100
AcDbCircle
 10
999.189962
 20
2426.507319
 30
0.0
 40
0.799999999999944
100
AcDbArc
 50
187.937394
 51
270.0
  0
ARC
  5
3CD
102
{ACAD_REACTORS
330
650
102
}
330
1F
100
AcDbEntity
  8
LC-002-002-----0
 62
     7
370
    25
100
AcDbCircle
 10
936.764295
 20
2549.973613
 30
0.0
 40
0.4999999999999869
100
AcDbArc
 50
6.0
 51
96.0
  0
ARC
  5
3CE
102
{ACAD_REACTORS
330
650
102
}
330
1F
100
AcDbEntity
  8
LC-002-002-----0
 62
     7
370
    25
100
AcDbCircle
 10
912.89577
 20
2547.46493
 30
0.0
 40
0.5000000000003498
100
AcDbArc
 50
96.0
 51
186.0
  0
ARC
  5
3CF
102
{ACAD_REACTORS
330
650
102
}
330
1F
100
AcDbEntity
  8
LC-002-002-----0
 62
     7
370
    25
100
AcDbCircle
 10
944.198614
 20
2493.590952
 30
0.0
 40
1.000000000000021
100
AcDbArc
 50
186.0
 51
229.137678
  0
ARC
  5
3D0
102
{ACAD_REACTORS
330
650
102
}
330
1F
100
AcDbEntity
  8
LC-002-002-----0
 62
     7
370
    25
100
AcDbCircle
 10
917.346523
 20
2490.768683
 30
0.0
 40
0.9999999999997222
100
AcDbArc
 50
322.862322
 51
6.0
  0
ARC
  5
3D1
102
{ACAD_REACTORS
330
650
102
}
330
1F
100
AcDbEntity
  8
LC-002-002-----0
 62
     7
370
    25
100
AcDbCircle
 10
932.094761
 20
2479.6
 30
0.0
 40
17.50000000000014
100
AcDbArc
 50
142.85835
 51
163.398452
  0
ARC
  5
3D2
102
{ACAD_REACTORS
330
650
102
}
330
1F
100
AcDbEntity
  8
LC-002-002-----0
 62
     7
370
    25
100
AcDbCircle
 10
932.094761
 20
2479.6
 30
0.0
 40
17.50000000000025
100
AcDbArc
 50
16.601549
 51
49.141806
  0
ARC
  5
3D3
102
{ACAD_REACTORS
330
64E
102
}
330
1F
100
AcDbEntity
  8
LC-002-002-----0
 62
     7
370
    25
100
AcDbCircle
 10
923.267542
 20
2650.65159
 30
0.0
 40
0.9999999999997715
100
AcDbArc
 50
96.0
 51
186.0
  0
ARC
  5
3D4
102
{ACAD_REACTORS
330
64E
102
}
330
1F
100
AcDbEntity
  8
LC-002-002-----0
 62
     7
370
    25
100
AcDbCircle
 10
921.356894
 20
2649.696642
 30
0.0
 40
0.9999999999999025
100
AcDbArc
 50
276.0
 51
5.987263
  0
ARC
  5
3D5
102
{ACAD_REACTORS
330
651
102
}
330
1F
100
AcDbEntity
  8
LC-002-002-----0
 62
     7
370
    25
100
AcDbCircle
 10
932.094761
 20
2478.6
 30
0.0
 40
19.9999999999996
100
AcDbArc
 50
311.290426
 51
0.0
  0
ARC
  5
3D6
102
{ACAD_REACTORS
330
651
102
}
330
1F
100
AcDbEntity
  8
LC-002-002-----0
 62
     7
370
    25
100
AcDbCircle
 10
932.094761
 20
2478.6
 30
0.0
 40
20.0
100
AcDbArc
 50
180.0
 51
228.709438
  0
ARC
  5
3D7
102
{ACAD_REACTORS
330
651
102
}
330
1F
100
AcDbEntity
  8
LC-002-002-----0
 62
     7
370
    25
100
AcDbCircle
 10
932.094761
 20
2443.6
 30
0.0
 40
12.5
100
AcDbArc
 50
180.0
 51
270.0
  0
INSERT
  5
3E1
102
{ACAD_REACTORS
330
652
102
}
330
1F
100
AcDbEntity
  8
LC-002-002-----0
 62
     7
370
    25
100
AcDbBlockReference
  2
POLY1
 10
0.0
 20
0.0
 30
0.0
  0
INSERT
  5
3EB
102
{ACAD_REACTORS
330
652
102
}
330
1F
100
AcDbEntity
  8
LC-002-002-----0
 62
     7
370
    25
100
AcDbBlockReference
  2
POLY2
 10
0.0
 20
0.0
 30
0.0
  0
INSERT
  5
3F9
102
{ACAD_REACTORS
330
652
102
}
330
1F
100
AcDbEntity
  8
LC-002-002-----0
 62
     7
370
    25
100
AcDbBlockReference
  2
POLY3
 10
0.0
 20
0.0
 30
0.0
  0
INSERT
  5
407
102
{ACAD_REACTORS
330
652
102
}
330
1F
100
AcDbEntity
  8
LC-002-002-----0
 62
     7
370
    25
100
AcDbBlockReference
  2
POLY4
 10
0.0
 20
0.0
 30
0.0
  0
INSERT
  5
41F
102
{ACAD_REACTORS
330
64E
102
}
330
1F
100
AcDbEntity
  8
LC-002-002-----0
 62
     7
370
    25
100
AcDbBlockReference
  2
POLY5
 10
0.0
 20
0.0
 30
0.0
  0
INSERT
  5
429
102
{ACAD_REACTORS
330
64E
102
}
330
1F
100
AcDbEntity
  8
LC-002-002-----0
 62
     7
370
    25
100
AcDbBlockReference
  2
POLY6
 10
0.0
 20
0.0
 30
0.0
  0
INSERT
  5
43B
102
{ACAD_REACTORS
330
64E
102
}
330
1F
100
AcDbEntity
  8
LC-002-002-----0
 62
     7
370
    25
100
AcDbBlockReference
  2
POLY7
 10
0.0
 20
0.0
 30
0.0
  0
INSERT
  5
465
102
{ACAD_REACTORS
330
651
102
}
330
1F
100
AcDbEntity
  8
LC-002-002-----0
 62
     7
370
    25
100
AcDbBlockReference
  2
POLY8
 10
0.0
 20
0.0
 30
0.0
  0
LINE
  5
466
102
{ACAD_REACTORS
330
64F
102
}
330
1F
100
AcDbEntity
  8
LC-002-002-----0
 62
     7
370
    25
100
AcDbLine
 10
930.719055
 20
2599.845402
 30
0.0
 11
930.57559
 21
2600.057353
 31
0.0
  0
LINE
  5
467
102
{ACAD_REACTORS
330
64F
102
}
330
1F
100
AcDbEntity
  8
LC-002-002-----0
 62
     7
370
    25
100
AcDbLine
 10
930.57559
 20
2600.057353
 30
0.0
 11
930.389872
 21
2600.168544
 31
0.0
  0
LINE
  5
468
102
{ACAD_REACTORS
330
64F
102
}
330
1F
100
AcDbEntity
  8
LC-002-002-----0
 62
     7
370
    25
100
AcDbLine
 10
930.389872
 20
2600.168544
 30
0.0
 11
930.179841
 21
2600.191383
 31
0.0
  0
LINE
  5
469
102
{ACAD_REACTORS
330
64F
102
}
330
1F
100
AcDbEntity
  8
LC-002-002-----0
 62
     7
370
    25
100
AcDbLine
 10
910.090671
 20
2598.079927
 30
0.0
 11
909.889758
 21
2598.01379
 31
0.0
  0
LINE
  5
46A
102
{ACAD_REACTORS
330
64F
102
}
330
1F
100
AcDbEntity
  8
LC-002-002-----0
 62
     7
370
    25
100
AcDbLine
 10
909.889758
 20
2598.01379
 30
0.0
 11
909.731188
 21
2597.866183
 31
0.0
  0
LINE
  5
46B
102
{ACAD_REACTORS
330
64F
102
}
330
1F
100
AcDbEntity
  8
LC-002-002-----0
 62
     7
370
    25
100
AcDbLine
 10
909.731188
 20
2597.866183
 30
0.0
 11
909.63522
 21
2597.62912
 31
0.0
  0
LINE
  5
46C
102
{ACAD_REACTORS
330
64E
102
}
330
1F
100
AcDbEntity
  8
LC-002-002-----0
 62
     7
370
    25
100
AcDbLine
 10
914.965478
 20
2648.011215
 30
0.0
 11
914.965478
 21
2648.011215
 31
0.0
  0
LINE
  5
46D
102
{ACAD_REACTORS
330
64E
102
}
330
1F
100
AcDbEntity
  8
LC-002-002-----0
 62
     7
370
    25
100
AcDbLine
 10
914.996567
 20
2648.022636
 30
0.0
 11
914.562429
 21
2647.86315
 31
0.0
  0
LINE
  5
46E
102
{ACAD_REACTORS
330
64E
102
}
330
1F
100
AcDbEntity
  8
LC-002-002-----0
 62
     7
370
    25
100
AcDbLine
 10
914.562429
 20
2647.86315
 30
0.0
 11
914.562429
 21
2647.86315
 31
0.0
  0
LINE
  5
46F
102
{ACAD_REACTORS
330
64E
102
}
330
1F
100
AcDbEntity
  8
LC-002-002-----0
 62
     7
370
    25
100
AcDbLine
 10
914.562429
 20
2647.86315
 30
0.0
 11
914.217596
 21
2647.606697
 31
0.0
  0
LINE
  5
470
102
{ACAD_REACTORS
330
64E
102
}
330
1F
100
AcDbEntity
  8
LC-002-002-----0
 62
     7
370
    25
100
AcDbLine
 10
914.217596
 20
2647.606697
 30
0.0
 11
914.217596
 21
2647.606697
 31
0.0
  0
LINE
  5
471
102
{ACAD_REACTORS
330
64E
102
}
330
1F
100
AcDbEntity
  8
LC-002-002-----0
 62
     7
370
    25
100
AcDbLine
 10
914.217596
 20
2647.606697
 30
0.0
 11
913.959553
 21
2647.262786
 31
0.0
  0
LINE
  5
472
102
{ACAD_REACTORS
330
64E
102
}
330
1F
100
AcDbEntity
  8
LC-002-002-----0
 62
     7
370
    25
100
AcDbLine
 10
913.959553
 20
2647.262786
 30
0.0
 11
913.959553
 21
2647.262786
 31
0.0
  0
LINE
  5
473
102
{ACAD_REACTORS
330
64E
102
}
330
1F
100
AcDbEntity
  8
LC-002-002-----0
 62
     7
370
    25
100
AcDbLine
 10
913.959553
 20
2647.262786
 30
0.0
 11
913.795223
 21
2646.820891
 31
0.0
  0
INSERT
  5
483
102
{ACAD_REACTORS
330
652
102
}
330
1F
100
AcDbEntity
  8
LC-002-002-----0
 62
     7
370
    25
100
AcDbBlockReference
  2
POLY9
 10
0.0
 20
0.0
 30
0.0
  0
INSERT
  5
491
102
{ACAD_REACTORS
330
652
102
}
330
1F
100
AcDbEntity
  8
LC-002-002-----0
 62
     7
370
    25
100
AcDbBlockReference
  2
POLY10
 10
0.0
 20
0.0
 30
0.0
  0
LINE
  5
492
102
{ACAD_REACTORS
330
652
102
}
330
1F
100
AcDbEntity
  8
LC-002-002-----0
 62
     7
370
    25
100
AcDbLine
 10
993.659787
 20
2451.707319
 30
0.0
 11
993.659787
 21
2443.6
 31
0.0
  0
LINE
  5
493
102
{ACAD_REACTORS
330
652
102
}
330
1F
100
AcDbEntity
  8
LC-002-002-----0
 62
     7
370
    25
100
AcDbLine
 10
973.695399
 20
2423.6
 30
0.0
 11
971.695399
 21
2423.6
 31
0.0
  0
LINE
  5
494
102
{ACAD_REACTORS
330
652
102
}
330
1F
100
AcDbEntity
  8
LC-002-002-----0
 62
     7
370
    25
100
AcDbLine
 10
970.945398
 20
2425.642762
 30
0.0
 11
959.206165
 21
2425.642762
 31
0.0
  0
LINE
  5
495
102
{ACAD_REACTORS
330
652
102
}
330
1F
100
AcDbEntity
  8
LC-002-002-----0
 62
     7
370
    25
100
AcDbLine
 10
970.945398
 20
2461.557238
 30
0.0
 11
959.206165
 21
2461.557238
 31
0.0
  0
LINE
  5
496
102
{ACAD_REACTORS
330
652
102
}
330
1F
100
AcDbEntity
  8
LC-002-002-----0
 62
     7
370
    25
100
AcDbLine
 10
973.695399
 20
2463.6
 30
0.0
 11
971.695399
 21
2463.6
 31
0.0
  0
LINE
  5
497
102
{ACAD_REACTORS
330
652
102
}
330
1F
100
AcDbEntity
  8
LC-002-002-----0
 62
     7
370
    25
100
AcDbLine
 10
971.695302
 20
2423.600097
 30
0.0
 11
970.945411
 21
2424.349987
 31
0.0
  0
LINE
  5
498
102
{ACAD_REACTORS
330
652
102
}
330
1F
100
AcDbEntity
  8
LC-002-002-----0
 62
     7
370
    25
100
AcDbLine
 10
959.195399
 20
2425.85019
 30
0.0
 11
959.195399
 21
2461.34981
 31
0.0
  0
LINE
  5
499
102
{ACAD_REACTORS
330
652
102
}
330
1F
100
AcDbEntity
  8
LC-002-002-----0
 62
     7
370
    25
100
AcDbLine
 10
970.945411
 20
2424.349987
 30
0.0
 11
970.945411
 21
2425.642762
 31
0.0
  0
LINE
  5
49A
102
{ACAD_REACTORS
330
652
102
}
330
1F
100
AcDbEntity
  8
LC-002-002-----0
 62
     7
370
    25
100
AcDbLine
 10
970.945402
 20
2461.557238
 30
0.0
 11
970.945411
 21
2462.850013
 31
0.0
  0
LINE
  5
49B
102
{ACAD_REACTORS
330
652
102
}
330
1F
100
AcDbEntity
  8
LC-002-002-----0
 62
     7
370
    25
100
AcDbLine
 10
973.695399
 20
2423.6
 30
0.0
 11
973.695399
 21
2463.6
 31
0.0
  0
LINE
  5
49C
102
{ACAD_REACTORS
330
652
102
}
330
1F
100
AcDbEntity
  8
LC-002-002-----0
 62
     7
370
    25
100
AcDbLine
 10
971.695302
 20
2463.599903
 30
0.0
 11
970.945411
 21
2462.850013
 31
0.0
  0
ARC
  5
49D
102
{ACAD_REACTORS
330
652
102
}
330
1F
100
AcDbEntity
  8
LC-002-002-----0
 62
     7
370
    25
100
AcDbCircle
 10
961.195399
 20
2461.35
 30
0.0
 40
1.999999999999995
100
AcDbArc
 50
174.05239
 51
180.0
  0
ARC
  5
49E
102
{ACAD_REACTORS
330
652
102
}
330
1F
100
AcDbEntity
  8
LC-002-002-----0
 62
     7
370
    25
100
AcDbCircle
 10
961.195399
 20
2425.85
 30
0.0
 40
2.0
100
AcDbArc
 50
180.0
 51
185.94761
  0
LINE
  5
49F
102
{ACAD_REACTORS
330
652
102
}
330
1F
100
AcDbEntity
  8
LC-002-002-----0
 62
     7
370
    25
100
AcDbLine
 10
973.695399
 20
2428.21942
 30
0.0
 11
973.818034
 21
2428.455
 31
0.0
  0
LINE
  5
4A0
102
{ACAD_REACTORS
330
652
102
}
330
1F
100
AcDbEntity
  8
LC-002-002-----0
 62
     7
370
    25
100
AcDbLine
 10
973.695399
 20
2458.98058
 30
0.0
 11
973.818034
 21
2458.745
 31
0.0
  0
LINE
  5
4A1
102
{ACAD_REACTORS
330
652
102
}
330
1F
100
AcDbEntity
  8
LC-002-002-----0
 62
     7
370
    25
100
AcDbLine
 10
983.695399
 20
2461.85
 30
0.0
 11
983.695399
 21
2465.85
 31
0.0
  0
ARC
  5
4A2
102
{ACAD_REACTORS
330
652
102
}
330
1F
100
AcDbEntity
  8
LC-002-002-----0
 62
     7
370
    25
100
AcDbCircle
 10
1038.695399
 20
2391.247772
 30
0.0
 40
22.0
100
AcDbArc
 50
180.0
 51
0.0
  0
LINE
  5
4A3
102
{ACAD_REACTORS
330
652
102
}
330
1F
100
AcDbEntity
  8
LC-002-002-----0
 62
     7
370
    25
100
AcDbLine
 10
1016.695399
 20
2391.247772
 30
0.0
 11
1016.695399
 21
2404.938956
 31
0.0
  0
LINE
  5
4A4
102
{ACAD_REACTORS
330
652
102
}
330
1F
100
AcDbEntity
  8
LC-002-002-----0
 62
     7
370
    25
100
AcDbLine
 10
1060.695399
 20
2391.247772
 30
0.0
 11
1060.695399
 21
2404.938956
 31
0.0
  0
LINE
  5
4A5
102
{ACAD_REACTORS
330
652
102
}
330
1F
100
AcDbEntity
  8
LC-002-002-----0
 62
     7
370
    25
100
AcDbLine
 10
1066.984338
 20
2412.748938
 30
0.0
 11
1067.462784
 21
2415.367802
 31
0.0
  0
ARC
  5
4A6
102
{ACAD_REACTORS
330
652
102
}
330
1F
100
AcDbEntity
  8
LC-002-002-----0
 62
     7
370
    25
100
AcDbCircle
 10
1060.590174
 20
2413.917129
 30
0.0
 40
6.500000000000005
100
AcDbArc
 50
289.07704
 51
349.645823
  0
ARC
  5
4A7
102
{ACAD_REACTORS
330
652
102
}
330
1F
100
AcDbEntity
  8
LC-002-002-----0
 62
     7
370
    25
100
AcDbCircle
 10
1063.695399
 20
2404.938956
 30
0.0
 40
2.999999999999865
100
AcDbArc
 50
109.055448
 51
180.0
  0
ARC
  5
4A8
102
{ACAD_REACTORS
330
652
102
}
330
1F
100
AcDbEntity
  8
LC-002-002-----0
 62
     7
370
    25
100
AcDbCircle
 10
1072.193536
 20
2422.504074
 30
0.0
 40
2.000000000000175
100
AcDbArc
 50
334.152631
 51
0.0
  0
ARC
  5
4A9
102
{ACAD_REACTORS
330
652
102
}
330
1F
100
AcDbEntity
  8
LC-002-002-----0
 62
     7
370
    25
100
AcDbCircle
 10
1068.593603
 20
2424.247772
 30
0.0
 40
5.999999999999973
100
AcDbArc
 50
286.283517
 51
334.155028
  0
ARC
  5
4AA
102
{ACAD_REACTORS
330
652
102
}
330
1F
100
AcDbEntity
  8
LC-002-002-----0
 62
     7
370
    25
100
AcDbCircle
 10
1071.397662
 20
2414.648956
 30
0.0
 40
3.999999999999497
100
AcDbArc
 50
106.281751
 51
169.647048
  0
LINE
  5
4AB
102
{ACAD_REACTORS
330
652
102
}
330
1F
100
AcDbEntity
  8
LC-002-002-----0
 62
     7
370
    25
100
AcDbLine
 10
1010.40646
 20
2412.748938
 30
0.0
 11
1009.928014
 21
2415.367802
 31
0.0
  0
ARC
  5
4AC
102
{ACAD_REACTORS
330
652
102
}
330
1F
100
AcDbEntity
  8
LC-002-002-----0
 62
     7
370
    25
100
AcDbCircle
 10
1016.800624
 20
2413.917129
 30
0.0
 40
6.499999999999891
100
AcDbArc
 50
190.354177
 51
250.92296
  0
ARC
  5
4AD
102
{ACAD_REACTORS
330
652
102
}
330
1F
100
AcDbEntity
  8
LC-002-002-----0
 62
     7
370
    25
100
AcDbCircle
 10
1013.695399
 20
2404.938956
 30
0.0
 40
2.999999995699682
100
AcDbArc
 50
0.0
 51
70.944552
  0
ARC
  5
4AE
102
{ACAD_REACTORS
330
652
102
}
330
1F
100
AcDbEntity
  8
LC-002-002-----0
 62
     7
370
    25
100
AcDbCircle
 10
1005.197262
 20
2422.504074
 30
0.0
 40
1.999999999999773
100
AcDbArc
 50
180.0
 51
205.847369
  0
ARC
  5
4AF
102
{ACAD_REACTORS
330
652
102
}
330
1F
100
AcDbEntity
  8
LC-002-002-----0
 62
     7
370
    25
100
AcDbCircle
 10
1008.797195
 20
2424.247772
 30
0.0
 40
5.999999999999802
100
AcDbArc
 50
205.844972
 51
253.716483
  0
ARC
  5
4B0
102
{ACAD_REACTORS
330
652
102
}
330
1F
100
AcDbEntity
  8
LC-002-002-----0
 62
     7
370
    25
100
AcDbCircle
 10
1005.993136
 20
2414.648956
 30
0.0
 40
3.999999999999939
100
AcDbArc
 50
10.352952
 51
73.718249
  0
ARC
  5
4B1
102
{ACAD_REACTORS
330
652
102
}
330
1F
100
AcDbEntity
  8
LC-002-002-----0
 62
     7
370
    25
100
AcDbCircle
 10
1038.695399
 20
2391.247772
 30
0.0
 40
27.70479324130034
100
AcDbArc
 50
145.394244
 51
34.605756
  0
LINE
  5
4B2
102
{ACAD_REACTORS
330
64B
102
}
330
1F
100
AcDbEntity
  8
LC-002-002-----0
 62
     7
370
    25
100
AcDbLine
 10
1567.122717
 20
1787.561863
 30
0.0
 11
1567.122717
 21
1858.558137
 31
0.0
  0
LINE
  5
4B3
102
{ACAD_REACTORS
330
64D
102
}
330
1F
100
AcDbEntity
  8
LC-002-002-----0
 62
     7
370
    25
100
AcDbLine
 10
1484.944138
 20
2050.097512
 30
0.0
 11
1485.536262
 21
2051.234972
 31
0.0
  0
LINE
  5
4B4
102
{ACAD_REACTORS
330
64D
102
}
330
1F
100
AcDbEntity
  8
LC-002-002-----0
 62
     7
370
    25
100
AcDbLine
 10
1487.253138
 20
2050.097512
 30
0.0
 11
1487.845262
 21
2051.234972
 31
0.0
  0
LINE
  5
4B5
102
{ACAD_REACTORS
330
64D
102
}
330
1F
100
AcDbEntity
  8
LC-002-002-----0
 62
     7
370
    25
100
AcDbLine
 10
1489.562138
 20
2050.097512
 30
0.0
 11
1490.154262
 21
2051.234972
 31
0.0
  0
LINE
  5
4B6
102
{ACAD_REACTORS
330
64D
102
}
330
1F
100
AcDbEntity
  8
LC-002-002-----0
 62
     7
370
    25
100
AcDbLine
 10
1491.871138
 20
2050.097512
 30
0.0
 11
1492.463262
 21
2051.234972
 31
0.0
  0
LINE
  5
4B7
102
{ACAD_REACTORS
330
64D
102
}
330
1F
100
AcDbEntity
  8
LC-002-002-----0
 62
     7
370
    25
100
AcDbLine
 10
1486.099078
 20
2003.819625
 30
0.0
 11
1486.691202
 21
2004.957086
 31
0.0
  0
LINE
  5
4B8
102
{ACAD_REACTORS
330
64D
102
}
330
1F
100
AcDbEntity
  8
LC-002-002-----0
 62
     7
370
    25
100
AcDbLine
 10
1488.408078
 20
2003.819625
 30
0.0
 11
1489.000202
 21
2004.957086
 31
0.0
  0
LINE
  5
4B9
102
{ACAD_REACTORS
330
64D
102
}
330
1F
100
AcDbEntity
  8
LC-002-002-----0
 62
     7
370
    25
100
AcDbLine
 10
1490.717078
 20
2003.819625
 30
0.0
 11
1491.309202
 21
2004.957086
 31
0.0
  0
LINE
  5
4BA
102
{ACAD_REACTORS
330
64D
102
}
330
1F
100
AcDbEntity
  8
LC-002-002-----0
 62
     7
370
    25
100
AcDbLine
 10
1493.026078
 20
2003.819625
 30
0.0
 11
1493.618202
 21
2004.957086
 31
0.0
  0
LINE
  5
4BB
102
{ACAD_REACTORS
330
64D
102
}
330
1F
100
AcDbEntity
  8
LC-002-002-----0
 62
     7
370
    25
100
AcDbLine
 10
1515.16317
 20
2049.927299
 30
0.0
 11
1493.89917
 21
2049.927299
 31
0.0
  0
LINE
  5
4BC
102
{ACAD_REACTORS
330
64D
102
}
330
1F
100
AcDbEntity
  8
LC-002-002-----0
 62
     7
370
    25
100
AcDbLine
 10
1484.66317
 20
2049.927299
 30
0.0
 11
1484.16317
 21
2049.927299
 31
0.0
  0
LINE
  5
4BD
102
{ACAD_REACTORS
330
64D
102
}
330
1F
100
AcDbEntity
  8
LC-002-002-----0
 62
     7
370
    25
100
AcDbLine
 10
1484.16317
 20
2005.127299
 30
0.0
 11
1484.16317
 21
2049.927299
 31
0.0
  0
LINE
  5
4BE
102
{ACAD_REACTORS
330
64D
102
}
330
1F
100
AcDbEntity
  8
LC-002-002-----0
 62
     7
370
    25
100
AcDbLine
 10
1515.16317
 20
2005.149782
 30
0.0
 11
1511.16317
 21
2005.149782
 31
0.0
  0
LINE
  5
4BF
102
{ACAD_REACTORS
330
64D
102
}
330
1F
100
AcDbEntity
  8
LC-002-002-----0
 62
     7
370
    25
100
AcDbLine
 10
1511.16317
 20
2005.127299
 30
0.0
 11
1493.89917
 21
2005.127299
 31
0.0
  0
LINE
  5
4C0
102
{ACAD_REACTORS
330
64D
102
}
330
1F
100
AcDbEntity
  8
LC-002-002-----0
 62
     7
370
    25
100
AcDbLine
 10
1484.66317
 20
2005.127299
 30
0.0
 11
1484.16317
 21
2005.127299
 31
0.0
  0
LINE
  5
4C1
102
{ACAD_REACTORS
330
64A
102
}
330
1F
100
AcDbEntity
  8
LC-002-002-----0
 62
     7
370
    25
100
AcDbLine
 10
1512.76317
 20
1849.56
 30
0.0
 11
1512.76317
 21
1878.06
 31
0.0
  0
LINE
  5
4C2
102
{ACAD_REACTORS
330
64A
102
}
330
1F
100
AcDbEntity
  8
LC-002-002-----0
 62
     7
370
    25
100
AcDbLine
 10
1513.16317
 20
1823.06
 30
0.0
 11
1513.16317
 21
1849.16
 31
0.0
  0
LINE
  5
4C3
102
{ACAD_REACTORS
330
64D
102
}
330
1F
100
AcDbEntity
  8
LC-002-002-----0
 62
     7
370
    25
100
AcDbLine
 10
1515.188811
 20
2001.127299
 30
0.0
 11
1515.188811
 21
2005.174672
 31
0.0
  0
ARC
  5
4C4
102
{ACAD_REACTORS
330
64A
102
}
330
1F
100
AcDbEntity
  8
LC-004-002-RND-0
 62
     7
370
    25
100
AcDbCircle
 10
1535.16317
 20
1823.06
 30
0.0
 40
22.0
100
AcDbArc
 50
180.0
 51
270.0
  0
LINE
  5
4C5
102
{ACAD_REACTORS
330
64D
102
}
330
1F
100
AcDbEntity
  8
LC-002-002-----0
 62
     7
370
    25
100
AcDbLine
 10
1555.16317
 20
1897.06
 30
0.0
 11
1555.16317
 21
1959.828886
 31
0.0
  0
LINE
  5
4C6
102
{ACAD_REACTORS
330
64A
102
}
330
1F
100
AcDbEntity
  8
LC-002-002-----0
 62
     7
370
    25
100
AcDbLine
 10
1557.56317
 20
1851.513149
 30
0.0
 11
1557.56317
 21
1878.06
 31
0.0
  0
LINE
  5
4C7
102
{ACAD_REACTORS
330
64D
102
}
330
1F
100
AcDbEntity
  8
LC-002-002-----0
 62
     7
370
    25
100
AcDbLine
 10
1517.565298
 20
2047.525171
 30
0.0
 11
1515.16343
 21
2049.927039
 31
0.0
  0
LINE
  5
4C8
102
{ACAD_REACTORS
330
64D
102
}
330
1F
100
AcDbEntity
  8
LC-002-002-----0
 62
     7
370
    25
100
AcDbLine
 10
1493.026078
 20
2051.234972
 30
0.0
 11
1493.618202
 21
2050.097512
 31
0.0
  0
LINE
  5
4C9
102
{ACAD_REACTORS
330
64D
102
}
330
1F
100
AcDbEntity
  8
LC-002-002-----0
 62
     7
370
    25
100
AcDbLine
 10
1490.717078
 20
2051.234972
 30
0.0
 11
1491.309202
 21
2050.097512
 31
0.0
  0
LINE
  5
4CA
102
{ACAD_REACTORS
330
64D
102
}
330
1F
100
AcDbEntity
  8
LC-002-002-----0
 62
     7
370
    25
100
AcDbLine
 10
1488.408078
 20
2051.234972
 30
0.0
 11
1489.000202
 21
2050.097512
 31
0.0
  0
LINE
  5
4CB
102
{ACAD_REACTORS
330
64D
102
}
330
1F
100
AcDbEntity
  8
LC-002-002-----0
 62
     7
370
    25
100
AcDbLine
 10
1486.099078
 20
2051.234972
 30
0.0
 11
1486.691202
 21
2050.097512
 31
0.0
  0
LINE
  5
4CC
102
{ACAD_REACTORS
330
64D
102
}
330
1F
100
AcDbEntity
  8
LC-002-002-----0
 62
     7
370
    25
100
AcDbLine
 10
1491.871138
 20
2004.957086
 30
0.0
 11
1492.463262
 21
2003.819625
 31
0.0
  0
LINE
  5
4CD
102
{ACAD_REACTORS
330
64D
102
}
330
1F
100
AcDbEntity
  8
LC-002-002-----0
 62
     7
370
    25
100
AcDbLine
 10
1489.562138
 20
2004.957086
 30
0.0
 11
1490.154262
 21
2003.819625
 31
0.0
  0
LINE
  5
4CE
102
{ACAD_REACTORS
330
64D
102
}
330
1F
100
AcDbEntity
  8
LC-002-002-----0
 62
     7
370
    25
100
AcDbLine
 10
1487.253138
 20
2004.957086
 30
0.0
 11
1487.845262
 21
2003.819625
 31
0.0
  0
LINE
  5
4CF
102
{ACAD_REACTORS
330
64D
102
}
330
1F
100
AcDbEntity
  8
LC-002-002-----0
 62
     7
370
    25
100
AcDbLine
 10
1484.944138
 20
2004.957086
 30
0.0
 11
1485.536262
 21
2003.819625
 31
0.0
  0
LINE
  5
4D0
102
{ACAD_REACTORS
330
64A
102
}
330
1F
100
AcDbEntity
  8
LC-002-002-----0
 62
     7
370
    25
100
AcDbLine
 10
1557.56317
 20
1851.513149
 30
0.0
 11
1559.283201
 21
1851.827385
 31
0.0
  0
LINE
  5
4D1
102
{ACAD_REACTORS
330
64A
102
}
330
1F
100
AcDbEntity
  8
LC-002-002-----0
 62
     7
370
    25
100
AcDbLine
 10
1566.419473
 20
1858.558137
 30
0.0
 11
1567.122717
 21
1858.558137
 31
0.0
  0
LINE
  5
4D2
102
{ACAD_REACTORS
330
64A
102
}
330
1F
100
AcDbEntity
  8
LC-002-002-----0
 62
     7
370
    25
100
AcDbLine
 10
1535.16317
 20
1801.06
 30
0.0
 11
1548.854355
 21
1801.06
 31
0.0
  0
LINE
  5
4D3
102
{ACAD_REACTORS
330
64A
102
}
330
1F
100
AcDbEntity
  8
LC-002-002-----0
 62
     7
370
    25
100
AcDbLine
 10
1566.419473
 20
1787.561863
 30
0.0
 11
1567.122717
 21
1787.561863
 31
0.0
  0
LINE
  5
4D4
102
{ACAD_REACTORS
330
64A
102
}
330
1F
100
AcDbEntity
  8
LC-002-002-----0
 62
     7
370
    25
100
AcDbLine
 10
1556.664337
 20
1794.771061
 30
0.0
 11
1559.283201
 21
1794.292615
 31
0.0
  0
LINE
  5
4D5
102
{ACAD_REACTORS
330
64A
102
}
330
1F
100
AcDbEntity
  8
LC-002-002-----0
 62
     7
370
    25
100
AcDbLine
 10
1512.763197
 20
1849.559973
 30
0.0
 11
1513.163278
 21
1849.159892
 31
0.0
  0
ARC
  5
4D6
102
{ACAD_REACTORS
330
64D
102
}
330
1F
100
AcDbEntity
  8
LC-002-002-----0
 62
     7
370
    25
100
AcDbCircle
 10
1493.89917
 20
2004.810299
 30
0.0
 40
0.3170000000000073
100
AcDbArc
 50
90.0
 51
152.36046
  0
ARC
  5
4D7
102
{ACAD_REACTORS
330
64D
102
}
330
1F
100
AcDbEntity
  8
LC-002-002-----0
 62
     7
370
    25
100
AcDbCircle
 10
1493.89917
 20
2050.244299
 30
0.0
 40
0.3170000000004721
100
AcDbArc
 50
207.567177
 51
270.0
  0
ARC
  5
4D8
102
{ACAD_REACTORS
330
64D
102
}
330
1F
100
AcDbEntity
  8
LC-002-002-----0
 62
     7
370
    25
100
AcDbCircle
 10
1492.74467
 20
2003.965566
 30
0.0
 40
0.3170000000000451
100
AcDbArc
 50
207.317979
 51
332.682021
  0
ARC
  5
4D9
102
{ACAD_REACTORS
330
64D
102
}
330
1F
100
AcDbEntity
  8
LC-002-002-----0
 62
     7
370
    25
100
AcDbCircle
 10
1492.74467
 20
2051.089031
 30
0.0
 40
0.3170000000001081
100
AcDbArc
 50
27.394588
 51
152.605412
  0
ARC
  5
4DA
102
{ACAD_REACTORS
330
64D
102
}
330
1F
100
AcDbEntity
  8
LC-002-002-----0
 62
     7
370
    25
100
AcDbCircle
 10
1491.59017
 20
2050.244299
 30
0.0
 40
0.317000000000069
100
AcDbArc
 50
207.567177
 51
332.432823
  0
ARC
  5
4DB
102
{ACAD_REACTORS
330
64D
102
}
330
1F
100
AcDbEntity
  8
LC-002-002-----0
 62
     7
370
    25
100
AcDbCircle
 10
1491.59017
 20
2004.810299
 30
0.0
 40
0.3169999999998827
100
AcDbArc
 50
27.63954
 51
152.36046
  0
ARC
  5
4DC
102
{ACAD_REACTORS
330
64D
102
}
330
1F
100
AcDbEntity
  8
LC-002-002-----0
 62
     7
370
    25
100
AcDbCircle
 10
1490.43567
 20
2003.965566
 30
0.0
 40
0.3169999999998498
100
AcDbArc
 50
207.317979
 51
332.682021
  0
ARC
  5
4DD
102
{ACAD_REACTORS
330
64D
102
}
330
1F
100
AcDbEntity
  8
LC-002-002-----0
 62
     7
370
    25
100
AcDbCircle
 10
1490.43567
 20
2051.089031
 30
0.0
 40
0.3170000000004971
100
AcDbArc
 50
27.394588
 51
152.605412
  0
ARC
  5
4DE
102
{ACAD_REACTORS
330
64D
102
}
330
1F
100
AcDbEntity
  8
LC-002-002-----0
 62
     7
370
    25
100
AcDbCircle
 10
1489.28117
 20
2050.244299
 30
0.0
 40
0.3170000000004543
100
AcDbArc
 50
207.567177
 51
332.432823
  0
ARC
  5
4DF
102
{ACAD_REACTORS
330
64D
102
}
330
1F
100
AcDbEntity
  8
LC-002-002-----0
 62
     7
370
    25
100
AcDbCircle
 10
1489.28117
 20
2004.810299
 30
0.0
 40
0.3169999999998827
100
AcDbArc
 50
27.63954
 51
152.36046
  0
ARC
  5
4E0
102
{ACAD_REACTORS
330
64D
102
}
330
1F
100
AcDbEntity
  8
LC-002-002-----0
 62
     7
370
    25
100
AcDbCircle
 10
1488.12667
 20
2003.965566
 30
0.0
 40
0.3169999999998498
100
AcDbArc
 50
207.317979
 51
332.682021
  0
ARC
  5
4E1
102
{ACAD_REACTORS
330
64D
102
}
330
1F
100
AcDbEntity
  8
LC-002-002-----0
 62
     7
370
    25
100
AcDbCircle
 10
1488.12667
 20
2051.089031
 30
0.0
 40
0.3170000000001081
100
AcDbArc
 50
27.394588
 51
152.605412
  0
ARC
  5
4E2
102
{ACAD_REACTORS
330
64D
102
}
330
1F
100
AcDbEntity
  8
LC-002-002-----0
 62
     7
370
    25
100
AcDbCircle
 10
1486.97217
 20
2050.244299
 30
0.0
 40
0.3170000000004543
100
AcDbArc
 50
207.567177
 51
332.432823
  0
ARC
  5
4E3
102
{ACAD_REACTORS
330
64D
102
}
330
1F
100
AcDbEntity
  8
LC-002-002-----0
 62
     7
370
    25
100
AcDbCircle
 10
1486.97217
 20
2004.810299
 30
0.0
 40
0.3169999999998827
100
AcDbArc
 50
27.63954
 51
152.36046
  0
ARC
  5
4E4
102
{ACAD_REACTORS
330
64D
102
}
330
1F
100
AcDbEntity
  8
LC-002-002-----0
 62
     7
370
    25
100
AcDbCircle
 10
1485.81767
 20
2003.965566
 30
0.0
 40
0.3169999999996411
100
AcDbArc
 50
207.317979
 51
332.682021
  0
ARC
  5
4E5
102
{ACAD_REACTORS
330
64D
102
}
330
1F
100
AcDbEntity
  8
LC-002-002-----0
 62
     7
370
    25
100
AcDbCircle
 10
1485.81767
 20
2051.089031
 30
0.0
 40
0.3170000000001081
100
AcDbArc
 50
27.394588
 51
152.605412
  0
ARC
  5
4E6
102
{ACAD_REACTORS
330
64D
102
}
330
1F
100
AcDbEntity
  8
LC-002-002-----0
 62
     7
370
    25
100
AcDbCircle
 10
1484.66317
 20
2004.810299
 30
0.0
 40
0.3169999999996908
100
AcDbArc
 50
27.63954
 51
90.0
  0
ARC
  5
4E7
102
{ACAD_REACTORS
330
64D
102
}
330
1F
100
AcDbEntity
  8
LC-002-002-----0
 62
     7
370
    25
100
AcDbCircle
 10
1484.66317
 20
2050.244299
 30
0.0
 40
0.3170000000000073
100
AcDbArc
 50
270.0
 51
332.432823
  0
ARC
  5
4E8
102
{ACAD_REACTORS
330
64D
102
}
330
1F
100
AcDbEntity
  8
LC-002-002-----0
 62
     7
370
    25
100
AcDbCircle
 10
1517.16317
 20
2009.527299
 30
0.0
 40
37.99999999999973
100
AcDbArc
 50
0.000006
 51
89.393653
  0
ARC
  5
4E9
102
{ACAD_REACTORS
330
64A
102
}
330
1F
100
AcDbEntity
  8
LC-002-002-----0
 62
     7
370
    25
100
AcDbCircle
 10
1557.832527
 20
1801.165225
 30
0.0
 40
6.500000000000005
100
AcDbArc
 50
199.07704
 51
259.645823
  0
ARC
  5
4EA
102
{ACAD_REACTORS
330
64A
102
}
330
1F
100
AcDbEntity
  8
LC-002-002-----0
 62
     7
370
    25
100
AcDbCircle
 10
1548.854355
 20
1798.06
 30
0.0
 40
3.00000000000008
100
AcDbArc
 50
19.055448
 51
90.0
  0
ARC
  5
4EB
102
{ACAD_REACTORS
330
64A
102
}
330
1F
100
AcDbEntity
  8
LC-002-002-----0
 62
     7
370
    25
100
AcDbCircle
 10
1566.419473
 20
1789.561863
 30
0.0
 40
1.999999999999667
100
AcDbArc
 50
244.152631
 51
270.0
  0
ARC
  5
4EC
102
{ACAD_REACTORS
330
64A
102
}
330
1F
100
AcDbEntity
  8
LC-002-002-----0
 62
     7
370
    25
100
AcDbCircle
 10
1566.419473
 20
1856.558137
 30
0.0
 40
2.0
100
AcDbArc
 50
90.0
 51
115.847369
  0
ARC
  5
4ED
102
{ACAD_REACTORS
330
64A
102
}
330
1F
100
AcDbEntity
  8
LC-002-002-----0
 62
     7
370
    25
100
AcDbCircle
 10
1568.16317
 20
1793.161796
 30
0.0
 40
5.999999999999846
100
AcDbArc
 50
196.283517
 51
244.155028
  0
ARC
  5
4EE
102
{ACAD_REACTORS
330
64A
102
}
330
1F
100
AcDbEntity
  8
LC-002-002-----0
 62
     7
370
    25
100
AcDbCircle
 10
1568.16317
 20
1852.958204
 30
0.0
 40
5.999999999999901
100
AcDbArc
 50
115.844972
 51
163.716483
  0
ARC
  5
4EF
102
{ACAD_REACTORS
330
64A
102
}
330
1F
100
AcDbEntity
  8
LC-002-002-----0
 62
     7
370
    25
100
AcDbCircle
 10
1558.564355
 20
1790.357737
 30
0.0
 40
3.999999999999806
100
AcDbArc
 50
16.281751
 51
79.647048
  0
ARC
  5
4F0
102
{ACAD_REACTORS
330
64A
102
}
330
1F
100
AcDbEntity
  8
LC-002-002-----0
 62
     7
370
    25
100
AcDbCircle
 10
1558.564355
 20
1855.762263
 30
0.0
 40
3.99999999999998
100
AcDbArc
 50
280.352952
 51
343.718249
  0
INSERT
  5
4F5
102
{ACAD_REACTORS
330
64D
102
}
330
1F
100
AcDbEntity
  8
LC-002-002-----0
 62
     7
370
    25
100
AcDbBlockReference
  2
POLY11
 10
0.0
 20
0.0
 30
0.0
  0
LINE
  5
4F6
102
{ACAD_REACTORS
330
64D
102
}
330
1F
100
AcDbEntity
  8
LC-002-002-----0
 62
     7
370
    25
100
AcDbLine
 10
1515.16317
 20
2001.127299
 30
0.0
 11
1515.16317
 21
1966.6999
 31
0.0
  0
LINE
  5
4F7
102
{ACAD_REACTORS
330
64A
102
}
330
1F
100
AcDbEntity
  8
LC-002-002-----0
 62
     7
370
    25
100
AcDbLine
 10
1507.458377
 20
1880.56
 30
0.0
 11
1507.458377
 21
1878.06
 31
0.0
  0
LINE
  5
4F8
102
{ACAD_REACTORS
330
64A
102
}
330
1F
100
AcDbEntity
  8
LC-002-002-----0
 62
     7
370
    25
100
AcDbLine
 10
1508.208377
 20
1881.56
 30
0.0
 11
1508.208377
 21
1881.31
 31
0.0
  0
LINE
  5
4F9
102
{ACAD_REACTORS
330
64A
102
}
330
1F
100
AcDbEntity
  8
LC-002-002-----0
 62
     7
370
    25
100
AcDbLine
 10
1509.36317
 20
1881.56
 30
0.0
 11
1509.36317
 21
1895.06
 31
0.0
  0
LINE
  5
4FA
102
{ACAD_REACTORS
330
64A
102
}
330
1F
100
AcDbEntity
  8
LC-002-002-----0
 62
     7
370
    25
100
AcDbLine
 10
1560.96317
 20
1881.56
 30
0.0
 11
1560.96317
 21
1895.06
 31
0.0
  0
LINE
  5
4FB
102
{ACAD_REACTORS
330
64A
102
}
330
1F
100
AcDbEntity
  8
LC-002-002-----0
 62
     7
370
    25
100
AcDbLine
 10
1562.117963
 20
1881.56
 30
0.0
 11
1562.117963
 21
1881.31
 31
0.0
  0
LINE
  5
4FC
102
{ACAD_REACTORS
330
64A
102
}
330
1F
100
AcDbEntity
  8
LC-002-002-----0
 62
     7
370
    25
100
AcDbLine
 10
1562.867963
 20
1880.56
 30
0.0
 11
1562.867963
 21
1878.06
 31
0.0
  0
LINE
  5
4FD
102
{ACAD_REACTORS
330
64A
102
}
330
1F
100
AcDbEntity
  8
LC-002-002-----0
 62
     7
370
    25
100
AcDbLine
 10
1508.208378
 20
1881.310001
 30
0.0
 11
1507.458378
 21
1880.560001
 31
0.0
  0
LINE
  5
4FE
102
{ACAD_REACTORS
330
64A
102
}
330
1F
100
AcDbEntity
  8
LC-002-002-----0
 62
     7
370
    25
100
AcDbLine
 10
1558.96317
 20
1897.06
 30
0.0
 11
1511.36317
 21
1897.06
 31
0.0
  0
LINE
  5
4FF
102
{ACAD_REACTORS
330
64A
102
}
330
1F
100
AcDbEntity
  8
LC-002-002-----0
 62
     7
370
    25
100
AcDbLine
 10
1562.117946
 20
1881.56
 30
0.0
 11
1560.96317
 21
1881.56
 31
0.0
  0
LINE
  5
500
102
{ACAD_REACTORS
330
64A
102
}
330
1F
100
AcDbEntity
  8
LC-002-002-----0
 62
     7
370
    25
100
AcDbLine
 10
1562.867963
 20
1878.06
 30
0.0
 11
1507.458377
 21
1878.06
 31
0.0
  0
LINE
  5
501
102
{ACAD_REACTORS
330
64A
102
}
330
1F
100
AcDbEntity
  8
LC-002-002-----0
 62
     7
370
    25
100
AcDbLine
 10
1562.117962
 20
1881.310001
 30
0.0
 11
1562.867962
 21
1880.560001
 31
0.0
  0
ARC
  5
502
102
{ACAD_REACTORS
330
64A
102
}
330
1F
100
AcDbEntity
  8
LC-002-002-----0
 62
     7
370
    25
100
AcDbCircle
 10
1558.96317
 20
1895.06
 30
0.0
 40
2.0
100
AcDbArc
 50
0.0
 51
90.0
  0
ARC
  5
503
102
{ACAD_REACTORS
330
64A
102
}
330
1F
100
AcDbEntity
  8
LC-002-002-----0
 62
     7
370
    25
100
AcDbCircle
 10
1511.36317
 20
1895.06
 30
0.0
 40
2.0
100
AcDbArc
 50
90.0
 51
180.0
  0
LINE
  5
504
102
{ACAD_REACTORS
330
64A
102
}
330
1F
100
AcDbEntity
  8
LC-002-002-----0
 62
     7
370
    25
100
AcDbLine
 10
1535.161718
 20
1881.56
 30
0.0
 11
1535.161718
 21
1895.06
 31
0.0
  0
INSERT
  5
514
102
{ACAD_REACTORS
330
64A
102
}
330
1F
100
AcDbEntity
  8
LC-002-002-----0
 62
     7
370
    25
100
AcDbBlockReference
  2
POLY12
 10
0.0
 20
0.0
 30
0.0
  0
LINE
  5
515
102
{ACAD_REACTORS
330
64B
102
}
330
1F
100
AcDbEntity
  8
LC-002-002-----0
 62
     7
370
    25
100
AcDbLine
 10
1609.765399
 20
1878.06
 30
0.0
 11
1609.765399
 21
1768.06
 31
0.0
  0
LINE
  5
516
102
{ACAD_REACTORS
330
64B
102
}
330
1F
100
AcDbEntity
  8
LC-002-002-----0
 62
     7
370
    25
100
AcDbLine
 10
1605.765399
 20
1768.06
 30
0.0
 11
1609.765399
 21
1768.06
 31
0.0
  0
LINE
  5
517
102
{ACAD_REACTORS
330
64B
102
}
330
1F
100
AcDbEntity
  8
LC-002-002-----0
 62
     7
370
    25
100
AcDbLine
 10
1567.122717
 20
1785.56
 30
0.0
 11
1567.122717
 21
1860.56
 31
0.0
  0
LINE
  5
518
102
{ACAD_REACTORS
330
64B
102
}
330
1F
100
AcDbEntity
  8
LC-002-002-----0
 62
     7
370
    25
100
AcDbLine
 10
1569.622717
 20
1783.555036
 30
0.0
 11
1569.622717
 21
1785.56
 31
0.0
  0
LINE
  5
519
102
{ACAD_REACTORS
330
64B
102
}
330
1F
100
AcDbEntity
  8
LC-002-002-----0
 62
     7
370
    25
100
AcDbLine
 10
1573.952492
 20
1780.31061
 30
0.0
 11
1574.962841
 21
1778.560635
 31
0.0
  0
LINE
  5
51A
102
{ACAD_REACTORS
330
64B
102
}
330
1F
100
AcDbEntity
  8
LC-002-002-----0
 62
     7
370
    25
100
AcDbLine
 10
1569.622717
 20
1785.56
 30
0.0
 11
1567.122717
 21
1785.56
 31
0.0
  0
LINE
  5
51B
102
{ACAD_REACTORS
330
64B
102
}
330
1F
100
AcDbEntity
  8
LC-002-002-----0
 62
     7
370
    25
100
AcDbLine
 10
1580.15936
 20
1775.56
 30
0.0
 11
1595.622717
 21
1775.56
 31
0.0
  0
LINE
  5
51C
102
{ACAD_REACTORS
330
64B
102
}
330
1F
100
AcDbEntity
  8
LC-002-002-----0
 62
     7
370
    25
100
AcDbLine
 10
1605.305176
 20
1768.06
 30
0.0
 11
1605.765399
 21
1768.06
 31
0.0
  0
ARC
  5
51D
102
{ACAD_REACTORS
330
64B
102
}
330
1F
100
AcDbEntity
  8
LC-002-002-----0
 62
     7
370
    25
100
AcDbCircle
 10
1595.622717
 20
1771.56
 30
0.0
 40
3.999999999999869
100
AcDbArc
 50
14.492147
 51
90.0
  0
ARC
  5
51E
102
{ACAD_REACTORS
330
64B
102
}
330
1F
100
AcDbEntity
  8
LC-002-002-----0
 62
     7
370
    25
100
AcDbCircle
 10
1605.305176
 20
1774.06
 30
0.0
 40
6.000000000000098
100
AcDbArc
 50
194.469452
 51
270.0
  0
ARC
  5
51F
102
{ACAD_REACTORS
330
64B
102
}
330
1F
100
AcDbEntity
  8
LC-002-002-----0
 62
     7
370
    25
100
AcDbCircle
 10
1580.15936
 20
1781.56
 30
0.0
 40
5.999999999999863
100
AcDbArc
 50
209.988476
 51
270.0
  0
ARC
  5
520
102
{ACAD_REACTORS
330
64B
102
}
330
1F
100
AcDbEntity
  8
LC-002-002-----0
 62
     7
370
    25
100
AcDbCircle
 10
1569.622717
 20
1777.81
 30
0.0
 40
5.000000000000217
100
AcDbArc
 50
30.016153
 51
82.072225
  0
ARC
  5
521
102
{ACAD_REACTORS
330
64B
102
}
330
1F
100
AcDbEntity
  8
LC-002-002-----0
 62
     7
370
    25
100
AcDbCircle
 10
1570.422717
 20
1783.554563
 30
0.0
 40
0.7999999999999545
100
AcDbArc
 50
180.0
 51
262.062606
  0
LINE
  5
522
102
{ACAD_REACTORS
330
64B
102
}
330
1F
100
AcDbEntity
  8
LC-002-002-----0
 62
     7
370
    25
100
AcDbLine
 10
1605.765399
 20
1878.06
 30
0.0
 11
1609.765399
 21
1878.06
 31
0.0
  0
LINE
  5
523
102
{ACAD_REACTORS
330
64B
102
}
330
1F
100
AcDbEntity
  8
LC-002-002-----0
 62
     7
370
    25
100
AcDbLine
 10
1573.952492
 20
1865.80939
 30
0.0
 11
1574.962841
 21
1867.559365
 31
0.0
  0
LINE
  5
524
102
{ACAD_REACTORS
330
64B
102
}
330
1F
100
AcDbEntity
  8
LC-002-002-----0
 62
     7
370
    25
100
AcDbLine
 10
1569.622717
 20
1860.56
 30
0.0
 11
1567.122717
 21
1860.56
 31
0.0
  0
LINE
  5
525
102
{ACAD_REACTORS
330
64B
102
}
330
1F
100
AcDbEntity
  8
LC-002-002-----0
 62
     7
370
    25
100
AcDbLine
 10
1580.15936
 20
1870.56
 30
0.0
 11
1595.622717
 21
1870.56
 31
0.0
  0
LINE
  5
526
102
{ACAD_REACTORS
330
64B
102
}
330
1F
100
AcDbEntity
  8
LC-002-002-----0
 62
     7
370
    25
100
AcDbLine
 10
1605.305176
 20
1878.06
 30
0.0
 11
1605.765399
 21
1878.06
 31
0.0
  0
ARC
  5
527
102
{ACAD_REACTORS
330
64B
102
}
330
1F
100
AcDbEntity
  8
LC-002-002-----0
 62
     7
370
    25
100
AcDbCircle
 10
1595.622717
 20
1874.56
 30
0.0
 40
4.0
100
AcDbArc
 50
270.0
 51
345.507853
  0
ARC
  5
528
102
{ACAD_REACTORS
330
64B
102
}
330
1F
100
AcDbEntity
  8
LC-002-002-----0
 62
     7
370
    25
100
AcDbCircle
 10
1605.305176
 20
1872.06
 30
0.0
 40
6.0
100
AcDbArc
 50
90.0
 51
165.530548
  0
ARC
  5
529
102
{ACAD_REACTORS
330
64B
102
}
330
1F
100
AcDbEntity
  8
LC-002-002-----0
 62
     7
370
    25
100
AcDbCircle
 10
1580.15936
 20
1864.56
 30
0.0
 40
6.0
100
AcDbArc
 50
90.0
 51
150.011524
  0
ARC
  5
52A
102
{ACAD_REACTORS
330
64B
102
}
330
1F
100
AcDbEntity
  8
LC-002-002-----0
 62
     7
370
    25
100
AcDbCircle
 10
1569.622717
 20
1868.31
 30
0.0
 40
5.000000000000194
100
AcDbArc
 50
277.927775
 51
329.983847
  0
ARC
  5
52B
102
{ACAD_REACTORS
330
64B
102
}
330
1F
100
AcDbEntity
  8
LC-002-002-----0
 62
     7
370
    25
100
AcDbCircle
 10
1570.422717
 20
1862.565437
 30
0.0
 40
0.7999999999998813
100
AcDbArc
 50
97.937394
 51
180.0
  0
CIRCLE
  5
52C
102
{ACAD_REACTORS
330
64B
102
}
330
1F
100
AcDbEntity
  8
LC-002-002-----0
  6
DASHED
 62
     7
370
    25
100
AcDbCircle
 10
1587.515399
 20
1823.06
 30
0.0
 40
20.00000000000023
  0
LINE
  5
52D
102
{ACAD_REACTORS
330
64E
102
}
330
1F
100
AcDbEntity
  8
LC-002-002-----0
 62
     7
370
    25
100
AcDbLine
 10
911.0637
 20
2599.344878
 30
0.0
 11
910.904576
 21
2599.328153
 31
0.0
  0
LINE
  5
52E
102
{ACAD_REACTORS
330
652
102
}
330
1F
100
AcDbEntity
  8
LC-002-002-----0
 62
     7
370
    25
100
AcDbLine
 10
1001.195399
 20
2425.707319
 30
0.0
 11
999.190435
 21
2425.707319
 31
0.0
  0
LINE
  5
52F
102
{ACAD_REACTORS
330
64B
102
}
330
1F
100
AcDbEntity
  8
LC-002-002-----0
 62
     7
370
    25
100
AcDbLine
 10
1569.622717
 20
1860.56
 30
0.0
 11
1569.622717
 21
1862.565437
 31
0.0
  0
LINE
  5
530
102
{ACAD_REACTORS
330
64D
102
}
330
1F
100
AcDbEntity
  8
LC-002-002-----0
 62
     7
370
    25
100
AcDbLine
 10
1555.16317
 20
1976.464033
 30
0.0
 11
1555.16317
 21
2009.528299
 31
0.0
  0
LINE
  5
531
102
{ACAD_REACTORS
330
64D
102
}
330
1F
100
AcDbEntity
  8
LC-002-002-----0
 62
     7
370
    25
100
AcDbLine
 10
1515.16317
 20
1950.064754
 30
0.0
 11
1515.16317
 21
1897.06
 31
0.0
  0
INSERT
  5
54B
330
1F
100
AcDbEntity
  8
LC-009-003-----0
 62
     7
370
    25
100
AcDbBlockReference
  2
LCDIM11
 10
0.0
 20
0.0
 30
0.0
  0
LINE
  5
54C
102
{ACAD_REACTORS
330
647
102
}
330
1F
100
AcDbEntity
  8
LC-002-002-----0
 62
     7
370
    25
100
AcDbLine
 10
1698.015399
 20
1835.56
 30
0.0
 11
1641.164509
 21
1835.56
 31
0.0
  0
LINE
  5
54D
102
{ACAD_REACTORS
330
647
102
}
330
1F
100
AcDbEntity
  8
LC-002-002-----0
 62
     7
370
    25
100
AcDbLine
 10
1698.015399
 20
1810.56
 30
0.0
 11
1641.164509
 21
1810.56
 31
0.0
  0
LINE
  5
54E
102
{ACAD_REACTORS
330
647
102
}
330
1F
100
AcDbEntity
  8
LC-002-002-----0
 62
     7
370
    25
100
AcDbLine
 10
1698.515399
 20
1835.06
 30
0.0
 11
1698.515399
 21
1811.06
 31
0.0
  0
ARC
  5
54F
102
{ACAD_REACTORS
330
647
102
}
330
1F
100
AcDbEntity
  8
LC-002-002-----0
 62
     7
370
    25
100
AcDbCircle
 10
1698.015399
 20
1811.06
 30
0.0
 40
0.5
100
AcDbArc
 50
270.0
 51
0.0
  0
ARC
  5
550
102
{ACAD_REACTORS
330
647
102
}
330
1F
100
AcDbEntity
  8
LC-002-002-----0
 62
     7
370
    25
100
AcDbCircle
 10
1698.015399
 20
1835.06
 30
0.0
 40
0.5
100
AcDbArc
 50
0.0
 51
90.0
  0
ARC
  5
551
102
{ACAD_REACTORS
330
647
102
}
330
1F
100
AcDbEntity
  8
LC-002-002-----0
 62
     7
370
    25
100
AcDbCircle
 10
1641.164509
 20
1836.56
 30
0.0
 40
1.000000000000383
100
AcDbArc
 50
226.865368
 51
270.0
  0
ARC
  5
552
102
{ACAD_REACTORS
330
647
102
}
330
1F
100
AcDbEntity
  8
LC-002-002-----0
 62
     7
370
    25
100
AcDbCircle
 10
1641.164509
 20
1809.56
 30
0.0
 40
1.0
100
AcDbArc
 50
90.0
 51
133.134632
  0
LINE
  5
553
102
{ACAD_REACTORS
330
645
102
}
330
1F
100
AcDbEntity
  8
LC-002-002-----0
 62
     7
370
    25
100
AcDbLine
 10
1753.515399
 20
1834.734282
 30
0.0
 11
1770.058931
 21
1834.734282
 31
0.0
  0
LINE
  5
554
102
{ACAD_REACTORS
330
646
102
}
330
1F
100
AcDbEntity
  8
LC-002-002-----0
 62
     7
370
    25
100
AcDbLine
 10
1698.515399
 20
1834.234281
 30
0.0
 11
1715.427007
 21
1834.234281
 31
0.0
  0
LINE
  5
555
102
{ACAD_REACTORS
330
645
102
}
330
1F
100
AcDbEntity
  8
LC-002-002-----0
 62
     7
370
    25
100
AcDbLine
 10
1770.058931
 20
1811.334282
 30
0.0
 11
1753.515399
 21
1811.334282
 31
0.0
  0
LINE
  5
556
102
{ACAD_REACTORS
330
646
102
}
330
1F
100
AcDbEntity
  8
LC-002-002-----0
 62
     7
370
    25
100
AcDbLine
 10
1698.515399
 20
1811.834281
 30
0.0
 11
1715.603786
 21
1811.834281
 31
0.0
  0
ARC
  5
557
102
{ACAD_REACTORS
330
645
102
}
330
1F
100
AcDbEntity
  8
LC-002-002-----0
 62
     7
370
    25
100
AcDbCircle
 10
1781.286212
 20
1823.034282
 30
0.0
 40
19.25000000000068
100
AcDbArc
 50
217.430036
 51
142.569964
  0
ARC
  5
558
102
{ACAD_REACTORS
330
645
102
}
330
1F
100
AcDbEntity
  8
LC-002-002-----0
 62
     7
370
    25
100
AcDbCircle
 10
1781.734547
 20
1823.034282
 30
0.0
 40
16.50000000000056
100
AcDbArc
 50
217.041927
 51
142.96134
  0
LINE
  5
559
102
{ACAD_REACTORS
330
645
102
}
330
1F
100
AcDbEntity
  8
LC-002-002-----0
 62
     7
370
    25
100
AcDbLine
 10
1768.473408
 20
1813.12664
 30
0.0
 11
1768.473408
 21
1813.12664
 31
0.0
  0
LINE
  5
55A
102
{ACAD_REACTORS
330
645
102
}
330
1F
100
AcDbEntity
  8
LC-002-002-----0
 62
     7
370
    25
100
AcDbLine
 10
1768.564331
 20
1813.094694
 30
0.0
 11
1765.747658
 21
1814.084343
 31
0.0
  0
LINE
  5
55B
102
{ACAD_REACTORS
330
645
102
}
330
1F
100
AcDbEntity
  8
LC-002-002-----0
 62
     7
370
    25
100
AcDbLine
 10
1765.747658
 20
1814.084343
 30
0.0
 11
1765.747658
 21
1814.084343
 31
0.0
  0
LINE
  5
55C
102
{ACAD_REACTORS
330
645
102
}
330
1F
100
AcDbEntity
  8
LC-002-002-----0
 62
     7
370
    25
100
AcDbLine
 10
1765.747658
 20
1814.084343
 30
0.0
 11
1763.841065
 21
1815.02091
 31
0.0
  0
LINE
  5
55D
102
{ACAD_REACTORS
330
645
102
}
330
1F
100
AcDbEntity
  8
LC-002-002-----0
 62
     7
370
    25
100
AcDbLine
 10
1763.841065
 20
1815.02091
 30
0.0
 11
1763.841065
 21
1815.02091
 31
0.0
  0
LINE
  5
55E
102
{ACAD_REACTORS
330
645
102
}
330
1F
100
AcDbEntity
  8
LC-002-002-----0
 62
     7
370
    25
100
AcDbLine
 10
1763.841065
 20
1815.02091
 30
0.0
 11
1762.784603
 21
1815.684713
 31
0.0
  0
LINE
  5
55F
102
{ACAD_REACTORS
330
645
102
}
330
1F
100
AcDbEntity
  8
LC-002-002-----0
 62
     7
370
    25
100
AcDbLine
 10
1762.784603
 20
1815.684713
 30
0.0
 11
1762.784603
 21
1815.684713
 31
0.0
  0
LINE
  5
560
102
{ACAD_REACTORS
330
645
102
}
330
1F
100
AcDbEntity
  8
LC-002-002-----0
 62
     7
370
    25
100
AcDbLine
 10
1762.784603
 20
1815.684713
 30
0.0
 11
1761.785854
 21
1816.454733
 31
0.0
  0
LINE
  5
561
102
{ACAD_REACTORS
330
645
102
}
330
1F
100
AcDbEntity
  8
LC-002-002-----0
 62
     7
370
    25
100
AcDbLine
 10
1761.785854
 20
1816.454733
 30
0.0
 11
1761.785854
 21
1816.454733
 31
0.0
  0
LINE
  5
562
102
{ACAD_REACTORS
330
645
102
}
330
1F
100
AcDbEntity
  8
LC-002-002-----0
 62
     7
370
    25
100
AcDbLine
 10
1761.785854
 20
1816.454733
 30
0.0
 11
1760.650619
 21
1817.588598
 31
0.0
  0
LINE
  5
563
102
{ACAD_REACTORS
330
645
102
}
330
1F
100
AcDbEntity
  8
LC-002-002-----0
 62
     7
370
    25
100
AcDbLine
 10
1760.650619
 20
1817.588598
 30
0.0
 11
1760.650619
 21
1817.588598
 31
0.0
  0
LINE
  5
564
102
{ACAD_REACTORS
330
645
102
}
330
1F
100
AcDbEntity
  8
LC-002-002-----0
 62
     7
370
    25
100
AcDbLine
 10
1760.650619
 20
1817.588598
 30
0.0
 11
1760.07094
 21
1818.342011
 31
0.0
  0
LINE
  5
565
102
{ACAD_REACTORS
330
645
102
}
330
1F
100
AcDbEntity
  8
LC-002-002-----0
 62
     7
370
    25
100
AcDbLine
 10
1760.07094
 20
1818.342011
 30
0.0
 11
1760.07094
 21
1818.342011
 31
0.0
  0
LINE
  5
566
102
{ACAD_REACTORS
330
645
102
}
330
1F
100
AcDbEntity
  8
LC-002-002-----0
 62
     7
370
    25
100
AcDbLine
 10
1760.07094
 20
1818.342011
 30
0.0
 11
1759.565099
 21
1819.16951
 31
0.0
  0
LINE
  5
567
102
{ACAD_REACTORS
330
645
102
}
330
1F
100
AcDbEntity
  8
LC-002-002-----0
 62
     7
370
    25
100
AcDbLine
 10
1759.565099
 20
1819.16951
 30
0.0
 11
1759.565099
 21
1819.16951
 31
0.0
  0
LINE
  5
568
102
{ACAD_REACTORS
330
645
102
}
330
1F
100
AcDbEntity
  8
LC-002-002-----0
 62
     7
370
    25
100
AcDbLine
 10
1759.565099
 20
1819.16951
 30
0.0
 11
1758.822066
 21
1821.095525
 31
0.0
  0
LINE
  5
569
102
{ACAD_REACTORS
330
645
102
}
330
1F
100
AcDbEntity
  8
LC-002-002-----0
 62
     7
370
    25
100
AcDbLine
 10
1758.822066
 20
1821.095525
 30
0.0
 11
1758.822066
 21
1821.095525
 31
0.0
  0
LINE
  5
56A
102
{ACAD_REACTORS
330
645
102
}
330
1F
100
AcDbEntity
  8
LC-002-002-----0
 62
     7
370
    25
100
AcDbLine
 10
1758.822066
 20
1821.095525
 30
0.0
 11
1758.645597
 21
1822.05782
 31
0.0
  0
LINE
  5
56B
102
{ACAD_REACTORS
330
645
102
}
330
1F
100
AcDbEntity
  8
LC-002-002-----0
 62
     7
370
    25
100
AcDbLine
 10
1758.645597
 20
1822.05782
 30
0.0
 11
1758.645597
 21
1822.05782
 31
0.0
  0
LINE
  5
56C
102
{ACAD_REACTORS
330
645
102
}
330
1F
100
AcDbEntity
  8
LC-002-002-----0
 62
     7
370
    25
100
AcDbLine
 10
1758.645597
 20
1822.05782
 30
0.0
 11
1758.586151
 21
1823.039706
 31
0.0
  0
LINE
  5
56D
102
{ACAD_REACTORS
330
645
102
}
330
1F
100
AcDbEntity
  8
LC-002-002-----0
 62
     7
370
    25
100
AcDbLine
 10
1758.586151
 20
1823.039706
 30
0.0
 11
1758.586151
 21
1823.039706
 31
0.0
  0
LINE
  5
56E
102
{ACAD_REACTORS
330
645
102
}
330
1F
100
AcDbEntity
  8
LC-002-002-----0
 62
     7
370
    25
100
AcDbLine
 10
1758.586151
 20
1823.039706
 30
0.0
 11
1758.824394
 21
1824.982447
 31
0.0
  0
LINE
  5
56F
102
{ACAD_REACTORS
330
645
102
}
330
1F
100
AcDbEntity
  8
LC-002-002-----0
 62
     7
370
    25
100
AcDbLine
 10
1758.824394
 20
1824.982447
 30
0.0
 11
1758.824394
 21
1824.982447
 31
0.0
  0
LINE
  5
570
102
{ACAD_REACTORS
330
645
102
}
330
1F
100
AcDbEntity
  8
LC-002-002-----0
 62
     7
370
    25
100
AcDbLine
 10
1758.824394
 20
1824.982447
 30
0.0
 11
1759.536492
 21
1826.84528
 31
0.0
  0
LINE
  5
571
102
{ACAD_REACTORS
330
645
102
}
330
1F
100
AcDbEntity
  8
LC-002-002-----0
 62
     7
370
    25
100
AcDbLine
 10
1759.536492
 20
1826.84528
 30
0.0
 11
1759.536492
 21
1826.84528
 31
0.0
  0
LINE
  5
572
102
{ACAD_REACTORS
330
645
102
}
330
1F
100
AcDbEntity
  8
LC-002-002-----0
 62
     7
370
    25
100
AcDbLine
 10
1759.536492
 20
1826.84528
 30
0.0
 11
1760.484885
 21
1828.280367
 31
0.0
  0
LINE
  5
573
102
{ACAD_REACTORS
330
645
102
}
330
1F
100
AcDbEntity
  8
LC-002-002-----0
 62
     7
370
    25
100
AcDbLine
 10
1760.484885
 20
1828.280367
 30
0.0
 11
1760.484885
 21
1828.280367
 31
0.0
  0
LINE
  5
574
102
{ACAD_REACTORS
330
645
102
}
330
1F
100
AcDbEntity
  8
LC-002-002-----0
 62
     7
370
    25
100
AcDbLine
 10
1760.484885
 20
1828.280367
 30
0.0
 11
1761.367361
 21
1829.235527
 31
0.0
  0
LINE
  5
575
102
{ACAD_REACTORS
330
645
102
}
330
1F
100
AcDbEntity
  8
LC-002-002-----0
 62
     7
370
    25
100
AcDbLine
 10
1761.367361
 20
1829.235527
 30
0.0
 11
1761.367361
 21
1829.235527
 31
0.0
  0
LINE
  5
576
102
{ACAD_REACTORS
330
645
102
}
330
1F
100
AcDbEntity
  8
LC-002-002-----0
 62
     7
370
    25
100
AcDbLine
 10
1761.367361
 20
1829.235527
 30
0.0
 11
1762.336337
 21
1830.058198
 31
0.0
  0
LINE
  5
577
102
{ACAD_REACTORS
330
645
102
}
330
1F
100
AcDbEntity
  8
LC-002-002-----0
 62
     7
370
    25
100
AcDbLine
 10
1762.336337
 20
1830.058198
 30
0.0
 11
1762.336337
 21
1830.058198
 31
0.0
  0
LINE
  5
578
102
{ACAD_REACTORS
330
645
102
}
330
1F
100
AcDbEntity
  8
LC-002-002-----0
 62
     7
370
    25
100
AcDbLine
 10
1762.336337
 20
1830.058198
 30
0.0
 11
1763.6858
 21
1830.957787
 31
0.0
  0
LINE
  5
579
102
{ACAD_REACTORS
330
645
102
}
330
1F
100
AcDbEntity
  8
LC-002-002-----0
 62
     7
370
    25
100
AcDbLine
 10
1763.6858
 20
1830.957787
 30
0.0
 11
1763.6858
 21
1830.957787
 31
0.0
  0
LINE
  5
57A
102
{ACAD_REACTORS
330
645
102
}
330
1F
100
AcDbEntity
  8
LC-002-002-----0
 62
     7
370
    25
100
AcDbLine
 10
1763.6858
 20
1830.957787
 30
0.0
 11
1764.818304
 21
1831.563187
 31
0.0
  0
LINE
  5
57B
102
{ACAD_REACTORS
330
645
102
}
330
1F
100
AcDbEntity
  8
LC-002-002-----0
 62
     7
370
    25
100
AcDbLine
 10
1764.818304
 20
1831.563187
 30
0.0
 11
1764.818304
 21
1831.563187
 31
0.0
  0
LINE
  5
57C
102
{ACAD_REACTORS
330
645
102
}
330
1F
100
AcDbEntity
  8
LC-002-002-----0
 62
     7
370
    25
100
AcDbLine
 10
1764.818304
 20
1831.563187
 30
0.0
 11
1765.984614
 21
1832.082681
 31
0.0
  0
LINE
  5
57D
102
{ACAD_REACTORS
330
645
102
}
330
1F
100
AcDbEntity
  8
LC-002-002-----0
 62
     7
370
    25
100
AcDbLine
 10
1765.984614
 20
1832.082681
 30
0.0
 11
1765.984614
 21
1832.082681
 31
0.0
  0
LINE
  5
57E
102
{ACAD_REACTORS
330
645
102
}
330
1F
100
AcDbEntity
  8
LC-002-002-----0
 62
     7
370
    25
100
AcDbLine
 10
1765.984614
 20
1832.082681
 30
0.0
 11
1768.563764
 21
1832.973119
 31
0.0
  0
ARC
  5
57F
102
{ACAD_REACTORS
330
647
102
}
330
1F
100
AcDbEntity
  8
LC-002-002-----0
 62
     7
370
    25
100
AcDbCircle
 10
1628.515399
 20
1823.06
 30
0.0
 40
17.5
100
AcDbArc
 50
269.999999
 51
313.136338
  0
ARC
  5
580
102
{ACAD_REACTORS
330
647
102
}
330
1F
100
AcDbEntity
  8
LC-002-002-----0
 62
     7
370
    25
100
AcDbCircle
 10
1628.515399
 20
1823.06
 30
0.0
 40
17.49999999999999
100
AcDbArc
 50
46.863818
 51
90.0
  0
LINE
  5
581
102
{ACAD_REACTORS
330
646
102
}
330
1F
100
AcDbEntity
  8
LC-002-002-----0
 62
     7
370
    25
100
AcDbLine
 10
1715.515399
 20
1811.857483
 30
0.0
 11
1723.515399
 21
1809.757483
 31
0.0
  0
LINE
  5
582
102
{ACAD_REACTORS
330
646
102
}
330
1F
100
AcDbEntity
  8
LC-002-002-----0
 62
     7
370
    25
100
AcDbLine
 10
1723.515399
 20
1809.757483
 30
0.0
 11
1753.015399
 21
1809.757483
 31
0.0
  0
LINE
  5
583
102
{ACAD_REACTORS
330
646
102
}
330
1F
100
AcDbEntity
  8
LC-002-002-----0
 62
     7
370
    25
100
AcDbLine
 10
1753.015399
 20
1836.357483
 30
0.0
 11
1723.515399
 21
1836.357483
 31
0.0
  0
LINE
  5
584
102
{ACAD_REACTORS
330
646
102
}
330
1F
100
AcDbEntity
  8
LC-002-002-----0
 62
     7
370
    25
100
AcDbLine
 10
1723.515399
 20
1836.357483
 30
0.0
 11
1715.515395
 21
1834.257483
 31
0.0
  0
LINE
  5
585
102
{ACAD_REACTORS
330
646
102
}
330
1F
100
AcDbEntity
  8
LC-002-002-----0
 62
     7
370
    25
100
AcDbLine
 10
1753.515399
 20
1835.857483
 30
0.0
 11
1753.515399
 21
1810.257471
 31
0.0
  0
INSERT
  5
591
102
{ACAD_REACTORS
330
646
102
}
330
1F
100
AcDbEntity
  8
LC-002-002-----0
 62
     7
370
    25
100
AcDbBlockReference
  2
POLY13
 10
0.0
 20
0.0
 30
0.0
  0
INSERT
  5
599
102
{ACAD_REACTORS
330
646
102
}
330
1F
100
AcDbEntity
  8
LC-002-002-----0
 62
     7
370
    25
100
AcDbBlockReference
  2
POLY14
 10
0.0
 20
0.0
 30
0.0
  0
INSERT
  5
5A5
102
{ACAD_REACTORS
330
646
102
}
330
1F
100
AcDbEntity
  8
LC-002-002-----0
 62
     7
370
    25
100
AcDbBlockReference
  2
POLY15
 10
0.0
 20
0.0
 30
0.0
  0
LINE
  5
5A6
102
{ACAD_REACTORS
330
647
102
}
330
1F
100
AcDbEntity
  8
LC-002-002-----0
 62
     7
370
    25
100
AcDbLine
 10
1628.515399
 20
1843.06
 30
0.0
 11
1628.515398
 21
1803.06
 31
0.0
  0
LINE
  5
5A7
102
{ACAD_REACTORS
330
647
102
}
330
1F
100
AcDbEntity
  8
LC-002-002-----0
 62
     7
370
    25
100
AcDbLine
 10
1622.515399
 20
1843.06
 30
0.0
 11
1628.515399
 21
1843.06
 31
0.0
  0
ARC
  5
5A8
102
{ACAD_REACTORS
330
647
102
}
330
1F
100
AcDbEntity
  8
LC-002-002-----0
 62
     7
370
    25
100
AcDbCircle
 10
1622.515399
 20
1823.06
 30
0.0
 40
19.99999999999955
100
AcDbArc
 50
90.0
 51
138.709438
  0
LINE
  5
5A9
102
{ACAD_REACTORS
330
647
102
}
330
1F
100
AcDbEntity
  8
LC-002-002-----0
 62
     7
370
    25
100
AcDbLine
 10
1587.083752
 20
1835.552545
 30
0.0
 11
1607.487942
 21
1836.257558
 31
0.0
  0
ARC
  5
5AA
102
{ACAD_REACTORS
330
647
102
}
330
1F
100
AcDbEntity
  8
LC-002-002-----0
 62
     7
370
    25
100
AcDbCircle
 10
1587.515399
 20
1823.06
 30
0.0
 40
12.50000000000013
100
AcDbArc
 50
91.978918
 51
268.021179
  0
LINE
  5
5AB
102
{ACAD_REACTORS
330
647
102
}
330
1F
100
AcDbEntity
  8
LC-002-002-----0
 62
     7
370
    25
100
AcDbLine
 10
1587.083773
 20
1810.567454
 30
0.0
 11
1607.487911
 21
1809.862477
 31
0.0
  0
ARC
  5
5AC
102
{ACAD_REACTORS
330
647
102
}
330
1F
100
AcDbEntity
  8
LC-002-002-----0
 62
     7
370
    25
100
AcDbCircle
 10
1622.515399
 20
1823.06
 30
0.0
 40
19.99999999999975
100
AcDbArc
 50
221.290426
 51
270.0
  0
LINE
  5
5AD
102
{ACAD_REACTORS
330
647
102
}
330
1F
100
AcDbEntity
  8
LC-002-002-----0
 62
     7
370
    25
100
AcDbLine
 10
1622.515399
 20
1803.06
 30
0.0
 11
1628.515399
 21
1803.06
 31
0.0
  0
INSERT
  5
5B4
102
{ACAD_REACTORS
330
642
102
}
330
1F
100
AcDbEntity
  8
LC-010-005-----0
 62
     7
370
    25
100
AcDbBlockReference
  2
*X330
 10
0.0
 20
0.0
 30
0.0
  0
INSERT
  5
5BC
102
{ACAD_REACTORS
330
642
102
}
330
1F
100
AcDbEntity
  8
LC-010-005-----0
 62
     7
370
    25
100
AcDbBlockReference
  2
*X431
 10
0.0
 20
0.0
 30
0.0
  0
LINE
  5
5BD
102
{ACAD_REACTORS
330
64A
102
}
330
1F
100
AcDbEntity
  8
LC-002-002-----0
 62
     7
370
    25
100
AcDbLine
 10
1509.36317
 20
1881.56
 30
0.0
 11
1508.208394
 21
1881.56
 31
0.0
  0
INSERT
  5
5D7
330
1F
100
AcDbEntity
  8
LC-009-003-----0
 62
     7
370
    25
100
AcDbBlockReference
  2
LCDIM12
 10
0.0
 20
0.0
 30
0.0
  0
INSERT
  5
5F1
102
{ACAD_REACTORS
330
643
102
}
330
1F
100
AcDbEntity
  8
LC-009-003-----0
 62
     7
370
    25
100
AcDbBlockReference
  2
LCDIM13
 10
0.0
 20
0.0
 30
0.0
  0
TEXT
  5
5F2
330
1F
100
AcDbEntity
  8
LC-011-004-----0
 62
     7
370
    25
100
AcDbText
 10
1249.763573
 20
476.166075
 30
0.0
 40
25.0
  1
Art. Nr. 921
 41
0.8
  7
LCTX0-400-0-0pDIN-Schrift
100
AcDbText
  0
LINE
  5
5F3
102
{ACAD_REACTORS
330
649
102
}
330
1F
100
AcDbEntity
  8
LC-005-006-MLN-0
 62
     7
370
    25
100
AcDbLine
 10
1437.86746
 20
804.478317
 30
0.0
 11
1437.86746
 21
1052.978317
 31
0.0
  0
LINE
  5
5F4
102
{ACAD_REACTORS
330
649
102
}
330
1F
100
AcDbEntity
  8
LC-005-006-MLN-0
 62
     7
370
    25
100
AcDbLine
 10
1223.61746
 20
928.728317
 30
0.0
 11
1652.11746
 21
928.728317
 31
0.0
  0
TEXT
  5
5F5
102
{ACAD_REACTORS
330
649
102
}
330
1F
100
AcDbEntity
  8
LC-011-004-----0
 62
     7
370
    35
100
AcDbText
 10
1239.618804
 20
1101.471399
 30
0.0
 40
35.0
  1
Ausschnitt Unterbau  1:20
 41
0.8
  7
LCTX0-400-0-0pDIN-Schrift
100
AcDbText
  0
LINE
  5
5F6
102
{ACAD_REACTORS
330
649
102
}
330
1F
100
AcDbEntity
  8
LC-002-002-----0
 62
     7
370
    50
100
AcDbLine
 10
1629.11746
 20
1049.978317
 30
0.0
 11
1246.61746
 21
1049.978317
 31
0.0
  0
LINE
  5
5F7
102
{ACAD_REACTORS
330
649
102
}
330
1F
100
AcDbEntity
  8
LC-002-002-----0
 62
     7
370
    50
100
AcDbLine
 10
1226.61746
 20
1029.978317
 30
0.0
 11
1226.61746
 21
827.478317
 31
0.0
  0
LINE
  5
5F8
102
{ACAD_REACTORS
330
649
102
}
330
1F
100
AcDbEntity
  8
LC-002-002-----0
 62
     7
370
    50
100
AcDbLine
 10
1246.61746
 20
807.478317
 30
0.0
 11
1629.11746
 21
807.478317
 31
0.0
  0
LINE
  5
5F9
102
{ACAD_REACTORS
330
649
102
}
330
1F
100
AcDbEntity
  8
LC-002-002-----0
 62
     7
370
    50
100
AcDbLine
 10
1649.11746
 20
827.478317
 30
0.0
 11
1649.11746
 21
1029.978317
 31
0.0
  0
LINE
  5
5FA
330
1F
100
AcDbEntity
  8
LC-002-002-----0
 62
     7
370
    25
100
AcDbLine
 10
-987.648723
 20
3892.760319
 30
0.0
 11
-200.671801
 21
3892.760319
 31
0.0
  0
TEXT
  5
5FB
330
1F
100
AcDbEntity
  8
LC-011-004-----0
 62
     7
370
    25
100
AcDbText
 10
194.153846
 20
400.0
 30
0.0
 40
25.0
  1
a
 41
0.8
  7
LCTX0-400-0-0pDIN-Schrift
100
AcDbText
  0
TEXT
  5
5FC
330
1F
100
AcDbEntity
  8
LC-011-004-----0
 62
     7
370
    25
100
AcDbText
 10
272.153846
 20
400.0
 30
0.0
 40
25.0
  1
Ausschnitt Unterbau
 41
0.7
  7
LCTX0-400-0-0pDIN-Schrift
100
AcDbText
  0
TEXT
  5
5FD
330
1F
100
AcDbEntity
  8
LC-011-004-----0
 62
     7
370
    25
100
AcDbText
 10
532.153846
 20
400.0
 30
0.0
 40
25.0
  1
25.02.08
 41
0.7
  7
LCTX0-400-0-0pDIN-Schrift
100
AcDbText
  0
TEXT
  5
5FE
330
1F
100
AcDbEntity
  8
LC-011-004-----0
 62
     7
370
    25
100
AcDbText
 10
662.153846
 20
400.0
 30
0.0
 40
25.0
  1
HÄ
 41
0.8
  7
LCTX0-400-0-0pDIN-Schrift
100
AcDbText
  0
INSERT
  5
618
102
{ACAD_REACTORS
330
649
102
}
330
1F
100
AcDbEntity
  8
LC-009-003-----0
 62
     7
370
    25
100
AcDbBlockReference
  2
LCDIM14
 10
0.0
 20
0.0
 30
0.0
  0
INSERT
  5
632
102
{ACAD_REACTORS
330
649
102
}
330
1F
100
AcDbEntity
  8
LC-009-003-----0
 62
     7
370
    25
100
AcDbBlockReference
  2
LCDIM15
 10
0.0
 20
0.0
 30
0.0
  0
INSERT
  5
641
102
{ACAD_REACTORS
330
649
102
}
330
1F
100
AcDbEntity
  8
LC-009-003-----0
 62
     7
370
    25
100
AcDbBlockReference
  2
LCDIM16
 10
0.0
 20
0.0
 30
0.0
  0
ENDSEC
  0
SECTION
  2
OBJECTS
  0
DICTIONARY
  5
C
330
0
100
AcDbDictionary
281
     1
  3
ACAD_GROUP
350
D
  3
ACAD_LAYOUT
350
1A
  3
ACAD_MLINESTYLE
350
17
  3
ACAD_PLOTSETTINGS
350
19
  3
ACAD_PLOTSTYLENAME
350
E
  0
DICTIONARY
  5
D
102
{ACAD_REACTORS
330
C
102
}
330
C
100
AcDbDictionary
281
     1
  3
LCGROUP308
350
643
  3
LCGROUP309
350
644
  3
LCGROUP378
350
648
  3
LCGROUP43
350
642
  3
LCGROUP476
350
64C
  3
LCGROUP481
350
652
  3
LCGROUP482
350
651
  3
LCGROUP483
350
650
  3
LCGROUP485
350
64F
  3
LCGROUP486
350
64E
  3
LCGROUP745
350
64B
  3
LCGROUP746
350
64A
  3
LCGROUP748
350
64D
  3
LCGROUP912
350
647
  3
LCGROUP913
350
646
  3
LCGROUP914
350
645
  3
LCGROUP990
350
649
  0
DICTIONARY
  5
1A
102
{ACAD_REACTORS
330
C
102
}
330
C
100
AcDbDictionary
281
     1
  3
Layout1
350
1E
  3
Layout2
350
26
  3
Model
350
22
  0
DICTIONARY
  5
17
102
{ACAD_REACTORS
330
C
102
}
330
C
100
AcDbDictionary
281
     1
  3
Standard
350
18
  0
DICTIONARY
  5
19
102
{ACAD_REACTORS
330
C
102
}
330
C
100
AcDbDictionary
281
     1
  0
ACDBDICTIONARYWDFLT
  5
E
102
{ACAD_REACTORS
330
C
102
}
330
C
100
AcDbDictionary
281
     1
  3
Normal
350
F
100
AcDbDictionaryWithDefault
340
F
  0
GROUP
  5
643
102
{ACAD_REACTORS
330
D
102
}
330
D
100
AcDbGroup
300
GRP308
 70
     1
 71
     1
340
130
340
131
340
132
340
133
340
134
340
135
340
136
340
137
340
146
340
147
340
149
340
14F
340
150
340
151
340
152
340
153
340
154
340
155
340
156
340
157
340
158
340
159
340
15A
340
15B
340
15C
340
15D
340
15E
340
15F
340
160
340
161
340
163
340
165
340
166
340
167
340
168
340
16A
340
16B
340
16C
340
16D
340
16E
340
16F
340
170
340
171
340
172
340
173
340
174
340
175
340
176
340
177
340
178
340
179
340
17A
340
17B
340
17C
340
17D
340
17E
340
17F
340
180
340
181
340
182
340
183
340
184
340
185
340
186
340
187
340
188
340
189
340
18A
340
195
340
196
340
197
340
198
340
199
340
19A
340
19B
340
19C
340
19D
340
19E
340
19F
340
1A0
340
1A1
340
1A7
340
1A8
340
1A9
340
1AA
340
1AB
340
1AC
340
1AD
340
1AE
340
1AF
340
1B0
340
1B1
340
1B2
340
1B3
340
1B4
340
1B5
340
1B6
340
1B7
340
1C2
340
1C3
340
1C4
340
1C5
340
1C6
340
1C7
340
1C8
340
1C9
340
1CA
340
1CB
340
1CC
340
1CD
340
1CE
340
1CF
340
1D0
340
1D1
340
1D2
340
1D3
340
1D4
340
1D5
340
1D6
340
1D7
340
1D8
340
1D9
340
1DA
340
1DB
340
1DC
340
1DD
340
1DE
340
1DF
340
1E0
340
1E1
340
1E2
340
1E3
340
1E4
340
1E5
340
1E6
340
1E7
340
1E8
340
1E9
340
1EA
340
1EB
340
1EC
340
1ED
340
1EE
340
1EF
340
1F1
340
1F2
340
1F3
340
1F4
340
1F5
340
1F6
340
1F7
340
1F8
340
1F9
340
1FA
340
1FC
340
1FE
340
1FF
340
200
340
201
340
202
340
203
340
204
340
20B
340
20C
340
20D
340
20E
340
20F
340
210
340
211
340
212
340
213
340
214
340
215
340
216
340
217
340
218
340
219
340
21A
340
21B
340
21C
340
21D
340
21E
340
224
340
225
340
226
340
227
340
29C
340
2B6
340
381
340
5F1
  0
GROUP
  5
644
102
{ACAD_REACTORS
330
D
102
}
330
D
100
AcDbGroup
300
GRP309
 70
     1
 71
     1
340
103
340
104
340
106
340
107
340
108
340
109
340
10A
340
10B
340
10C
340
10D
340
10E
340
10F
340
110
340
111
340
112
340
113
340
114
340
115
340
116
340
117
340
118
340
119
340
11A
340
11B
340
11C
340
11D
340
11E
340
11F
340
120
340
121
340
122
340
123
340
124
340
127
340
128
340
12B
340
12C
340
12D
340
12E
340
138
340
139
340
13A
340
13B
340
13C
340
13F
340
140
340
141
340
142
340
144
340
148
340
14A
340
14B
340
14C
340
14D
340
14E
340
162
340
164
340
169
340
18B
340
18C
340
18D
340
18E
340
18F
340
190
340
191
340
192
340
193
340
194
340
1A2
340
1A3
340
1A5
340
1A6
340
1BA
340
1BC
340
1BE
340
1BF
340
1C0
340
1C1
340
1FD
340
205
340
206
340
207
340
208
340
209
340
20A
340
223
340
2B8
340
2B9
340
2BA
340
2C1
340
2C2
340
2CB
340
2E6
340
300
340
31A
340
38A
  0
GROUP
  5
648
102
{ACAD_REACTORS
330
D
102
}
330
D
100
AcDbGroup
300
GRP378
 70
     1
 71
     1
340
129
340
228
340
229
340
22A
340
22B
340
22C
340
22D
340
22E
340
22F
340
230
340
231
340
232
340
233
340
234
340
235
340
236
340
237
340
238
340
239
340
23A
340
23B
340
23C
340
23D
340
23E
340
23F
340
240
340
241
340
242
340
243
340
244
340
245
340
246
340
247
340
248
340
249
340
24A
340
24B
340
24C
340
24D
340
24E
340
24F
340
250
340
251
340
252
340
253
340
254
340
255
340
256
340
257
340
258
340
259
340
25A
340
25B
340
25C
340
25D
340
25E
340
25F
340
260
340
261
340
262
340
263
340
264
340
265
340
282
340
2B7
  0
GROUP
  5
642
102
{ACAD_REACTORS
330
D
102
}
330
D
100
AcDbGroup
300
GRP43
 70
     1
 71
     1
340
1B9
340
1BB
340
1BD
340
1F0
340
2BB
340
2BC
340
2BD
340
2BE
340
2BF
340
2C0
340
2E5
340
5B4
340
5BC
  0
GROUP
  5
64C
102
{ACAD_REACTORS
330
D
102
}
330
D
100
AcDbGroup
300
GRP476
 70
     1
 71
     1
340
13E
340
145
340
1A4
340
1B8
340
31B
340
31C
340
31D
340
31E
340
31F
340
320
340
321
340
322
340
33C
340
356
340
365
340
367
  0
GROUP
  5
652
102
{ACAD_REACTORS
330
D
102
}
330
D
100
AcDbGroup
300
GRP481
 70
     1
 71
     1
340
1FB
340
38B
340
38C
340
38D
340
38E
340
38F
340
390
340
398
340
399
340
3AA
340
3AB
340
3AC
340
3AE
340
3AF
340
3B0
340
3B1
340
3B2
340
3B3
340
3B4
340
3B7
340
3B8
340
3B9
340
3BA
340
3BF
340
3C3
340
3C4
340
3C5
340
3C6
340
3C7
340
3C8
340
3C9
340
3CA
340
3CB
340
3CC
340
3E1
340
3EB
340
3F9
340
407
340
483
340
491
340
492
340
493
340
494
340
495
340
496
340
497
340
498
340
499
340
49A
340
49B
340
49C
340
49D
340
49E
340
49F
340
4A0
340
4A1
340
4A2
340
4A3
340
4A4
340
4A5
340
4A6
340
4A7
340
4A8
340
4A9
340
4AA
340
4AB
340
4AC
340
4AD
340
4AE
340
4AF
340
4B0
340
4B1
340
52E
  0
GROUP
  5
651
102
{ACAD_REACTORS
330
D
102
}
330
D
100
AcDbGroup
300
GRP482-LCMaster-LCGROUP481
 70
     1
 71
     1
340
391
340
393
340
394
340
397
340
39F
340
3A7
340
3A8
340
3D5
340
3D6
340
3D7
340
465
  0
GROUP
  5
650
102
{ACAD_REACTORS
330
D
102
}
330
D
100
AcDbGroup
300
GRP483-LCMaster-LCGROUP482
 70
     1
 71
     1
340
395
340
3A5
340
3A9
340
3AD
340
3CD
340
3CE
340
3CF
340
3D0
340
3D1
340
3D2
  0
GROUP
  5
64F
102
{ACAD_REACTORS
330
D
102
}
330
D
100
AcDbGroup
300
GRP485-LCMaster-LCGROUP483
 70
     1
 71
     1
340
396
340
39B
340
39C
340
3A2
340
3A3
340
3A4
340
3B5
340
3B6
340
3BB
340
466
340
467
340
468
340
469
340
46A
340
46B
  0
GROUP
  5
64E
102
{ACAD_REACTORS
330
D
102
}
330
D
100
AcDbGroup
300
GRP486-LCMaster-LCGROUP485
 70
     1
 71
     1
340
392
340
39A
340
39D
340
39E
340
3A0
340
3A1
340
3A6
340
3BC
340
3BD
340
3BE
340
3C0
340
3C1
340
3C2
340
3D3
340
3D4
340
41F
340
429
340
43B
340
46C
340
46D
340
46E
340
46F
340
470
340
471
340
472
340
473
340
52D
  0
GROUP
  5
64B
102
{ACAD_REACTORS
330
D
102
}
330
D
100
AcDbGroup
300
GRP10
 70
     1
 71
     1
340
4B2
340
515
340
516
340
517
340
518
340
519
340
51A
340
51B
340
51C
340
51D
340
51E
340
51F
340
520
340
521
340
522
340
523
340
524
340
525
340
526
340
527
340
528
340
529
340
52A
340
52B
340
52C
340
52F
  0
GROUP
  5
64A
102
{ACAD_REACTORS
330
D
102
}
330
D
100
AcDbGroup
300
GRP746-LCMaster-LCGROUP745
 70
     1
 71
     1
340
4C1
340
4C2
340
4C4
340
4C6
340
4D0
340
4D1
340
4D2
340
4D3
340
4D4
340
4D5
340
4E9
340
4EA
340
4EB
340
4EC
340
4ED
340
4EE
340
4EF
340
4F0
340
4F7
340
4F8
340
4F9
340
4FA
340
4FB
340
4FC
340
4FD
340
4FE
340
4FF
340
500
340
501
340
502
340
503
340
504
340
514
340
5BD
  0
GROUP
  5
64D
102
{ACAD_REACTORS
330
D
102
}
330
D
100
AcDbGroup
300
GRP748-LCMaster-LCGROUP747
 70
     1
 71
     1
340
12A
340
12F
340
4B3
340
4B4
340
4B5
340
4B6
340
4B7
340
4B8
340
4B9
340
4BA
340
4BB
340
4BC
340
4BD
340
4BE
340
4BF
340
4C0
340
4C3
340
4C5
340
4C7
340
4C8
340
4C9
340
4CA
340
4CB
340
4CC
340
4CD
340
4CE
340
4CF
340
4D6
340
4D7
340
4D8
340
4D9
340
4DA
340
4DB
340
4DC
340
4DD
340
4DE
340
4DF
340
4E0
340
4E1
340
4E2
340
4E3
340
4E4
340
4E5
340
4E6
340
4E7
340
4E8
340
4F5
340
4F6
340
530
340
531
  0
GROUP
  5
647
102
{ACAD_REACTORS
330
D
102
}
330
D
100
AcDbGroup
300
GRP912
 70
     1
 71
     1
340
54C
340
54D
340
54E
340
54F
340
550
340
551
340
552
340
57F
340
580
340
5A6
340
5A7
340
5A8
340
5A9
340
5AA
340
5AB
340
5AC
340
5AD
  0
GROUP
  5
646
102
{ACAD_REACTORS
330
D
102
}
330
D
100
AcDbGroup
300
GRP913-LCMaster-LCGROUP912
 70
     1
 71
     1
340
554
340
556
340
581
340
582
340
583
340
584
340
585
340
591
340
599
340
5A5
  0
GROUP
  5
645
102
{ACAD_REACTORS
330
D
102
}
330
D
100
AcDbGroup
300
GRP914-LCMaster-LCGROUP913
 70
     1
 71
     1
340
553
340
555
340
557
340
558
340
559
340
55A
340
55B
340
55C
340
55D
340
55E
340
55F
340
560
340
561
340
562
340
563
340
564
340
565
340
566
340
567
340
568
340
569
340
56A
340
56B
340
56C
340
56D
340
56E
340
56F
340
570
340
571
340
572
340
573
340
574
340
575
340
576
340
577
340
578
340
579
340
57A
340
57B
340
57C
340
57D
340
57E
  0
GROUP
  5
649
102
{ACAD_REACTORS
330
D
102
}
330
D
100
AcDbGroup
300
GRP990
 70
     1
 71
     1
340
21F
340
220
340
221
340
222
340
5F3
340
5F4
340
5F5
340
5F6
340
5F7
340
5F8
340
5F9
340
618
340
632
340
641
  0
LAYOUT
  5
1E
102
{ACAD_REACTORS
330
1A
102
}
330
1A
100
AcDbPlotSettings
  1

  2

  4

  6

 40
0.0
 41
0.0
 42
0.0
 43
0.0
 44
0.0
 45
0.0
 46
0.0
 47
0.0
 48
0.0
 49
0.0
140
0.0
141
0.0
142
1.0
143
1.0
 70
   688
 72
     0
 73
     0
 74
     5
  7

 75
    16
147
1.0
148
0.0
149
0.0
100
AcDbLayout
  1
Layout1
 70
     1
 71
     1
 10
0.0
 20
0.0
 11
2100.0
 21
2970.0
 12
0.0
 22
0.0
 32
0.0
 14
0.0
 24
0.0
 34
0.0
 15
2100.0
 25
2970.0
 35
0.0
146
0.0
 13
0.0
 23
0.0
 33
0.0
 16
1.0
 26
0.0
 36
0.0
 17
0.0
 27
1.0
 37
0.0
 76
     0
330
1B
  0
LAYOUT
  5
26
102
{ACAD_REACTORS
330
1A
102
}
330
1A
100
AcDbPlotSettings
  1

  2

  4

  6

 40
0.0
 41
0.0
 42
0.0
 43
0.0
 44
0.0
 45
0.0
 46
0.0
 47
0.0
 48
0.0
 49
0.0
140
0.0
141
0.0
142
1.0
143
1.0
 70
   688
 72
     0
 73
     0
 74
     5
  7

 75
    16
147
1.0
148
0.0
149
0.0
100
AcDbLayout
  1
Layout2
 70
     1
 71
     2
 10
0.0
 20
0.0
 11
0.0
 21
0.0
 12
0.0
 22
0.0
 32
0.0
 14
0.0
 24
0.0
 34
0.0
 15
0.0
 25
0.0
 35
0.0
146
0.0
 13
0.0
 23
0.0
 33
0.0
 16
1.0
 26
0.0
 36
0.0
 17
0.0
 27
1.0
 37
0.0
 76
     0
330
23
  0
LAYOUT
  5
22
102
{ACAD_REACTORS
330
1A
102
}
330
1A
100
AcDbPlotSettings
  1

  2

  4

  6

 40
0.0
 41
0.0
 42
0.0
 43
0.0
 44
0.0
 45
0.0
 46
0.0
 47
0.0
 48
0.0
 49
0.0
140
0.0
141
0.0
142
1.0
143
1.0
 70
  1776
 72
     0
 73
     0
 74
     0
  7

 75
     0
147
1.0
148
0.0
149
0.0
100
AcDbLayout
  1
Model
 70
     1
 71
     0
 10
0.0
 20
0.0
 11
2100.0
 21
2970.0
 12
0.0
 22
0.0
 32
0.0
 14
0.0
 24
0.0
 34
0.0
 15
2100.0
 25
2970.0
 35
0.0
146
0.0
 13
0.0
 23
0.0
 33
0.0
 16
1.0
 26
0.0
 36
0.0
 17
0.0
 27
1.0
 37
0.0
 76
     0
330
1F
  0
MLINESTYLE
  5
18
102
{ACAD_REACTORS
330
17
102
}
330
17
100
AcDbMlineStyle
  2
Standard
 70
     0
  3

 62
   256
 51
90.0
 52
90.0
 71
     2
 49
0.5
 62
   256
  6
BYLAYER
 49
-0.5
 62
   256
  6
BYLAYER
  0
ACDBPLACEHOLDER
  5
F
102
{ACAD_REACTORS
330
E
102
}
330
E
  0
ENDSEC
  0
EOF
